ISO-10303-21;
HEADER;
/* Generated by software containing ST-Developer
 * from STEP Tools, Inc. (www.steptools.com) 
 */
/* OPTION: using custom schema-name function */

FILE_DESCRIPTION(
/* description */ (''),
/* implementation_level */ '2;1');

FILE_NAME(
/* name */ 'SAH-2341020251.stp',
/* time_stamp */ '2018-03-16T14:53:47+05:00',
/* author */ (''),
/* organization */ (''),
/* preprocessor_version */ 'ST-DEVELOPER v16',
/* originating_system */ 'SIEMENS PLM Software NX 11.0',
/* authorisation */ '');

FILE_SCHEMA (('AUTOMOTIVE_DESIGN { 1 0 10303 214 3 1 1 1 }'));
ENDSEC;

DATA;
#10=CONSTRUCTIVE_GEOMETRY_REPRESENTATION_RELATIONSHIP(
'supplemental geometry','',#32,#11);
#11=CONSTRUCTIVE_GEOMETRY_REPRESENTATION('supplemental geometry',(#384,
#385,#386),#682);
#12=PROPERTY_DEFINITION_REPRESENTATION(#16,#14);
#13=PROPERTY_DEFINITION_REPRESENTATION(#17,#15);
#14=REPRESENTATION('',(#18),#682);
#15=REPRESENTATION('',(#19),#682);
#16=PROPERTY_DEFINITION('pmi validation property','',#23);
#17=PROPERTY_DEFINITION('pmi validation property','',#23);
#18=VALUE_REPRESENTATION_ITEM('number of annotations',COUNT_MEASURE(0.));
#19=VALUE_REPRESENTATION_ITEM('number of views',COUNT_MEASURE(0.));
#20=SHAPE_REPRESENTATION_RELATIONSHIP('None',
'relationship between SAH-2341020251-None and SAH-2341020251-None',#32,
#21);
#21=ADVANCED_BREP_SHAPE_REPRESENTATION('SAH-2341020251-None',(#67,#68),
#682);
#22=SHAPE_DEFINITION_REPRESENTATION(#23,#32);
#23=PRODUCT_DEFINITION_SHAPE('','',#24);
#24=PRODUCT_DEFINITION(' ','',#26,#25);
#25=PRODUCT_DEFINITION_CONTEXT('part definition',#31,'design');
#26=PRODUCT_DEFINITION_FORMATION_WITH_SPECIFIED_SOURCE(' ',' ',#28,
 .NOT_KNOWN.);
#27=PRODUCT_RELATED_PRODUCT_CATEGORY('part','',(#28));
#28=PRODUCT('SAH-2341020251','SAH-2341020251',' ',(#29));
#29=PRODUCT_CONTEXT(' ',#31,'mechanical');
#30=APPLICATION_PROTOCOL_DEFINITION('international standard',
'automotive_design',2010,#31);
#31=APPLICATION_CONTEXT(
'core data for automotive mechanical design processes');
#32=SHAPE_REPRESENTATION('SAH-2341020251-None',(#383),#682);
#33=B_SPLINE_CURVE_WITH_KNOTS('',3,(#591,#592,#593,#594,#595,#596),
 .UNSPECIFIED.,.F.,.F.,(4,2,4),(0.,0.5,1.),.UNSPECIFIED.);
#34=B_SPLINE_CURVE_WITH_KNOTS('',3,(#600,#601,#602,#603,#604,#605),
 .UNSPECIFIED.,.F.,.F.,(4,2,4),(0.,0.5,1.),.UNSPECIFIED.);
#35=B_SPLINE_CURVE_WITH_KNOTS('',3,(#619,#620,#621,#622,#623,#624),
 .UNSPECIFIED.,.F.,.F.,(4,2,4),(0.,0.5,1.),.UNSPECIFIED.);
#36=B_SPLINE_CURVE_WITH_KNOTS('',3,(#628,#629,#630,#631,#632,#633),
 .UNSPECIFIED.,.F.,.F.,(4,2,4),(0.,0.5,1.),.UNSPECIFIED.);
#37=B_SPLINE_CURVE_WITH_KNOTS('',3,(#637,#638,#639,#640,#641,#642),
 .UNSPECIFIED.,.F.,.F.,(4,2,4),(0.,0.5,1.),.UNSPECIFIED.);
#38=B_SPLINE_CURVE_WITH_KNOTS('',3,(#646,#647,#648,#649,#650,#651),
 .UNSPECIFIED.,.F.,.F.,(4,2,4),(0.,0.5,1.),.UNSPECIFIED.);
#39=B_SPLINE_CURVE_WITH_KNOTS('',3,(#653,#654,#655,#656,#657,#658),
 .UNSPECIFIED.,.F.,.F.,(4,2,4),(0.,0.5,1.),.UNSPECIFIED.);
#40=B_SPLINE_CURVE_WITH_KNOTS('',3,(#666,#667,#668,#669,#670,#671),
 .UNSPECIFIED.,.F.,.F.,(4,2,4),(0.,0.5,1.),.UNSPECIFIED.);
#41=LINE('',#582,#49);
#42=LINE('',#587,#50);
#43=LINE('',#598,#51);
#44=LINE('',#607,#52);
#45=LINE('',#644,#53);
#46=LINE('',#660,#54);
#47=LINE('',#676,#55);
#48=LINE('',#678,#56);
#49=VECTOR('',#488,1.);
#50=VECTOR('',#491,1.);
#51=VECTOR('',#496,1.);
#52=VECTOR('',#499,1.);
#53=VECTOR('',#520,1.);
#54=VECTOR('',#523,1.);
#55=VECTOR('',#536,1.);
#56=VECTOR('',#539,1.);
#57=SURFACE_STYLE_USAGE(.BOTH.,#59);
#58=SURFACE_STYLE_USAGE(.BOTH.,#60);
#59=SURFACE_SIDE_STYLE('',(#61));
#60=SURFACE_SIDE_STYLE('',(#62));
#61=SURFACE_STYLE_FILL_AREA(#63);
#62=SURFACE_STYLE_FILL_AREA(#64);
#63=FILL_AREA_STYLE('',(#65));
#64=FILL_AREA_STYLE('',(#66));
#65=FILL_AREA_STYLE_COLOUR('',#379);
#66=FILL_AREA_STYLE_COLOUR('',#379);
#67=MANIFOLD_SOLID_BREP('NOCUT',#69);
#68=MANIFOLD_SOLID_BREP('NOCUT',#70);
#69=CLOSED_SHELL('',(#98,#99,#100,#101,#102,#103,#104,#105,#106,#107,#108,
#109));
#70=CLOSED_SHELL('',(#110,#111,#112,#113,#114,#115,#116,#117,#118,#119,
#120,#121,#122));
#71=TOROIDAL_SURFACE('',#406,24.,2.99999999999999);
#72=CYLINDRICAL_SURFACE('',#399,40.);
#73=CYLINDRICAL_SURFACE('',#405,21.);
#74=CYLINDRICAL_SURFACE('',#409,10.);
#75=CYLINDRICAL_SURFACE('',#412,20.);
#76=CYLINDRICAL_SURFACE('',#416,20.);
#77=CYLINDRICAL_SURFACE('',#420,19.2);
#78=CYLINDRICAL_SURFACE('',#431,20.);
#79=CYLINDRICAL_SURFACE('',#433,20.);
#80=FACE_OUTER_BOUND('',#165,.T.);
#81=FACE_OUTER_BOUND('',#178,.T.);
#82=FACE_OUTER_BOUND('',#181,.T.);
#83=FACE_OUTER_BOUND('',#182,.T.);
#84=FACE_OUTER_BOUND('',#183,.T.);
#85=FACE_OUTER_BOUND('',#184,.T.);
#86=FACE_OUTER_BOUND('',#189,.T.);
#87=FACE_OUTER_BOUND('',#190,.T.);
#88=FACE_OUTER_BOUND('',#193,.T.);
#89=FACE_OUTER_BOUND('',#194,.T.);
#90=FACE_OUTER_BOUND('',#195,.T.);
#91=FACE_OUTER_BOUND('',#196,.T.);
#92=CONICAL_SURFACE('',#391,15.5787017068246,44.9999999999999);
#93=CONICAL_SURFACE('',#393,16.5787017068246,4.50000000000001);
#94=CONICAL_SURFACE('',#397,40.,45.);
#95=CONICAL_SURFACE('',#401,39.,45.);
#96=CONICAL_SURFACE('',#423,19.2,30.0000000000004);
#97=CONICAL_SURFACE('',#429,20.,45.0000000000001);
#98=ADVANCED_FACE('',(#133,#134),#123,.T.);
#99=ADVANCED_FACE('',(#135,#136),#92,.T.);
#100=ADVANCED_FACE('',(#137,#138),#93,.T.);
#101=ADVANCED_FACE('',(#80),#124,.T.);
#102=ADVANCED_FACE('',(#139,#140),#94,.T.);
#103=ADVANCED_FACE('',(#141,#142),#72,.T.);
#104=ADVANCED_FACE('',(#143,#144),#95,.T.);
#105=ADVANCED_FACE('',(#145,#146),#125,.T.);
#106=ADVANCED_FACE('',(#147,#148),#73,.T.);
#107=ADVANCED_FACE('',(#149,#150),#71,.F.);
#108=ADVANCED_FACE('',(#81),#126,.T.);
#109=ADVANCED_FACE('',(#151,#152),#74,.F.);
#110=ADVANCED_FACE('',(#82),#75,.T.);
#111=ADVANCED_FACE('',(#83),#127,.F.);
#112=ADVANCED_FACE('',(#84),#76,.T.);
#113=ADVANCED_FACE('',(#85),#128,.F.);
#114=ADVANCED_FACE('',(#153,#154),#77,.T.);
#115=ADVANCED_FACE('',(#155,#156),#96,.T.);
#116=ADVANCED_FACE('',(#86),#129,.F.);
#117=ADVANCED_FACE('',(#87),#130,.F.);
#118=ADVANCED_FACE('',(#157,#158),#97,.T.);
#119=ADVANCED_FACE('',(#88),#131,.T.);
#120=ADVANCED_FACE('',(#89),#78,.T.);
#121=ADVANCED_FACE('',(#90),#132,.F.);
#122=ADVANCED_FACE('',(#91),#79,.T.);
#123=PLANE('',#389);
#124=PLANE('',#395);
#125=PLANE('',#403);
#126=PLANE('',#408);
#127=PLANE('',#413);
#128=PLANE('',#418);
#129=PLANE('',#424);
#130=PLANE('',#425);
#131=PLANE('',#430);
#132=PLANE('',#432);
#133=FACE_BOUND('',#159,.T.);
#134=FACE_BOUND('',#160,.T.);
#135=FACE_BOUND('',#161,.T.);
#136=FACE_BOUND('',#162,.T.);
#137=FACE_BOUND('',#163,.T.);
#138=FACE_BOUND('',#164,.T.);
#139=FACE_BOUND('',#166,.T.);
#140=FACE_BOUND('',#167,.T.);
#141=FACE_BOUND('',#168,.T.);
#142=FACE_BOUND('',#169,.T.);
#143=FACE_BOUND('',#170,.T.);
#144=FACE_BOUND('',#171,.T.);
#145=FACE_BOUND('',#172,.T.);
#146=FACE_BOUND('',#173,.T.);
#147=FACE_BOUND('',#174,.T.);
#148=FACE_BOUND('',#175,.T.);
#149=FACE_BOUND('',#176,.T.);
#150=FACE_BOUND('',#177,.T.);
#151=FACE_BOUND('',#179,.T.);
#152=FACE_BOUND('',#180,.T.);
#153=FACE_BOUND('',#185,.T.);
#154=FACE_BOUND('',#186,.T.);
#155=FACE_BOUND('',#187,.T.);
#156=FACE_BOUND('',#188,.T.);
#157=FACE_BOUND('',#191,.T.);
#158=FACE_BOUND('',#192,.T.);
#159=EDGE_LOOP('',(#197));
#160=EDGE_LOOP('',(#198));
#161=EDGE_LOOP('',(#199));
#162=EDGE_LOOP('',(#200));
#163=EDGE_LOOP('',(#201));
#164=EDGE_LOOP('',(#202));
#165=EDGE_LOOP('',(#203));
#166=EDGE_LOOP('',(#204));
#167=EDGE_LOOP('',(#205));
#168=EDGE_LOOP('',(#206));
#169=EDGE_LOOP('',(#207));
#170=EDGE_LOOP('',(#208));
#171=EDGE_LOOP('',(#209));
#172=EDGE_LOOP('',(#210));
#173=EDGE_LOOP('',(#211));
#174=EDGE_LOOP('',(#212));
#175=EDGE_LOOP('',(#213));
#176=EDGE_LOOP('',(#214));
#177=EDGE_LOOP('',(#215));
#178=EDGE_LOOP('',(#216));
#179=EDGE_LOOP('',(#217));
#180=EDGE_LOOP('',(#218));
#181=EDGE_LOOP('',(#219,#220,#221,#222));
#182=EDGE_LOOP('',(#223,#224,#225,#226));
#183=EDGE_LOOP('',(#227,#228,#229,#230));
#184=EDGE_LOOP('',(#231));
#185=EDGE_LOOP('',(#232));
#186=EDGE_LOOP('',(#233));
#187=EDGE_LOOP('',(#234));
#188=EDGE_LOOP('',(#235,#236,#237,#238,#239,#240,#241,#242));
#189=EDGE_LOOP('',(#243,#244,#245,#246));
#190=EDGE_LOOP('',(#247,#248,#249,#250));
#191=EDGE_LOOP('',(#251));
#192=EDGE_LOOP('',(#252,#253,#254,#255,#256,#257,#258,#259));
#193=EDGE_LOOP('',(#260));
#194=EDGE_LOOP('',(#261,#262,#263,#264));
#195=EDGE_LOOP('',(#265,#266,#267,#268));
#196=EDGE_LOOP('',(#269,#270,#271,#272));
#197=ORIENTED_EDGE('',*,*,#303,.T.);
#198=ORIENTED_EDGE('',*,*,#304,.T.);
#199=ORIENTED_EDGE('',*,*,#305,.T.);
#200=ORIENTED_EDGE('',*,*,#303,.F.);
#201=ORIENTED_EDGE('',*,*,#306,.F.);
#202=ORIENTED_EDGE('',*,*,#305,.F.);
#203=ORIENTED_EDGE('',*,*,#307,.F.);
#204=ORIENTED_EDGE('',*,*,#308,.F.);
#205=ORIENTED_EDGE('',*,*,#307,.T.);
#206=ORIENTED_EDGE('',*,*,#309,.F.);
#207=ORIENTED_EDGE('',*,*,#308,.T.);
#208=ORIENTED_EDGE('',*,*,#309,.T.);
#209=ORIENTED_EDGE('',*,*,#310,.F.);
#210=ORIENTED_EDGE('',*,*,#311,.F.);
#211=ORIENTED_EDGE('',*,*,#310,.T.);
#212=ORIENTED_EDGE('',*,*,#306,.T.);
#213=ORIENTED_EDGE('',*,*,#312,.T.);
#214=ORIENTED_EDGE('',*,*,#312,.F.);
#215=ORIENTED_EDGE('',*,*,#311,.T.);
#216=ORIENTED_EDGE('',*,*,#313,.T.);
#217=ORIENTED_EDGE('',*,*,#313,.F.);
#218=ORIENTED_EDGE('',*,*,#304,.F.);
#219=ORIENTED_EDGE('',*,*,#314,.T.);
#220=ORIENTED_EDGE('',*,*,#315,.T.);
#221=ORIENTED_EDGE('',*,*,#316,.F.);
#222=ORIENTED_EDGE('',*,*,#317,.F.);
#223=ORIENTED_EDGE('',*,*,#318,.T.);
#224=ORIENTED_EDGE('',*,*,#319,.T.);
#225=ORIENTED_EDGE('',*,*,#320,.T.);
#226=ORIENTED_EDGE('',*,*,#314,.F.);
#227=ORIENTED_EDGE('',*,*,#321,.T.);
#228=ORIENTED_EDGE('',*,*,#322,.T.);
#229=ORIENTED_EDGE('',*,*,#319,.F.);
#230=ORIENTED_EDGE('',*,*,#323,.F.);
#231=ORIENTED_EDGE('',*,*,#324,.T.);
#232=ORIENTED_EDGE('',*,*,#324,.F.);
#233=ORIENTED_EDGE('',*,*,#325,.T.);
#234=ORIENTED_EDGE('',*,*,#325,.F.);
#235=ORIENTED_EDGE('',*,*,#326,.F.);
#236=ORIENTED_EDGE('',*,*,#327,.T.);
#237=ORIENTED_EDGE('',*,*,#328,.F.);
#238=ORIENTED_EDGE('',*,*,#329,.T.);
#239=ORIENTED_EDGE('',*,*,#330,.F.);
#240=ORIENTED_EDGE('',*,*,#323,.T.);
#241=ORIENTED_EDGE('',*,*,#318,.F.);
#242=ORIENTED_EDGE('',*,*,#317,.T.);
#243=ORIENTED_EDGE('',*,*,#330,.T.);
#244=ORIENTED_EDGE('',*,*,#331,.T.);
#245=ORIENTED_EDGE('',*,*,#332,.T.);
#246=ORIENTED_EDGE('',*,*,#321,.F.);
#247=ORIENTED_EDGE('',*,*,#333,.T.);
#248=ORIENTED_EDGE('',*,*,#334,.F.);
#249=ORIENTED_EDGE('',*,*,#326,.T.);
#250=ORIENTED_EDGE('',*,*,#316,.T.);
#251=ORIENTED_EDGE('',*,*,#335,.T.);
#252=ORIENTED_EDGE('',*,*,#332,.F.);
#253=ORIENTED_EDGE('',*,*,#336,.F.);
#254=ORIENTED_EDGE('',*,*,#337,.F.);
#255=ORIENTED_EDGE('',*,*,#338,.F.);
#256=ORIENTED_EDGE('',*,*,#333,.F.);
#257=ORIENTED_EDGE('',*,*,#315,.F.);
#258=ORIENTED_EDGE('',*,*,#320,.F.);
#259=ORIENTED_EDGE('',*,*,#322,.F.);
#260=ORIENTED_EDGE('',*,*,#335,.F.);
#261=ORIENTED_EDGE('',*,*,#339,.T.);
#262=ORIENTED_EDGE('',*,*,#336,.T.);
#263=ORIENTED_EDGE('',*,*,#331,.F.);
#264=ORIENTED_EDGE('',*,*,#329,.F.);
#265=ORIENTED_EDGE('',*,*,#328,.T.);
#266=ORIENTED_EDGE('',*,*,#340,.T.);
#267=ORIENTED_EDGE('',*,*,#337,.T.);
#268=ORIENTED_EDGE('',*,*,#339,.F.);
#269=ORIENTED_EDGE('',*,*,#340,.F.);
#270=ORIENTED_EDGE('',*,*,#327,.F.);
#271=ORIENTED_EDGE('',*,*,#334,.T.);
#272=ORIENTED_EDGE('',*,*,#338,.T.);
#273=VERTEX_POINT('',#549);
#274=VERTEX_POINT('',#551);
#275=VERTEX_POINT('',#554);
#276=VERTEX_POINT('',#557);
#277=VERTEX_POINT('',#560);
#278=VERTEX_POINT('',#563);
#279=VERTEX_POINT('',#566);
#280=VERTEX_POINT('',#569);
#281=VERTEX_POINT('',#572);
#282=VERTEX_POINT('',#575);
#283=VERTEX_POINT('',#579);
#284=VERTEX_POINT('',#583);
#285=VERTEX_POINT('',#584);
#286=VERTEX_POINT('',#586);
#287=VERTEX_POINT('',#588);
#288=VERTEX_POINT('',#597);
#289=VERTEX_POINT('',#599);
#290=VERTEX_POINT('',#608);
#291=VERTEX_POINT('',#609);
#292=VERTEX_POINT('',#614);
#293=VERTEX_POINT('',#617);
#294=VERTEX_POINT('',#625);
#295=VERTEX_POINT('',#627);
#296=VERTEX_POINT('',#634);
#297=VERTEX_POINT('',#636);
#298=VERTEX_POINT('',#645);
#299=VERTEX_POINT('',#659);
#300=VERTEX_POINT('',#663);
#301=VERTEX_POINT('',#665);
#302=VERTEX_POINT('',#672);
#303=EDGE_CURVE('',#273,#273,#341,.T.);
#304=EDGE_CURVE('',#274,#274,#342,.T.);
#305=EDGE_CURVE('',#275,#275,#343,.T.);
#306=EDGE_CURVE('',#276,#276,#344,.T.);
#307=EDGE_CURVE('',#277,#277,#345,.T.);
#308=EDGE_CURVE('',#278,#278,#346,.T.);
#309=EDGE_CURVE('',#279,#279,#347,.T.);
#310=EDGE_CURVE('',#280,#280,#348,.T.);
#311=EDGE_CURVE('',#281,#281,#349,.T.);
#312=EDGE_CURVE('',#282,#282,#350,.T.);
#313=EDGE_CURVE('',#283,#283,#351,.T.);
#314=EDGE_CURVE('',#284,#285,#41,.T.);
#315=EDGE_CURVE('',#285,#286,#352,.T.);
#316=EDGE_CURVE('',#287,#286,#42,.T.);
#317=EDGE_CURVE('',#284,#287,#353,.T.);
#318=EDGE_CURVE('',#284,#288,#33,.T.);
#319=EDGE_CURVE('',#288,#289,#43,.T.);
#320=EDGE_CURVE('',#289,#285,#34,.T.);
#321=EDGE_CURVE('',#290,#291,#44,.T.);
#322=EDGE_CURVE('',#291,#289,#354,.T.);
#323=EDGE_CURVE('',#290,#288,#355,.T.);
#324=EDGE_CURVE('',#292,#292,#356,.T.);
#325=EDGE_CURVE('',#293,#293,#357,.T.);
#326=EDGE_CURVE('',#294,#287,#35,.T.);
#327=EDGE_CURVE('',#294,#295,#358,.T.);
#328=EDGE_CURVE('',#296,#295,#36,.T.);
#329=EDGE_CURVE('',#296,#297,#359,.T.);
#330=EDGE_CURVE('',#290,#297,#37,.T.);
#331=EDGE_CURVE('',#297,#298,#45,.T.);
#332=EDGE_CURVE('',#298,#291,#38,.T.);
#333=EDGE_CURVE('',#286,#299,#39,.T.);
#334=EDGE_CURVE('',#294,#299,#46,.T.);
#335=EDGE_CURVE('',#300,#300,#360,.T.);
#336=EDGE_CURVE('',#301,#298,#361,.T.);
#337=EDGE_CURVE('',#302,#301,#40,.T.);
#338=EDGE_CURVE('',#299,#302,#362,.T.);
#339=EDGE_CURVE('',#296,#301,#47,.T.);
#340=EDGE_CURVE('',#295,#302,#48,.T.);
#341=CIRCLE('',#387,15.5787017068246);
#342=CIRCLE('',#388,10.);
#343=CIRCLE('',#390,16.5787017068246);
#344=CIRCLE('',#392,21.);
#345=CIRCLE('',#394,39.);
#346=CIRCLE('',#396,40.);
#347=CIRCLE('',#398,40.);
#348=CIRCLE('',#400,39.);
#349=CIRCLE('',#402,24.);
#350=CIRCLE('',#404,21.);
#351=CIRCLE('',#407,10.);
#352=CIRCLE('',#410,20.);
#353=CIRCLE('',#411,20.);
#354=CIRCLE('',#414,20.);
#355=CIRCLE('',#415,20.);
#356=CIRCLE('',#417,19.2);
#357=CIRCLE('',#419,19.2);
#358=CIRCLE('',#421,20.);
#359=CIRCLE('',#422,20.);
#360=CIRCLE('',#426,19.);
#361=CIRCLE('',#427,20.);
#362=CIRCLE('',#428,20.);
#363=PRESENTATION_LAYER_ASSIGNMENT('1','Layer 1',(#384,#385,#386,#68));
#364=PRESENTATION_LAYER_ASSIGNMENT('2','Layer 2',(#67));
#365=STYLED_ITEM('',(#370),#384);
#366=STYLED_ITEM('',(#371),#385);
#367=STYLED_ITEM('',(#372),#386);
#368=STYLED_ITEM('',(#373),#67);
#369=STYLED_ITEM('',(#374),#68);
#370=PRESENTATION_STYLE_ASSIGNMENT((#375));
#371=PRESENTATION_STYLE_ASSIGNMENT((#376));
#372=PRESENTATION_STYLE_ASSIGNMENT((#377));
#373=PRESENTATION_STYLE_ASSIGNMENT((#57));
#374=PRESENTATION_STYLE_ASSIGNMENT((#58));
#375=CURVE_STYLE('',#380,POSITIVE_LENGTH_MEASURE(0.18),#378);
#376=CURVE_STYLE('',#381,POSITIVE_LENGTH_MEASURE(0.18),#378);
#377=CURVE_STYLE('',#382,POSITIVE_LENGTH_MEASURE(0.18),#378);
#378=COLOUR_RGB('Strong Stone',0.576470588235294,0.54508278019379,0.392156862745098);
#379=COLOUR_RGB('Medium Gray',0.490196078431373,0.490196078431373,0.490196078431373);
#380=DRAUGHTING_PRE_DEFINED_CURVE_FONT('continuous');
#381=DRAUGHTING_PRE_DEFINED_CURVE_FONT('continuous');
#382=DRAUGHTING_PRE_DEFINED_CURVE_FONT('continuous');
#383=AXIS2_PLACEMENT_3D('',#544,#434,#435);
#384=AXIS2_PLACEMENT_3D('MCS',#545,#436,#437);
#385=AXIS2_PLACEMENT_3D('PCS',#546,#438,#439);
#386=AXIS2_PLACEMENT_3D('CSW',#547,#440,#441);
#387=AXIS2_PLACEMENT_3D('',#548,#442,#443);
#388=AXIS2_PLACEMENT_3D('',#550,#444,#445);
#389=AXIS2_PLACEMENT_3D('',#552,#446,#447);
#390=AXIS2_PLACEMENT_3D('',#553,#448,#449);
#391=AXIS2_PLACEMENT_3D('',#555,#450,#451);
#392=AXIS2_PLACEMENT_3D('',#556,#452,#453);
#393=AXIS2_PLACEMENT_3D('',#558,#454,#455);
#394=AXIS2_PLACEMENT_3D('',#559,#456,#457);
#395=AXIS2_PLACEMENT_3D('',#561,#458,#459);
#396=AXIS2_PLACEMENT_3D('',#562,#460,#461);
#397=AXIS2_PLACEMENT_3D('',#564,#462,#463);
#398=AXIS2_PLACEMENT_3D('',#565,#464,#465);
#399=AXIS2_PLACEMENT_3D('',#567,#466,#467);
#400=AXIS2_PLACEMENT_3D('',#568,#468,#469);
#401=AXIS2_PLACEMENT_3D('',#570,#470,#471);
#402=AXIS2_PLACEMENT_3D('',#571,#472,#473);
#403=AXIS2_PLACEMENT_3D('',#573,#474,#475);
#404=AXIS2_PLACEMENT_3D('',#574,#476,#477);
#405=AXIS2_PLACEMENT_3D('',#576,#478,#479);
#406=AXIS2_PLACEMENT_3D('',#577,#480,#481);
#407=AXIS2_PLACEMENT_3D('',#578,#482,#483);
#408=AXIS2_PLACEMENT_3D('',#580,#484,#485);
#409=AXIS2_PLACEMENT_3D('',#581,#486,#487);
#410=AXIS2_PLACEMENT_3D('',#585,#489,#490);
#411=AXIS2_PLACEMENT_3D('',#589,#492,#493);
#412=AXIS2_PLACEMENT_3D('',#590,#494,#495);
#413=AXIS2_PLACEMENT_3D('',#606,#497,#498);
#414=AXIS2_PLACEMENT_3D('',#610,#500,#501);
#415=AXIS2_PLACEMENT_3D('',#611,#502,#503);
#416=AXIS2_PLACEMENT_3D('',#612,#504,#505);
#417=AXIS2_PLACEMENT_3D('',#613,#506,#507);
#418=AXIS2_PLACEMENT_3D('',#615,#508,#509);
#419=AXIS2_PLACEMENT_3D('',#616,#510,#511);
#420=AXIS2_PLACEMENT_3D('',#618,#512,#513);
#421=AXIS2_PLACEMENT_3D('',#626,#514,#515);
#422=AXIS2_PLACEMENT_3D('',#635,#516,#517);
#423=AXIS2_PLACEMENT_3D('',#643,#518,#519);
#424=AXIS2_PLACEMENT_3D('',#652,#521,#522);
#425=AXIS2_PLACEMENT_3D('',#661,#524,#525);
#426=AXIS2_PLACEMENT_3D('',#662,#526,#527);
#427=AXIS2_PLACEMENT_3D('',#664,#528,#529);
#428=AXIS2_PLACEMENT_3D('',#673,#530,#531);
#429=AXIS2_PLACEMENT_3D('',#674,#532,#533);
#430=AXIS2_PLACEMENT_3D('',#675,#534,#535);
#431=AXIS2_PLACEMENT_3D('',#677,#537,#538);
#432=AXIS2_PLACEMENT_3D('',#679,#540,#541);
#433=AXIS2_PLACEMENT_3D('',#680,#542,#543);
#434=DIRECTION('',(0.,0.,1.));
#435=DIRECTION('',(1.,0.,0.));
#436=DIRECTION('',(0.,0.,1.));
#437=DIRECTION('',(1.,0.,0.));
#438=DIRECTION('',(0.,0.,1.));
#439=DIRECTION('',(1.,0.,0.));
#440=DIRECTION('',(0.,0.,1.));
#441=DIRECTION('',(1.,0.,0.));
#442=DIRECTION('',(0.,0.,-1.));
#443=DIRECTION('',(-1.,0.,0.));
#444=DIRECTION('',(0.,0.,1.));
#445=DIRECTION('',(1.,0.,0.));
#446=DIRECTION('',(0.,0.,-1.));
#447=DIRECTION('',(-1.,0.,0.));
#448=DIRECTION('',(0.,0.,-1.));
#449=DIRECTION('',(-1.,0.,0.));
#450=DIRECTION('',(0.,0.,1.));
#451=DIRECTION('',(1.,0.,4.09947189257442E-17));
#452=DIRECTION('',(0.,0.,1.));
#453=DIRECTION('',(-1.,0.,0.));
#454=DIRECTION('',(0.,0.,1.));
#455=DIRECTION('',(1.,0.,4.36956180868012E-16));
#456=DIRECTION('',(0.,0.,-1.));
#457=DIRECTION('',(-1.,0.,0.));
#458=DIRECTION('',(0.,0.,1.));
#459=DIRECTION('',(1.,0.,0.));
#460=DIRECTION('',(0.,0.,-1.));
#461=DIRECTION('',(-1.,0.,0.));
#462=DIRECTION('',(0.,0.,-1.));
#463=DIRECTION('',(-1.,0.,1.05918212235122E-16));
#464=DIRECTION('',(0.,0.,-1.));
#465=DIRECTION('',(-1.,0.,0.));
#466=DIRECTION('',(0.,0.,-1.));
#467=DIRECTION('',(-1.,0.,0.));
#468=DIRECTION('',(0.,0.,-1.));
#469=DIRECTION('',(-1.,0.,0.));
#470=DIRECTION('',(0.,0.,1.));
#471=DIRECTION('',(1.,0.,-1.33568698824008E-17));
#472=DIRECTION('',(0.,0.,-1.));
#473=DIRECTION('',(-1.,0.,0.));
#474=DIRECTION('',(0.,0.,-1.));
#475=DIRECTION('',(-1.,0.,0.));
#476=DIRECTION('',(0.,0.,-1.));
#477=DIRECTION('',(-1.,0.,0.));
#478=DIRECTION('',(0.,0.,-1.));
#479=DIRECTION('',(-1.,0.,0.));
#480=DIRECTION('',(0.,0.,-1.));
#481=DIRECTION('',(-1.,0.,0.));
#482=DIRECTION('',(0.,0.,-1.));
#483=DIRECTION('',(1.,0.,0.));
#484=DIRECTION('',(0.,0.,-1.));
#485=DIRECTION('',(-1.,0.,0.));
#486=DIRECTION('',(0.,0.,1.));
#487=DIRECTION('',(1.,0.,0.));
#488=DIRECTION('',(0.,0.,1.));
#489=DIRECTION('',(0.,0.,-1.));
#490=DIRECTION('',(-1.,0.,0.));
#491=DIRECTION('',(0.,0.,1.));
#492=DIRECTION('',(0.,0.,-1.));
#493=DIRECTION('',(-1.,0.,0.));
#494=DIRECTION('',(0.,0.,-1.));
#495=DIRECTION('',(-1.,0.,0.));
#496=DIRECTION('',(0.,0.,1.));
#497=DIRECTION('',(-3.49148133884313E-15,1.,0.));
#498=DIRECTION('',(1.,3.49026363366534E-15,0.));
#499=DIRECTION('',(0.,0.,1.));
#500=DIRECTION('',(0.,0.,-1.));
#501=DIRECTION('',(-1.,0.,0.));
#502=DIRECTION('',(0.,0.,-1.));
#503=DIRECTION('',(-1.,0.,0.));
#504=DIRECTION('',(0.,0.,-1.));
#505=DIRECTION('',(-1.,0.,0.));
#506=DIRECTION('',(0.,0.,-1.));
#507=DIRECTION('',(1.,0.,0.));
#508=DIRECTION('',(0.,0.,1.));
#509=DIRECTION('',(-1.,0.,0.));
#510=DIRECTION('',(0.,0.,-1.));
#511=DIRECTION('',(-1.,0.,0.));
#512=DIRECTION('',(0.,0.,-1.));
#513=DIRECTION('',(-1.,0.,0.));
#514=DIRECTION('',(0.,0.,-1.));
#515=DIRECTION('',(-1.,0.,0.));
#516=DIRECTION('',(0.,0.,-1.));
#517=DIRECTION('',(-1.,0.,0.));
#518=DIRECTION('',(0.,0.,1.));
#519=DIRECTION('',(1.,0.,5.79767558386486E-17));
#520=DIRECTION('',(0.,0.,1.));
#521=DIRECTION('',(-1.,-6.98296267768627E-15,0.));
#522=DIRECTION('',(-6.98399671428263E-15,1.,0.));
#523=DIRECTION('',(0.,0.,1.));
#524=DIRECTION('',(1.,0.,0.));
#525=DIRECTION('',(0.,0.,-1.));
#526=DIRECTION('',(0.,0.,-1.));
#527=DIRECTION('',(-1.,0.,0.));
#528=DIRECTION('',(0.,0.,-1.));
#529=DIRECTION('',(-1.,0.,0.));
#530=DIRECTION('',(0.,0.,-1.));
#531=DIRECTION('',(-1.,0.,0.));
#532=DIRECTION('',(0.,0.,-1.));
#533=DIRECTION('',(-1.,0.,8.50354645086667E-18));
#534=DIRECTION('',(0.,0.,1.));
#535=DIRECTION('',(1.,0.,0.));
#536=DIRECTION('',(0.,0.,1.));
#537=DIRECTION('',(0.,0.,-1.));
#538=DIRECTION('',(-1.,0.,0.));
#539=DIRECTION('',(0.,0.,1.));
#540=DIRECTION('',(1.04744440165294E-14,-1.,0.));
#541=DIRECTION('',(-1.,-1.0474260347948E-14,0.));
#542=DIRECTION('',(0.,0.,-1.));
#543=DIRECTION('',(-1.,0.,0.));
#544=CARTESIAN_POINT('',(0.,0.,0.));
#545=CARTESIAN_POINT('',(0.,0.,0.));
#546=CARTESIAN_POINT('',(0.,0.,0.));
#547=CARTESIAN_POINT('',(0.,0.,-80.));
#548=CARTESIAN_POINT('',(0.,0.,-80.));
#549=CARTESIAN_POINT('',(-15.5787017068246,0.,-80.));
#550=CARTESIAN_POINT('',(0.,0.,-80.));
#551=CARTESIAN_POINT('',(10.,0.,-80.));
#552=CARTESIAN_POINT('',(0.,-11.1547005383793,-80.));
#553=CARTESIAN_POINT('',(0.,0.,-79.));
#554=CARTESIAN_POINT('',(-16.5787017068246,0.,-79.));
#555=CARTESIAN_POINT('',(0.,0.,-80.));
#556=CARTESIAN_POINT('',(0.,0.,-22.822078687214));
#557=CARTESIAN_POINT('',(-21.,0.,-22.822078687214));
#558=CARTESIAN_POINT('',(0.,0.,-79.));
#559=CARTESIAN_POINT('',(0.,0.,0.));
#560=CARTESIAN_POINT('',(-39.,0.,0.));
#561=CARTESIAN_POINT('',(0.,-39.,0.));
#562=CARTESIAN_POINT('',(0.,0.,-1.));
#563=CARTESIAN_POINT('',(-40.,0.,-1.));
#564=CARTESIAN_POINT('',(0.,0.,-1.));
#565=CARTESIAN_POINT('',(0.,0.,-14.));
#566=CARTESIAN_POINT('',(-40.,0.,-14.));
#567=CARTESIAN_POINT('',(0.,0.,-80.));
#568=CARTESIAN_POINT('',(0.,0.,-15.));
#569=CARTESIAN_POINT('',(-39.,0.,-15.));
#570=CARTESIAN_POINT('',(0.,0.,-15.));
#571=CARTESIAN_POINT('',(0.,0.,-15.));
#572=CARTESIAN_POINT('',(-24.,0.,-15.));
#573=CARTESIAN_POINT('',(0.,-24.,-15.));
#574=CARTESIAN_POINT('',(0.,0.,-18.));
#575=CARTESIAN_POINT('',(-21.,0.,-18.));
#576=CARTESIAN_POINT('',(0.,0.,-80.));
#577=CARTESIAN_POINT('',(0.,0.,-18.));
#578=CARTESIAN_POINT('',(0.,0.,-27.5));
#579=CARTESIAN_POINT('',(10.,0.,-27.5));
#580=CARTESIAN_POINT('',(0.,10.,-27.5));
#581=CARTESIAN_POINT('',(0.,0.,-80.));
#582=CARTESIAN_POINT('',(-5.42563360355262,-19.25,0.5));
#583=CARTESIAN_POINT('',(-5.42563360355265,-19.25,1.99999999999998));
#584=CARTESIAN_POINT('',(-5.42563360355263,-19.25,10.));
#585=CARTESIAN_POINT('',(0.,0.,10.));
#586=CARTESIAN_POINT('',(-19.25,-5.42563360355268,10.));
#587=CARTESIAN_POINT('',(-19.25,-5.42563360355268,0.5));
#588=CARTESIAN_POINT('',(-19.25,-5.42563360355268,1.99999999999999));
#589=CARTESIAN_POINT('',(0.,0.,2.));
#590=CARTESIAN_POINT('',(0.,0.,-80.));
#591=CARTESIAN_POINT('',(-5.42563360355265,-19.25,1.99999999999998));
#592=CARTESIAN_POINT('',(-3.7181071739656,-19.25,1.1976783185426));
#593=CARTESIAN_POINT('',(-1.86464453678181,-19.25,0.701264004327933));
#594=CARTESIAN_POINT('',(1.86104141442783,-19.25,0.700660076349005));
#595=CARTESIAN_POINT('',(3.71608431728065,-19.25,1.19672783148201));
#596=CARTESIAN_POINT('',(5.42563360355278,-19.25,1.99999999999997));
#597=CARTESIAN_POINT('',(5.42563360355277,-19.25,2.));
#598=CARTESIAN_POINT('',(5.42563360355275,-19.25,0.5));
#599=CARTESIAN_POINT('',(5.42563360355278,-19.25,10.));
#600=CARTESIAN_POINT('',(5.42563360355278,-19.25,10.));
#601=CARTESIAN_POINT('',(3.64931646570195,-19.25,10.4818822976845));
#602=CARTESIAN_POINT('',(1.84575851977018,-19.25,10.7491998761101));
#603=CARTESIAN_POINT('',(-1.82903112897799,-19.25,10.7507964900511));
#604=CARTESIAN_POINT('',(-3.64850741770624,-19.25,10.4821017775841));
#605=CARTESIAN_POINT('',(-5.42563360355263,-19.25,10.));
#606=CARTESIAN_POINT('',(-5.42563360355262,-19.25,0.5));
#607=CARTESIAN_POINT('',(19.25,-5.42563360355255,0.5));
#608=CARTESIAN_POINT('',(19.25,-5.42563360355262,1.99999999999996));
#609=CARTESIAN_POINT('',(19.25,-5.42563360355256,10.));
#610=CARTESIAN_POINT('',(0.,0.,10.));
#611=CARTESIAN_POINT('',(0.,0.,2.));
#612=CARTESIAN_POINT('',(0.,0.,-80.));
#613=CARTESIAN_POINT('',(0.,0.,0.));
#614=CARTESIAN_POINT('',(19.2,0.,0.));
#615=CARTESIAN_POINT('',(0.,0.,0.));
#616=CARTESIAN_POINT('',(0.,0.,0.614359353944903));
#617=CARTESIAN_POINT('',(-19.2,0.,0.614359353944903));
#618=CARTESIAN_POINT('',(0.,0.,-80.));
#619=CARTESIAN_POINT('',(-19.25,5.42563360355268,1.99999999999999));
#620=CARTESIAN_POINT('',(-19.25,3.71888244769871,1.19804259924384));
#621=CARTESIAN_POINT('',(-19.25,1.88737541113498,0.700153853322104));
#622=CARTESIAN_POINT('',(-19.25,-1.89687990089334,0.701771967342402));
#623=CARTESIAN_POINT('',(-19.25,-3.71799492455749,1.19762557550314));
#624=CARTESIAN_POINT('',(-19.25,-5.42563360355268,1.99999999999999));
#625=CARTESIAN_POINT('',(-19.25,5.42563360355268,1.99999999999999));
#626=CARTESIAN_POINT('',(0.,0.,2.));
#627=CARTESIAN_POINT('',(-5.42563360355286,19.2499999999999,1.99999999999998));
#628=CARTESIAN_POINT('',(5.4256336035524,19.2500000000001,2.00000000000002));
#629=CARTESIAN_POINT('',(3.71810717396537,19.2500000000001,1.19767831854268));
#630=CARTESIAN_POINT('',(1.86464453678161,19.2500000000001,0.701264004328038));
#631=CARTESIAN_POINT('',(-1.86104141442796,19.25,0.700660076349118));
#632=CARTESIAN_POINT('',(-3.71608431728072,19.25,1.19672783148211));
#633=CARTESIAN_POINT('',(-5.42563360355283,19.25,2.00000000000004));
#634=CARTESIAN_POINT('',(5.4256336035524,19.2500000000001,2.00000000000003));
#635=CARTESIAN_POINT('',(0.,0.,2.));
#636=CARTESIAN_POINT('',(19.25,5.42563360355289,2.00000000000003));
#637=CARTESIAN_POINT('',(19.25,-5.42563360355262,1.99999999999996));
#638=CARTESIAN_POINT('',(19.25,-3.71888244769863,1.19804259924379));
#639=CARTESIAN_POINT('',(19.25,-1.88737541113486,0.700153853322036));
#640=CARTESIAN_POINT('',(19.2499999999999,1.89687990089351,0.701771967342339));
#641=CARTESIAN_POINT('',(19.2499999999999,3.71799492455771,1.1976255755031));
#642=CARTESIAN_POINT('',(19.2499999999999,5.42563360355292,1.99999999999997));
#643=CARTESIAN_POINT('',(0.,0.,0.614359353944903));
#644=CARTESIAN_POINT('',(19.25,5.42563360355282,0.5));
#645=CARTESIAN_POINT('',(19.25,5.42563360355283,10.));
#646=CARTESIAN_POINT('',(19.2499999999999,5.42563360355285,10.));
#647=CARTESIAN_POINT('',(19.2499999999999,3.6491490634696,10.4819277108434));
#648=CARTESIAN_POINT('',(19.2499999999999,1.84310271033638,10.75));
#649=CARTESIAN_POINT('',(19.25,-1.84310271033637,10.75));
#650=CARTESIAN_POINT('',(19.25,-3.64914906346932,10.4819277108434));
#651=CARTESIAN_POINT('',(19.25,-5.42563360355257,10.));
#652=CARTESIAN_POINT('',(19.25,-5.42563360355255,0.5));
#653=CARTESIAN_POINT('',(-19.25,-5.42563360355268,10.));
#654=CARTESIAN_POINT('',(-19.25,-3.64914906346943,10.4819277108434));
#655=CARTESIAN_POINT('',(-19.25,-1.84310271033637,10.75));
#656=CARTESIAN_POINT('',(-19.25,1.84310271033637,10.75));
#657=CARTESIAN_POINT('',(-19.25,3.64914906346944,10.4819277108434));
#658=CARTESIAN_POINT('',(-19.25,5.42563360355268,10.));
#659=CARTESIAN_POINT('',(-19.25,5.42563360355268,10.));
#660=CARTESIAN_POINT('',(-19.25,5.42563360355268,0.5));
#661=CARTESIAN_POINT('',(-19.25,5.42563360355268,0.5));
#662=CARTESIAN_POINT('',(0.,0.,11.));
#663=CARTESIAN_POINT('',(-19.,0.,11.));
#664=CARTESIAN_POINT('',(0.,0.,10.));
#665=CARTESIAN_POINT('',(5.42563360355247,19.2500000000001,9.99999999999998));
#666=CARTESIAN_POINT('',(-5.4256336035528,19.25,9.99999999999998));
#667=CARTESIAN_POINT('',(-3.64931646570198,19.25,10.4818822976845));
#668=CARTESIAN_POINT('',(-1.84575851977024,19.25,10.74919987611));
#669=CARTESIAN_POINT('',(1.82903112897787,19.2500000000001,10.7507964900511));
#670=CARTESIAN_POINT('',(3.64850741770609,19.2500000000001,10.482101777584));
#671=CARTESIAN_POINT('',(5.42563360355246,19.2500000000001,9.99999999999996));
#672=CARTESIAN_POINT('',(-5.4256336035528,19.2499999999999,10.));
#673=CARTESIAN_POINT('',(0.,0.,10.));
#674=CARTESIAN_POINT('',(0.,0.,10.));
#675=CARTESIAN_POINT('',(0.,-19.,11.));
#676=CARTESIAN_POINT('',(5.42563360355248,19.2500000000001,0.5));
#677=CARTESIAN_POINT('',(0.,0.,-80.));
#678=CARTESIAN_POINT('',(-5.42563360355288,19.2499999999999,0.5));
#679=CARTESIAN_POINT('',(5.42563360355248,19.2500000000001,0.5));
#680=CARTESIAN_POINT('',(0.,0.,-80.));
#681=MECHANICAL_DESIGN_GEOMETRIC_PRESENTATION_REPRESENTATION('',(#365,#366,
#367,#368,#369),#682);
#682=(
GEOMETRIC_REPRESENTATION_CONTEXT(3)
GLOBAL_UNCERTAINTY_ASSIGNED_CONTEXT((#683))
GLOBAL_UNIT_ASSIGNED_CONTEXT((#689,#685,#684))
REPRESENTATION_CONTEXT('SAH-2341020251','TOP_LEVEL_ASSEMBLY_PART')
);
#683=UNCERTAINTY_MEASURE_WITH_UNIT(LENGTH_MEASURE(0.0508),#689,
'DISTANCE_ACCURACY_VALUE','Maximum Tolerance applied to model');
#684=(
NAMED_UNIT(*)
SI_UNIT($,.STERADIAN.)
SOLID_ANGLE_UNIT()
);
#685=(
CONVERSION_BASED_UNIT('DEGREE',#687)
NAMED_UNIT(#686)
PLANE_ANGLE_UNIT()
);
#686=DIMENSIONAL_EXPONENTS(0.,0.,0.,0.,0.,0.,0.);
#687=PLANE_ANGLE_MEASURE_WITH_UNIT(PLANE_ANGLE_MEASURE(0.0174532925),#688);
#688=(
NAMED_UNIT(*)
PLANE_ANGLE_UNIT()
SI_UNIT($,.RADIAN.)
);
#689=(
LENGTH_UNIT()
NAMED_UNIT(*)
SI_UNIT(.MILLI.,.METRE.)
);
ENDSEC;
END-ISO-10303-21;
