ISO-10303-21;
HEADER;
/* Generated by software containing ST-Developer
 * from STEP Tools, Inc. (www.steptools.com) 
 */
/* OPTION: using custom schema-name function */

FILE_DESCRIPTION(
/* description */ (''),
/* implementation_level */ '2;1');

FILE_NAME(
/* name */ 'E447153960.stp',
/* time_stamp */ '2017-10-23T16:41:55+05:00',
/* author */ (''),
/* organization */ (''),
/* preprocessor_version */ 'ST-DEVELOPER v16',
/* originating_system */ 'SIEMENS PLM Software NX 11.0',
/* authorisation */ '');

FILE_SCHEMA (('AUTOMOTIVE_DESIGN { 1 0 10303 214 3 1 1 1 }'));
ENDSEC;

DATA;
#10=CONSTRUCTIVE_GEOMETRY_REPRESENTATION_RELATIONSHIP(
'supplemental geometry','',#32,#11);
#11=CONSTRUCTIVE_GEOMETRY_REPRESENTATION('supplemental geometry',(#257,
#258,#259),#430);
#12=PROPERTY_DEFINITION_REPRESENTATION(#16,#14);
#13=PROPERTY_DEFINITION_REPRESENTATION(#17,#15);
#14=REPRESENTATION('',(#18),#430);
#15=REPRESENTATION('',(#19),#430);
#16=PROPERTY_DEFINITION('pmi validation property','',#23);
#17=PROPERTY_DEFINITION('pmi validation property','',#23);
#18=VALUE_REPRESENTATION_ITEM('number of annotations',COUNT_MEASURE(0.));
#19=VALUE_REPRESENTATION_ITEM('number of views',COUNT_MEASURE(0.));
#20=SHAPE_REPRESENTATION_RELATIONSHIP('None',
'relationship between E447153960-None and E447153960-None',#32,#21);
#21=ADVANCED_BREP_SHAPE_REPRESENTATION('E447153960-None',(#45,#46),#430);
#22=SHAPE_DEFINITION_REPRESENTATION(#23,#32);
#23=PRODUCT_DEFINITION_SHAPE('','',#24);
#24=PRODUCT_DEFINITION(' ','',#26,#25);
#25=PRODUCT_DEFINITION_CONTEXT('part definition',#31,'design');
#26=PRODUCT_DEFINITION_FORMATION_WITH_SPECIFIED_SOURCE(' ',' ',#28,
 .NOT_KNOWN.);
#27=PRODUCT_RELATED_PRODUCT_CATEGORY('part','',(#28));
#28=PRODUCT('E447153960','E447153960',' ',(#29));
#29=PRODUCT_CONTEXT(' ',#31,'mechanical');
#30=APPLICATION_PROTOCOL_DEFINITION('international standard',
'automotive_design',2010,#31);
#31=APPLICATION_CONTEXT(
'core data for automotive mechanical design processes');
#32=SHAPE_REPRESENTATION('E447153960-None',(#256),#430);
#33=TOROIDAL_SURFACE('',#275,30.2,0.8);
#34=TOROIDAL_SURFACE('',#281,32.15,2.5);
#35=SURFACE_STYLE_USAGE(.BOTH.,#37);
#36=SURFACE_STYLE_USAGE(.BOTH.,#38);
#37=SURFACE_SIDE_STYLE('',(#39));
#38=SURFACE_SIDE_STYLE('',(#40));
#39=SURFACE_STYLE_FILL_AREA(#41);
#40=SURFACE_STYLE_FILL_AREA(#42);
#41=FILL_AREA_STYLE('',(#43));
#42=FILL_AREA_STYLE('',(#44));
#43=FILL_AREA_STYLE_COLOUR('',#252);
#44=FILL_AREA_STYLE_COLOUR('',#252);
#45=MANIFOLD_SOLID_BREP('NOCUT',#47);
#46=MANIFOLD_SOLID_BREP('NOCUT',#48);
#47=CLOSED_SHELL('',(#62,#63,#64,#65,#66));
#48=CLOSED_SHELL('',(#67,#68,#69,#70,#71,#72,#73,#74,#75,#76,#77,#78,#79));
#49=CYLINDRICAL_SURFACE('',#267,13.25);
#50=CYLINDRICAL_SURFACE('',#273,30.);
#51=CYLINDRICAL_SURFACE('',#279,30.);
#52=CYLINDRICAL_SURFACE('',#289,15.5);
#53=CYLINDRICAL_SURFACE('',#293,13.25);
#54=PLANE('',#263);
#55=PLANE('',#265);
#56=PLANE('',#268);
#57=PLANE('',#283);
#58=PLANE('',#291);
#59=PLANE('',#294);
#60=FACE_OUTER_BOUND('',#119,.T.);
#61=FACE_OUTER_BOUND('',#120,.T.);
#62=ADVANCED_FACE('',(#85,#86),#80,.T.);
#63=ADVANCED_FACE('',(#60),#54,.F.);
#64=ADVANCED_FACE('',(#61),#55,.T.);
#65=ADVANCED_FACE('',(#87,#88),#49,.F.);
#66=ADVANCED_FACE('',(#89,#90),#56,.T.);
#67=ADVANCED_FACE('',(#91,#92),#81,.T.);
#68=ADVANCED_FACE('',(#93,#94),#50,.T.);
#69=ADVANCED_FACE('',(#95,#96),#33,.F.);
#70=ADVANCED_FACE('',(#97,#98),#82,.T.);
#71=ADVANCED_FACE('',(#99,#100),#51,.T.);
#72=ADVANCED_FACE('',(#101,#102),#34,.F.);
#73=ADVANCED_FACE('',(#103,#104),#57,.T.);
#74=ADVANCED_FACE('',(#105,#106),#83,.F.);
#75=ADVANCED_FACE('',(#107,#108),#84,.F.);
#76=ADVANCED_FACE('',(#109,#110),#52,.F.);
#77=ADVANCED_FACE('',(#111,#112),#58,.F.);
#78=ADVANCED_FACE('',(#113,#114),#53,.F.);
#79=ADVANCED_FACE('',(#115,#116),#59,.T.);
#80=CONICAL_SURFACE('',#262,27.6534079834,8.297144969837);
#81=CONICAL_SURFACE('',#271,29.71132486541,30.);
#82=CONICAL_SURFACE('',#277,29.70408099611,8.191447606698);
#83=CONICAL_SURFACE('',#285,18.75,60.);
#84=CONICAL_SURFACE('',#287,16.5,30.);
#85=FACE_BOUND('',#117,.T.);
#86=FACE_BOUND('',#118,.T.);
#87=FACE_BOUND('',#121,.T.);
#88=FACE_BOUND('',#122,.T.);
#89=FACE_BOUND('',#123,.T.);
#90=FACE_BOUND('',#124,.T.);
#91=FACE_BOUND('',#125,.T.);
#92=FACE_BOUND('',#126,.T.);
#93=FACE_BOUND('',#127,.T.);
#94=FACE_BOUND('',#128,.T.);
#95=FACE_BOUND('',#129,.T.);
#96=FACE_BOUND('',#130,.T.);
#97=FACE_BOUND('',#131,.T.);
#98=FACE_BOUND('',#132,.T.);
#99=FACE_BOUND('',#133,.T.);
#100=FACE_BOUND('',#134,.T.);
#101=FACE_BOUND('',#135,.T.);
#102=FACE_BOUND('',#136,.T.);
#103=FACE_BOUND('',#137,.T.);
#104=FACE_BOUND('',#138,.T.);
#105=FACE_BOUND('',#139,.T.);
#106=FACE_BOUND('',#140,.T.);
#107=FACE_BOUND('',#141,.T.);
#108=FACE_BOUND('',#142,.T.);
#109=FACE_BOUND('',#143,.T.);
#110=FACE_BOUND('',#144,.T.);
#111=FACE_BOUND('',#145,.T.);
#112=FACE_BOUND('',#146,.T.);
#113=FACE_BOUND('',#147,.T.);
#114=FACE_BOUND('',#148,.T.);
#115=FACE_BOUND('',#149,.T.);
#116=FACE_BOUND('',#150,.T.);
#117=EDGE_LOOP('',(#151));
#118=EDGE_LOOP('',(#152));
#119=EDGE_LOOP('',(#153));
#120=EDGE_LOOP('',(#154));
#121=EDGE_LOOP('',(#155));
#122=EDGE_LOOP('',(#156));
#123=EDGE_LOOP('',(#157));
#124=EDGE_LOOP('',(#158));
#125=EDGE_LOOP('',(#159));
#126=EDGE_LOOP('',(#160));
#127=EDGE_LOOP('',(#161));
#128=EDGE_LOOP('',(#162));
#129=EDGE_LOOP('',(#163));
#130=EDGE_LOOP('',(#164));
#131=EDGE_LOOP('',(#165));
#132=EDGE_LOOP('',(#166));
#133=EDGE_LOOP('',(#167));
#134=EDGE_LOOP('',(#168));
#135=EDGE_LOOP('',(#169));
#136=EDGE_LOOP('',(#170));
#137=EDGE_LOOP('',(#171));
#138=EDGE_LOOP('',(#172));
#139=EDGE_LOOP('',(#173));
#140=EDGE_LOOP('',(#174));
#141=EDGE_LOOP('',(#175));
#142=EDGE_LOOP('',(#176));
#143=EDGE_LOOP('',(#177));
#144=EDGE_LOOP('',(#178));
#145=EDGE_LOOP('',(#179));
#146=EDGE_LOOP('',(#180));
#147=EDGE_LOOP('',(#181));
#148=EDGE_LOOP('',(#182));
#149=EDGE_LOOP('',(#183));
#150=EDGE_LOOP('',(#184));
#151=ORIENTED_EDGE('',*,*,#202,.F.);
#152=ORIENTED_EDGE('',*,*,#203,.T.);
#153=ORIENTED_EDGE('',*,*,#202,.T.);
#154=ORIENTED_EDGE('',*,*,#204,.T.);
#155=ORIENTED_EDGE('',*,*,#204,.F.);
#156=ORIENTED_EDGE('',*,*,#205,.T.);
#157=ORIENTED_EDGE('',*,*,#203,.F.);
#158=ORIENTED_EDGE('',*,*,#205,.F.);
#159=ORIENTED_EDGE('',*,*,#206,.F.);
#160=ORIENTED_EDGE('',*,*,#207,.T.);
#161=ORIENTED_EDGE('',*,*,#207,.F.);
#162=ORIENTED_EDGE('',*,*,#208,.T.);
#163=ORIENTED_EDGE('',*,*,#208,.F.);
#164=ORIENTED_EDGE('',*,*,#209,.T.);
#165=ORIENTED_EDGE('',*,*,#209,.F.);
#166=ORIENTED_EDGE('',*,*,#210,.T.);
#167=ORIENTED_EDGE('',*,*,#210,.F.);
#168=ORIENTED_EDGE('',*,*,#211,.T.);
#169=ORIENTED_EDGE('',*,*,#211,.F.);
#170=ORIENTED_EDGE('',*,*,#212,.T.);
#171=ORIENTED_EDGE('',*,*,#206,.T.);
#172=ORIENTED_EDGE('',*,*,#213,.T.);
#173=ORIENTED_EDGE('',*,*,#214,.T.);
#174=ORIENTED_EDGE('',*,*,#213,.F.);
#175=ORIENTED_EDGE('',*,*,#215,.T.);
#176=ORIENTED_EDGE('',*,*,#214,.F.);
#177=ORIENTED_EDGE('',*,*,#216,.F.);
#178=ORIENTED_EDGE('',*,*,#215,.F.);
#179=ORIENTED_EDGE('',*,*,#216,.T.);
#180=ORIENTED_EDGE('',*,*,#217,.F.);
#181=ORIENTED_EDGE('',*,*,#218,.F.);
#182=ORIENTED_EDGE('',*,*,#217,.T.);
#183=ORIENTED_EDGE('',*,*,#212,.F.);
#184=ORIENTED_EDGE('',*,*,#218,.T.);
#185=VERTEX_POINT('',#378);
#186=VERTEX_POINT('',#380);
#187=VERTEX_POINT('',#384);
#188=VERTEX_POINT('',#387);
#189=VERTEX_POINT('',#391);
#190=VERTEX_POINT('',#393);
#191=VERTEX_POINT('',#396);
#192=VERTEX_POINT('',#399);
#193=VERTEX_POINT('',#402);
#194=VERTEX_POINT('',#405);
#195=VERTEX_POINT('',#408);
#196=VERTEX_POINT('',#411);
#197=VERTEX_POINT('',#414);
#198=VERTEX_POINT('',#417);
#199=VERTEX_POINT('',#420);
#200=VERTEX_POINT('',#423);
#201=VERTEX_POINT('',#426);
#202=EDGE_CURVE('',#185,#185,#219,.T.);
#203=EDGE_CURVE('',#186,#186,#220,.T.);
#204=EDGE_CURVE('',#187,#187,#221,.T.);
#205=EDGE_CURVE('',#188,#188,#222,.T.);
#206=EDGE_CURVE('',#189,#189,#223,.T.);
#207=EDGE_CURVE('',#190,#190,#224,.T.);
#208=EDGE_CURVE('',#191,#191,#225,.T.);
#209=EDGE_CURVE('',#192,#192,#226,.T.);
#210=EDGE_CURVE('',#193,#193,#227,.T.);
#211=EDGE_CURVE('',#194,#194,#228,.T.);
#212=EDGE_CURVE('',#195,#195,#229,.T.);
#213=EDGE_CURVE('',#196,#196,#230,.T.);
#214=EDGE_CURVE('',#197,#197,#231,.T.);
#215=EDGE_CURVE('',#198,#198,#232,.T.);
#216=EDGE_CURVE('',#199,#199,#233,.T.);
#217=EDGE_CURVE('',#200,#200,#234,.T.);
#218=EDGE_CURVE('',#201,#201,#235,.T.);
#219=CIRCLE('',#260,20.1010416666701);
#220=CIRCLE('',#261,34.9250000000037);
#221=CIRCLE('',#264,13.25);
#222=CIRCLE('',#266,13.25);
#223=CIRCLE('',#269,29.42264973081);
#224=CIRCLE('',#270,30.);
#225=CIRCLE('',#272,30.);
#226=CIRCLE('',#274,29.40816199221);
#227=CIRCLE('',#276,30.);
#228=CIRCLE('',#278,30.);
#229=CIRCLE('',#280,32.15);
#230=CIRCLE('',#282,20.);
#231=CIRCLE('',#284,17.5);
#232=CIRCLE('',#286,15.5);
#233=CIRCLE('',#288,15.5);
#234=CIRCLE('',#290,13.25);
#235=CIRCLE('',#292,13.25);
#236=PRESENTATION_LAYER_ASSIGNMENT('1','Layer 1',(#257,#258,#259,#45));
#237=PRESENTATION_LAYER_ASSIGNMENT('2','Layer 2',(#46));
#238=STYLED_ITEM('',(#243),#257);
#239=STYLED_ITEM('',(#244),#258);
#240=STYLED_ITEM('',(#245),#259);
#241=STYLED_ITEM('',(#246),#45);
#242=STYLED_ITEM('',(#247),#46);
#243=PRESENTATION_STYLE_ASSIGNMENT((#248));
#244=PRESENTATION_STYLE_ASSIGNMENT((#249));
#245=PRESENTATION_STYLE_ASSIGNMENT((#250));
#246=PRESENTATION_STYLE_ASSIGNMENT((#35));
#247=PRESENTATION_STYLE_ASSIGNMENT((#36));
#248=CURVE_STYLE('',#253,POSITIVE_LENGTH_MEASURE(0.18),#251);
#249=CURVE_STYLE('',#254,POSITIVE_LENGTH_MEASURE(0.18),#251);
#250=CURVE_STYLE('',#255,POSITIVE_LENGTH_MEASURE(0.18),#251);
#251=COLOUR_RGB('Strong Stone',0.576470588235294,0.54508278019379,0.392156862745098);
#252=COLOUR_RGB('Medium Gray',0.490196078431373,0.490196078431373,0.490196078431373);
#253=DRAUGHTING_PRE_DEFINED_CURVE_FONT('continuous');
#254=DRAUGHTING_PRE_DEFINED_CURVE_FONT('continuous');
#255=DRAUGHTING_PRE_DEFINED_CURVE_FONT('continuous');
#256=AXIS2_PLACEMENT_3D('',#373,#295,#296);
#257=AXIS2_PLACEMENT_3D('MCS',#374,#297,#298);
#258=AXIS2_PLACEMENT_3D('PCS',#375,#299,#300);
#259=AXIS2_PLACEMENT_3D('CSW',#376,#301,#302);
#260=AXIS2_PLACEMENT_3D('',#377,#303,#304);
#261=AXIS2_PLACEMENT_3D('',#379,#305,#306);
#262=AXIS2_PLACEMENT_3D('',#381,#307,#308);
#263=AXIS2_PLACEMENT_3D('',#382,#309,#310);
#264=AXIS2_PLACEMENT_3D('',#383,#311,#312);
#265=AXIS2_PLACEMENT_3D('',#385,#313,#314);
#266=AXIS2_PLACEMENT_3D('',#386,#315,#316);
#267=AXIS2_PLACEMENT_3D('',#388,#317,#318);
#268=AXIS2_PLACEMENT_3D('',#389,#319,#320);
#269=AXIS2_PLACEMENT_3D('',#390,#321,#322);
#270=AXIS2_PLACEMENT_3D('',#392,#323,#324);
#271=AXIS2_PLACEMENT_3D('',#394,#325,#326);
#272=AXIS2_PLACEMENT_3D('',#395,#327,#328);
#273=AXIS2_PLACEMENT_3D('',#397,#329,#330);
#274=AXIS2_PLACEMENT_3D('',#398,#331,#332);
#275=AXIS2_PLACEMENT_3D('',#400,#333,#334);
#276=AXIS2_PLACEMENT_3D('',#401,#335,#336);
#277=AXIS2_PLACEMENT_3D('',#403,#337,#338);
#278=AXIS2_PLACEMENT_3D('',#404,#339,#340);
#279=AXIS2_PLACEMENT_3D('',#406,#341,#342);
#280=AXIS2_PLACEMENT_3D('',#407,#343,#344);
#281=AXIS2_PLACEMENT_3D('',#409,#345,#346);
#282=AXIS2_PLACEMENT_3D('',#410,#347,#348);
#283=AXIS2_PLACEMENT_3D('',#412,#349,#350);
#284=AXIS2_PLACEMENT_3D('',#413,#351,#352);
#285=AXIS2_PLACEMENT_3D('',#415,#353,#354);
#286=AXIS2_PLACEMENT_3D('',#416,#355,#356);
#287=AXIS2_PLACEMENT_3D('',#418,#357,#358);
#288=AXIS2_PLACEMENT_3D('',#419,#359,#360);
#289=AXIS2_PLACEMENT_3D('',#421,#361,#362);
#290=AXIS2_PLACEMENT_3D('',#422,#363,#364);
#291=AXIS2_PLACEMENT_3D('',#424,#365,#366);
#292=AXIS2_PLACEMENT_3D('',#425,#367,#368);
#293=AXIS2_PLACEMENT_3D('',#427,#369,#370);
#294=AXIS2_PLACEMENT_3D('',#428,#371,#372);
#295=DIRECTION('',(0.,0.,1.));
#296=DIRECTION('',(1.,0.,0.));
#297=DIRECTION('',(0.,0.,1.));
#298=DIRECTION('',(1.,0.,0.));
#299=DIRECTION('',(0.,0.,1.));
#300=DIRECTION('',(1.,0.,0.));
#301=DIRECTION('',(0.,0.,1.));
#302=DIRECTION('',(1.,0.,0.));
#303=DIRECTION('',(0.,0.,1.));
#304=DIRECTION('',(-1.,0.,0.));
#305=DIRECTION('',(0.,0.,1.));
#306=DIRECTION('',(-1.,0.,0.));
#307=DIRECTION('',(0.,0.,-1.));
#308=DIRECTION('',(0.,-1.,-2.39980087858317E-16));
#309=DIRECTION('',(0.,0.,-1.));
#310=DIRECTION('',(0.,-1.,0.));
#311=DIRECTION('',(0.,0.,-1.));
#312=DIRECTION('',(0.,1.,0.));
#313=DIRECTION('',(0.,0.,-1.));
#314=DIRECTION('',(1.,0.,0.));
#315=DIRECTION('',(0.,0.,-1.));
#316=DIRECTION('',(1.,0.,0.));
#317=DIRECTION('',(0.,0.,1.));
#318=DIRECTION('',(0.,1.,0.));
#319=DIRECTION('',(0.,0.,-1.));
#320=DIRECTION('',(0.,-1.,0.));
#321=DIRECTION('',(0.,0.,-1.));
#322=DIRECTION('',(0.,1.,0.));
#323=DIRECTION('',(0.,0.,-1.));
#324=DIRECTION('',(0.,1.,0.));
#325=DIRECTION('',(0.,0.,1.));
#326=DIRECTION('',(0.,1.,3.42908889568699E-17));
#327=DIRECTION('',(0.,0.,-1.));
#328=DIRECTION('',(0.,1.,0.));
#329=DIRECTION('',(0.,0.,-1.));
#330=DIRECTION('',(0.,-1.,0.));
#331=DIRECTION('',(0.,0.,-1.));
#332=DIRECTION('',(0.,1.,0.));
#333=DIRECTION('',(0.,0.,-1.));
#334=DIRECTION('',(0.,-1.,0.));
#335=DIRECTION('',(0.,0.,-1.));
#336=DIRECTION('',(0.,1.,0.));
#337=DIRECTION('',(0.,0.,1.));
#338=DIRECTION('',(0.,1.,1.59832705429419E-16));
#339=DIRECTION('',(0.,0.,-1.));
#340=DIRECTION('',(0.,1.,0.));
#341=DIRECTION('',(0.,0.,-1.));
#342=DIRECTION('',(0.,-1.,0.));
#343=DIRECTION('',(0.,0.,-1.));
#344=DIRECTION('',(0.,1.,0.));
#345=DIRECTION('',(0.,0.,-1.));
#346=DIRECTION('',(0.,-1.,0.));
#347=DIRECTION('',(0.,0.,1.));
#348=DIRECTION('',(0.,-1.,0.));
#349=DIRECTION('',(0.,0.,-1.));
#350=DIRECTION('',(0.,-1.,0.));
#351=DIRECTION('',(0.,0.,1.));
#352=DIRECTION('',(0.,1.,0.));
#353=DIRECTION('',(0.,0.,-1.));
#354=DIRECTION('',(0.,-1.,1.98163431097065E-17));
#355=DIRECTION('',(0.,0.,1.));
#356=DIRECTION('',(0.,1.,0.));
#357=DIRECTION('',(0.,0.,-1.));
#358=DIRECTION('',(0.,-1.,0.));
#359=DIRECTION('',(0.,0.,-1.));
#360=DIRECTION('',(0.,1.,0.));
#361=DIRECTION('',(0.,0.,1.));
#362=DIRECTION('',(0.,1.,0.));
#363=DIRECTION('',(0.,0.,-1.));
#364=DIRECTION('',(0.,1.,0.));
#365=DIRECTION('',(0.,0.,1.));
#366=DIRECTION('',(0.,1.,0.));
#367=DIRECTION('',(0.,0.,-1.));
#368=DIRECTION('',(1.,0.,0.));
#369=DIRECTION('',(0.,0.,1.));
#370=DIRECTION('',(0.,1.,0.));
#371=DIRECTION('',(0.,0.,1.));
#372=DIRECTION('',(-1.,0.,0.));
#373=CARTESIAN_POINT('',(0.,0.,0.));
#374=CARTESIAN_POINT('',(0.,0.,0.));
#375=CARTESIAN_POINT('',(0.,0.,0.));
#376=CARTESIAN_POINT('',(0.,0.,-39.));
#377=CARTESIAN_POINT('',(0.,1.222961012733E-14,101.65));
#378=CARTESIAN_POINT('',(-20.1010416666701,1.222961012733E-14,101.65));
#379=CARTESIAN_POINT('',(0.,1.222961012733E-14,0.));
#380=CARTESIAN_POINT('',(-34.9250000000037,1.222961012733E-14,0.));
#381=CARTESIAN_POINT('',(0.,1.222961012733E-14,49.86234525671));
#382=CARTESIAN_POINT('',(0.,1.8571768689E-14,101.65));
#383=CARTESIAN_POINT('',(0.,0.,33.));
#384=CARTESIAN_POINT('',(0.,13.25,33.));
#385=CARTESIAN_POINT('',(0.,0.,33.));
#386=CARTESIAN_POINT('',(0.,0.,0.));
#387=CARTESIAN_POINT('',(13.25,0.,0.));
#388=CARTESIAN_POINT('',(0.,0.,-42.8411302802));
#389=CARTESIAN_POINT('',(0.,0.,0.));
#390=CARTESIAN_POINT('',(0.,0.,-39.));
#391=CARTESIAN_POINT('',(0.,29.42264973081,-39.));
#392=CARTESIAN_POINT('',(0.,0.,-38.));
#393=CARTESIAN_POINT('',(0.,30.,-38.));
#394=CARTESIAN_POINT('',(0.,0.,-38.5));
#395=CARTESIAN_POINT('',(0.,0.,-37.));
#396=CARTESIAN_POINT('',(0.,30.,-37.));
#397=CARTESIAN_POINT('',(0.,0.,1.95));
#398=CARTESIAN_POINT('',(0.,0.,-36.11141837814));
#399=CARTESIAN_POINT('',(0.,29.40816199221,-36.11141837814));
#400=CARTESIAN_POINT('',(0.,0.,-36.22540333076));
#401=CARTESIAN_POINT('',(0.,0.,-32.));
#402=CARTESIAN_POINT('',(0.,30.,-32.));
#403=CARTESIAN_POINT('',(0.,0.,-34.05570918907));
#404=CARTESIAN_POINT('',(0.,0.,-3.775735082217));
#405=CARTESIAN_POINT('',(0.,30.,-3.775735082217));
#406=CARTESIAN_POINT('',(0.,0.,1.95));
#407=CARTESIAN_POINT('',(0.,0.,0.));
#408=CARTESIAN_POINT('',(0.,32.15,0.));
#409=CARTESIAN_POINT('',(0.,0.,-2.5));
#410=CARTESIAN_POINT('',(0.,0.,-39.));
#411=CARTESIAN_POINT('',(0.,-20.,-39.));
#412=CARTESIAN_POINT('',(0.,0.,-39.));
#413=CARTESIAN_POINT('',(0.,0.,-37.55662432703));
#414=CARTESIAN_POINT('',(0.,17.5,-37.55662432703));
#415=CARTESIAN_POINT('',(0.,0.,-38.27831216351));
#416=CARTESIAN_POINT('',(0.,0.,-34.09252271189));
#417=CARTESIAN_POINT('',(0.,15.5,-34.09252271189));
#418=CARTESIAN_POINT('',(0.,0.,-35.82457351946));
#419=CARTESIAN_POINT('',(0.,0.,-29.));
#420=CARTESIAN_POINT('',(0.,15.5,-29.));
#421=CARTESIAN_POINT('',(0.,0.,-42.8411302802));
#422=CARTESIAN_POINT('',(0.,0.,-29.));
#423=CARTESIAN_POINT('',(0.,13.25,-29.));
#424=CARTESIAN_POINT('',(0.,0.,-29.));
#425=CARTESIAN_POINT('',(0.,0.,0.));
#426=CARTESIAN_POINT('',(13.25,0.,0.));
#427=CARTESIAN_POINT('',(0.,0.,-42.8411302802));
#428=CARTESIAN_POINT('',(0.,0.,0.));
#429=MECHANICAL_DESIGN_GEOMETRIC_PRESENTATION_REPRESENTATION('',(#238,#239,
#240,#241,#242),#430);
#430=(
GEOMETRIC_REPRESENTATION_CONTEXT(3)
GLOBAL_UNCERTAINTY_ASSIGNED_CONTEXT((#431))
GLOBAL_UNIT_ASSIGNED_CONTEXT((#437,#433,#432))
REPRESENTATION_CONTEXT('E447153960','TOP_LEVEL_ASSEMBLY_PART')
);
#431=UNCERTAINTY_MEASURE_WITH_UNIT(LENGTH_MEASURE(2.E-5),#437,
'DISTANCE_ACCURACY_VALUE','Maximum Tolerance applied to model');
#432=(
NAMED_UNIT(*)
SI_UNIT($,.STERADIAN.)
SOLID_ANGLE_UNIT()
);
#433=(
CONVERSION_BASED_UNIT('DEGREE',#435)
NAMED_UNIT(#434)
PLANE_ANGLE_UNIT()
);
#434=DIMENSIONAL_EXPONENTS(0.,0.,0.,0.,0.,0.,0.);
#435=PLANE_ANGLE_MEASURE_WITH_UNIT(PLANE_ANGLE_MEASURE(0.0174532925),#436);
#436=(
NAMED_UNIT(*)
PLANE_ANGLE_UNIT()
SI_UNIT($,.RADIAN.)
);
#437=(
LENGTH_UNIT()
NAMED_UNIT(*)
SI_UNIT(.MILLI.,.METRE.)
);
ENDSEC;
END-ISO-10303-21;
