ISO-10303-21;
HEADER;
/* Generated by software containing ST-Developer
 * from STEP Tools, Inc. (www.steptools.com) 
 */
/* OPTION: using custom schema-name function */

FILE_DESCRIPTION(
/* description */ (''),
/* implementation_level */ '2;1');

FILE_NAME(
/* name */ 'BMA8004014660.stp',
/* time_stamp */ '2017-09-14T10:19:43+06:00',
/* author */ (''),
/* organization */ (''),
/* preprocessor_version */ 'ST-DEVELOPER v16',
/* originating_system */ 'SIEMENS PLM Software NX 11.0',
/* authorisation */ '');

FILE_SCHEMA (('AUTOMOTIVE_DESIGN { 1 0 10303 214 3 1 1 1 }'));
ENDSEC;

DATA;
#10=CONSTRUCTIVE_GEOMETRY_REPRESENTATION_RELATIONSHIP(
'supplemental geometry','',#24,#11);
#11=CONSTRUCTIVE_GEOMETRY_REPRESENTATION('supplemental geometry',(#227,
#228,#229),#374);
#12=SHAPE_REPRESENTATION_RELATIONSHIP('None',
'relationship between BMA8004014660-None and BMA8004014660-None',#24,#13);
#13=ADVANCED_BREP_SHAPE_REPRESENTATION('BMA8004014660-None',(#35,#36),#374);
#14=SHAPE_DEFINITION_REPRESENTATION(#15,#24);
#15=PRODUCT_DEFINITION_SHAPE('','',#16);
#16=PRODUCT_DEFINITION(' ','',#18,#17);
#17=PRODUCT_DEFINITION_CONTEXT('part definition',#23,'design');
#18=PRODUCT_DEFINITION_FORMATION_WITH_SPECIFIED_SOURCE(' ',' ',#20,
 .NOT_KNOWN.);
#19=PRODUCT_RELATED_PRODUCT_CATEGORY('part','',(#20));
#20=PRODUCT('BMA8004014660','BMA8004014660',' ',(#21));
#21=PRODUCT_CONTEXT(' ',#23,'mechanical');
#22=APPLICATION_PROTOCOL_DEFINITION('international standard',
'automotive_design',2010,#23);
#23=APPLICATION_CONTEXT(
'core data for automotive mechanical design processes');
#24=SHAPE_REPRESENTATION('BMA8004014660-None',(#226),#374);
#25=SURFACE_STYLE_USAGE(.BOTH.,#27);
#26=SURFACE_STYLE_USAGE(.BOTH.,#28);
#27=SURFACE_SIDE_STYLE('',(#29));
#28=SURFACE_SIDE_STYLE('',(#30));
#29=SURFACE_STYLE_FILL_AREA(#31);
#30=SURFACE_STYLE_FILL_AREA(#32);
#31=FILL_AREA_STYLE('',(#33));
#32=FILL_AREA_STYLE('',(#34));
#33=FILL_AREA_STYLE_COLOUR('',#222);
#34=FILL_AREA_STYLE_COLOUR('',#222);
#35=MANIFOLD_SOLID_BREP('NOCUT',#37);
#36=MANIFOLD_SOLID_BREP('NOCUT',#38);
#37=CLOSED_SHELL('',(#68,#69,#70,#71,#72,#73,#74,#75,#76,#77,#78));
#38=CLOSED_SHELL('',(#79,#80,#81));
#39=CYLINDRICAL_SURFACE('',#236,40.);
#40=CYLINDRICAL_SURFACE('',#241,23.);
#41=CYLINDRICAL_SURFACE('',#247,45.);
#42=CYLINDRICAL_SURFACE('',#253,23.);
#43=CONICAL_SURFACE('',#234,39.7499998947,44.99999984788);
#44=CONICAL_SURFACE('',#248,42.5,30.);
#45=FACE_BOUND('',#100,.T.);
#46=FACE_BOUND('',#101,.T.);
#47=FACE_BOUND('',#102,.T.);
#48=FACE_BOUND('',#103,.T.);
#49=FACE_BOUND('',#105,.T.);
#50=FACE_BOUND('',#106,.T.);
#51=FACE_BOUND('',#109,.T.);
#52=FACE_BOUND('',#110,.T.);
#53=FACE_BOUND('',#111,.T.);
#54=FACE_BOUND('',#112,.T.);
#55=FACE_BOUND('',#115,.T.);
#56=FACE_BOUND('',#116,.T.);
#57=CIRCLE('',#231,39.49999989438);
#58=CIRCLE('',#233,40.);
#59=CIRCLE('',#235,40.);
#60=CIRCLE('',#237,23.);
#61=CIRCLE('',#239,23.);
#62=CIRCLE('',#240,23.);
#63=CIRCLE('',#242,45.);
#64=CIRCLE('',#244,45.);
#65=CIRCLE('',#246,45.);
#66=CIRCLE('',#250,23.);
#67=CIRCLE('',#252,23.);
#68=ADVANCED_FACE('',(#90),#82,.F.);
#69=ADVANCED_FACE('',(#91),#83,.F.);
#70=ADVANCED_FACE('',(#45,#46),#43,.T.);
#71=ADVANCED_FACE('',(#47,#48),#39,.T.);
#72=ADVANCED_FACE('',(#92),#84,.T.);
#73=ADVANCED_FACE('',(#49,#50),#40,.F.);
#74=ADVANCED_FACE('',(#93),#85,.F.);
#75=ADVANCED_FACE('',(#94),#86,.F.);
#76=ADVANCED_FACE('',(#51,#52),#41,.T.);
#77=ADVANCED_FACE('',(#53,#54),#44,.T.);
#78=ADVANCED_FACE('',(#95),#87,.F.);
#79=ADVANCED_FACE('',(#96),#88,.F.);
#80=ADVANCED_FACE('',(#55,#56),#42,.T.);
#81=ADVANCED_FACE('',(#97),#89,.F.);
#82=PLANE('',#230);
#83=PLANE('',#232);
#84=PLANE('',#238);
#85=PLANE('',#243);
#86=PLANE('',#245);
#87=PLANE('',#249);
#88=PLANE('',#251);
#89=PLANE('',#254);
#90=FACE_OUTER_BOUND('',#98,.T.);
#91=FACE_OUTER_BOUND('',#99,.T.);
#92=FACE_OUTER_BOUND('',#104,.T.);
#93=FACE_OUTER_BOUND('',#107,.T.);
#94=FACE_OUTER_BOUND('',#108,.T.);
#95=FACE_OUTER_BOUND('',#113,.T.);
#96=FACE_OUTER_BOUND('',#114,.T.);
#97=FACE_OUTER_BOUND('',#117,.T.);
#98=EDGE_LOOP('',(#118,#119,#120,#121));
#99=EDGE_LOOP('',(#122));
#100=EDGE_LOOP('',(#123));
#101=EDGE_LOOP('',(#124));
#102=EDGE_LOOP('',(#125));
#103=EDGE_LOOP('',(#126));
#104=EDGE_LOOP('',(#127));
#105=EDGE_LOOP('',(#128,#129,#130,#131));
#106=EDGE_LOOP('',(#132));
#107=EDGE_LOOP('',(#133,#134,#135,#136));
#108=EDGE_LOOP('',(#137,#138,#139,#140));
#109=EDGE_LOOP('',(#141));
#110=EDGE_LOOP('',(#142,#143,#144,#145));
#111=EDGE_LOOP('',(#146));
#112=EDGE_LOOP('',(#147));
#113=EDGE_LOOP('',(#148,#149,#150,#151));
#114=EDGE_LOOP('',(#152));
#115=EDGE_LOOP('',(#153));
#116=EDGE_LOOP('',(#154));
#117=EDGE_LOOP('',(#155));
#118=ORIENTED_EDGE('',*,*,#171,.F.);
#119=ORIENTED_EDGE('',*,*,#172,.T.);
#120=ORIENTED_EDGE('',*,*,#173,.F.);
#121=ORIENTED_EDGE('',*,*,#174,.T.);
#122=ORIENTED_EDGE('',*,*,#175,.F.);
#123=ORIENTED_EDGE('',*,*,#175,.T.);
#124=ORIENTED_EDGE('',*,*,#176,.F.);
#125=ORIENTED_EDGE('',*,*,#176,.T.);
#126=ORIENTED_EDGE('',*,*,#177,.T.);
#127=ORIENTED_EDGE('',*,*,#178,.T.);
#128=ORIENTED_EDGE('',*,*,#179,.T.);
#129=ORIENTED_EDGE('',*,*,#180,.F.);
#130=ORIENTED_EDGE('',*,*,#181,.T.);
#131=ORIENTED_EDGE('',*,*,#171,.T.);
#132=ORIENTED_EDGE('',*,*,#178,.F.);
#133=ORIENTED_EDGE('',*,*,#182,.T.);
#134=ORIENTED_EDGE('',*,*,#179,.F.);
#135=ORIENTED_EDGE('',*,*,#174,.F.);
#136=ORIENTED_EDGE('',*,*,#183,.F.);
#137=ORIENTED_EDGE('',*,*,#181,.F.);
#138=ORIENTED_EDGE('',*,*,#184,.T.);
#139=ORIENTED_EDGE('',*,*,#185,.F.);
#140=ORIENTED_EDGE('',*,*,#172,.F.);
#141=ORIENTED_EDGE('',*,*,#186,.F.);
#142=ORIENTED_EDGE('',*,*,#183,.T.);
#143=ORIENTED_EDGE('',*,*,#173,.T.);
#144=ORIENTED_EDGE('',*,*,#185,.T.);
#145=ORIENTED_EDGE('',*,*,#187,.F.);
#146=ORIENTED_EDGE('',*,*,#186,.T.);
#147=ORIENTED_EDGE('',*,*,#177,.F.);
#148=ORIENTED_EDGE('',*,*,#187,.T.);
#149=ORIENTED_EDGE('',*,*,#184,.F.);
#150=ORIENTED_EDGE('',*,*,#180,.T.);
#151=ORIENTED_EDGE('',*,*,#182,.F.);
#152=ORIENTED_EDGE('',*,*,#188,.F.);
#153=ORIENTED_EDGE('',*,*,#189,.T.);
#154=ORIENTED_EDGE('',*,*,#188,.T.);
#155=ORIENTED_EDGE('',*,*,#189,.F.);
#156=VERTEX_POINT('',#326);
#157=VERTEX_POINT('',#327);
#158=VERTEX_POINT('',#329);
#159=VERTEX_POINT('',#331);
#160=VERTEX_POINT('',#335);
#161=VERTEX_POINT('',#338);
#162=VERTEX_POINT('',#341);
#163=VERTEX_POINT('',#344);
#164=VERTEX_POINT('',#347);
#165=VERTEX_POINT('',#349);
#166=VERTEX_POINT('',#353);
#167=VERTEX_POINT('',#357);
#168=VERTEX_POINT('',#361);
#169=VERTEX_POINT('',#367);
#170=VERTEX_POINT('',#370);
#171=EDGE_CURVE('',#156,#157,#190,.T.);
#172=EDGE_CURVE('',#156,#158,#191,.T.);
#173=EDGE_CURVE('',#159,#158,#192,.T.);
#174=EDGE_CURVE('',#159,#157,#193,.T.);
#175=EDGE_CURVE('',#160,#160,#57,.T.);
#176=EDGE_CURVE('',#161,#161,#58,.T.);
#177=EDGE_CURVE('',#162,#162,#59,.T.);
#178=EDGE_CURVE('',#163,#163,#60,.T.);
#179=EDGE_CURVE('',#157,#164,#61,.T.);
#180=EDGE_CURVE('',#165,#164,#194,.T.);
#181=EDGE_CURVE('',#165,#156,#62,.T.);
#182=EDGE_CURVE('',#166,#164,#195,.T.);
#183=EDGE_CURVE('',#166,#159,#63,.T.);
#184=EDGE_CURVE('',#165,#167,#196,.T.);
#185=EDGE_CURVE('',#158,#167,#64,.T.);
#186=EDGE_CURVE('',#168,#168,#65,.T.);
#187=EDGE_CURVE('',#166,#167,#197,.T.);
#188=EDGE_CURVE('',#169,#169,#66,.T.);
#189=EDGE_CURVE('',#170,#170,#67,.T.);
#190=LINE('',#325,#198);
#191=LINE('',#328,#199);
#192=LINE('',#330,#200);
#193=LINE('',#332,#201);
#194=LINE('',#348,#202);
#195=LINE('',#352,#203);
#196=LINE('',#356,#204);
#197=LINE('',#362,#205);
#198=VECTOR('',#263,1.);
#199=VECTOR('',#264,1.);
#200=VECTOR('',#265,1.);
#201=VECTOR('',#266,1.);
#202=VECTOR('',#287,1.);
#203=VECTOR('',#292,1.);
#204=VECTOR('',#297,1.);
#205=VECTOR('',#304,1.);
#206=PRESENTATION_LAYER_ASSIGNMENT('1','Layer 1',(#227,#228,#229,#36));
#207=PRESENTATION_LAYER_ASSIGNMENT('2','Layer 2',(#35));
#208=STYLED_ITEM('',(#213),#227);
#209=STYLED_ITEM('',(#214),#228);
#210=STYLED_ITEM('',(#215),#229);
#211=STYLED_ITEM('',(#216),#35);
#212=STYLED_ITEM('',(#217),#36);
#213=PRESENTATION_STYLE_ASSIGNMENT((#218));
#214=PRESENTATION_STYLE_ASSIGNMENT((#219));
#215=PRESENTATION_STYLE_ASSIGNMENT((#220));
#216=PRESENTATION_STYLE_ASSIGNMENT((#25));
#217=PRESENTATION_STYLE_ASSIGNMENT((#26));
#218=CURVE_STYLE('',#223,POSITIVE_LENGTH_MEASURE(0.18),#221);
#219=CURVE_STYLE('',#224,POSITIVE_LENGTH_MEASURE(0.18),#221);
#220=CURVE_STYLE('',#225,POSITIVE_LENGTH_MEASURE(0.18),#221);
#221=COLOUR_RGB('Strong Stone',0.576470588235294,0.54508278019379,0.392156862745098);
#222=COLOUR_RGB('Medium Gray',0.490196078431373,0.490196078431373,0.490196078431373);
#223=DRAUGHTING_PRE_DEFINED_CURVE_FONT('continuous');
#224=DRAUGHTING_PRE_DEFINED_CURVE_FONT('continuous');
#225=DRAUGHTING_PRE_DEFINED_CURVE_FONT('continuous');
#226=AXIS2_PLACEMENT_3D('',#321,#255,#256);
#227=AXIS2_PLACEMENT_3D('PCS',#322,#257,#258);
#228=AXIS2_PLACEMENT_3D('MCS',#323,#259,#260);
#229=AXIS2_PLACEMENT_3D('CSW',#324,#261,#262);
#230=AXIS2_PLACEMENT_3D('',#333,#267,#268);
#231=AXIS2_PLACEMENT_3D('',#334,#269,#270);
#232=AXIS2_PLACEMENT_3D('',#336,#271,#272);
#233=AXIS2_PLACEMENT_3D('',#337,#273,#274);
#234=AXIS2_PLACEMENT_3D('',#339,#275,#276);
#235=AXIS2_PLACEMENT_3D('',#340,#277,#278);
#236=AXIS2_PLACEMENT_3D('',#342,#279,#280);
#237=AXIS2_PLACEMENT_3D('',#343,#281,#282);
#238=AXIS2_PLACEMENT_3D('',#345,#283,#284);
#239=AXIS2_PLACEMENT_3D('',#346,#285,#286);
#240=AXIS2_PLACEMENT_3D('',#350,#288,#289);
#241=AXIS2_PLACEMENT_3D('',#351,#290,#291);
#242=AXIS2_PLACEMENT_3D('',#354,#293,#294);
#243=AXIS2_PLACEMENT_3D('',#355,#295,#296);
#244=AXIS2_PLACEMENT_3D('',#358,#298,#299);
#245=AXIS2_PLACEMENT_3D('',#359,#300,#301);
#246=AXIS2_PLACEMENT_3D('',#360,#302,#303);
#247=AXIS2_PLACEMENT_3D('',#363,#305,#306);
#248=AXIS2_PLACEMENT_3D('',#364,#307,#308);
#249=AXIS2_PLACEMENT_3D('',#365,#309,#310);
#250=AXIS2_PLACEMENT_3D('',#366,#311,#312);
#251=AXIS2_PLACEMENT_3D('',#368,#313,#314);
#252=AXIS2_PLACEMENT_3D('',#369,#315,#316);
#253=AXIS2_PLACEMENT_3D('',#371,#317,#318);
#254=AXIS2_PLACEMENT_3D('',#372,#319,#320);
#255=DIRECTION('',(0.,0.,1.));
#256=DIRECTION('',(1.,0.,0.));
#257=DIRECTION('',(0.,0.,1.));
#258=DIRECTION('',(1.,0.,0.));
#259=DIRECTION('',(0.,0.,1.));
#260=DIRECTION('',(1.,0.,0.));
#261=DIRECTION('',(0.,0.,1.));
#262=DIRECTION('',(-3.51436609374757E-15,-1.,0.));
#263=DIRECTION('',(0.,0.,-1.));
#264=DIRECTION('',(0.,1.,0.));
#265=DIRECTION('',(0.,0.,1.));
#266=DIRECTION('',(0.,-1.,0.));
#267=DIRECTION('',(1.,0.,0.));
#268=DIRECTION('',(0.,0.,1.));
#269=DIRECTION('',(0.,0.,-1.));
#270=DIRECTION('',(0.,1.,0.));
#271=DIRECTION('',(0.,0.,-1.));
#272=DIRECTION('',(0.,1.,0.));
#273=DIRECTION('',(0.,0.,-1.));
#274=DIRECTION('',(0.,1.,0.));
#275=DIRECTION('',(0.,0.,-1.));
#276=DIRECTION('',(-1.,0.,-4.95307559137147E-17));
#277=DIRECTION('',(0.,0.,1.));
#278=DIRECTION('',(0.,-1.,0.));
#279=DIRECTION('',(0.,0.,-1.));
#280=DIRECTION('',(1.,0.,0.));
#281=DIRECTION('',(0.,0.,-1.));
#282=DIRECTION('',(-1.,0.,0.));
#283=DIRECTION('',(0.,0.,-1.));
#284=DIRECTION('',(1.,0.,0.));
#285=DIRECTION('',(0.,0.,-1.));
#286=DIRECTION('',(0.391304347826092,0.920261325587681,0.));
#287=DIRECTION('',(0.,0.,-1.));
#288=DIRECTION('',(0.,0.,-1.));
#289=DIRECTION('',(-0.426086956521718,0.904682212427137,0.));
#290=DIRECTION('',(0.,0.,-1.));
#291=DIRECTION('',(1.,0.,0.));
#292=DIRECTION('',(0.,-1.,0.));
#293=DIRECTION('',(0.,0.,1.));
#294=DIRECTION('',(0.199999999999994,0.979795897113273,0.));
#295=DIRECTION('',(0.,0.,1.));
#296=DIRECTION('',(0.,-1.,0.));
#297=DIRECTION('',(0.,1.,0.));
#298=DIRECTION('',(0.,0.,1.));
#299=DIRECTION('',(0.199999999999994,0.979795897113273,0.));
#300=DIRECTION('',(0.,0.,1.));
#301=DIRECTION('',(-1.,0.,0.));
#302=DIRECTION('',(0.,0.,1.));
#303=DIRECTION('',(0.,-1.,0.));
#304=DIRECTION('',(0.,0.,1.));
#305=DIRECTION('',(0.,0.,1.));
#306=DIRECTION('',(-1.,0.,0.));
#307=DIRECTION('',(0.,0.,-1.));
#308=DIRECTION('',(0.,-1.,-1.67917017596337E-17));
#309=DIRECTION('',(-1.,0.,0.));
#310=DIRECTION('',(0.,0.,-1.));
#311=DIRECTION('',(0.,0.,-1.));
#312=DIRECTION('',(0.,1.,0.));
#313=DIRECTION('',(0.,0.,-1.));
#314=DIRECTION('',(0.,1.,0.));
#315=DIRECTION('',(0.,0.,1.));
#316=DIRECTION('',(0.,1.,0.));
#317=DIRECTION('',(0.,0.,-1.));
#318=DIRECTION('',(1.,0.,0.));
#319=DIRECTION('',(0.,0.,1.));
#320=DIRECTION('',(1.,0.,0.));
#321=CARTESIAN_POINT('',(0.,0.,0.));
#322=CARTESIAN_POINT('',(0.,0.,0.));
#323=CARTESIAN_POINT('',(0.,0.,0.));
#324=CARTESIAN_POINT('',(0.,0.,-60.));
#325=CARTESIAN_POINT('',(9.,21.16601048852,-50.));
#326=CARTESIAN_POINT('',(9.,21.16601048852,-50.));
#327=CARTESIAN_POINT('',(9.,21.16601048852,-60.));
#328=CARTESIAN_POINT('',(9.,21.16601048852,-50.));
#329=CARTESIAN_POINT('',(9.,44.0908153701,-50.));
#330=CARTESIAN_POINT('',(9.,44.0908153701,-60.));
#331=CARTESIAN_POINT('',(9.,44.0908153701,-60.));
#332=CARTESIAN_POINT('',(9.,44.0908153701,-60.));
#333=CARTESIAN_POINT('',(9.,0.,-50.));
#334=CARTESIAN_POINT('',(8.970602038971E-14,4.156675004197E-13,-1.041306489924E-7));
#335=CARTESIAN_POINT('',(8.970602038971E-14,39.4999998943804,-1.041306489924E-7));
#336=CARTESIAN_POINT('',(0.,0.,0.));
#337=CARTESIAN_POINT('',(0.,0.,-0.5000000015083));
#338=CARTESIAN_POINT('',(0.,40.,-0.5000000015083));
#339=CARTESIAN_POINT('',(8.970602038971E-14,4.156675004197E-13,-0.2500001057732));
#340=CARTESIAN_POINT('',(0.,0.,-20.));
#341=CARTESIAN_POINT('',(0.,-40.,-20.));
#342=CARTESIAN_POINT('',(0.,0.,46.15));
#343=CARTESIAN_POINT('',(0.,0.,-8.));
#344=CARTESIAN_POINT('',(-23.,0.,-8.));
#345=CARTESIAN_POINT('',(0.,0.,-8.));
#346=CARTESIAN_POINT('',(0.,0.,-60.));
#347=CARTESIAN_POINT('',(-9.8,20.80769088582,-60.));
#348=CARTESIAN_POINT('',(-9.8,20.80769088582,-50.));
#349=CARTESIAN_POINT('',(-9.8,20.80769088582,-50.));
#350=CARTESIAN_POINT('',(0.,0.,-50.));
#351=CARTESIAN_POINT('',(0.,0.,-60.));
#352=CARTESIAN_POINT('',(-9.8,43.91992714019,-60.));
#353=CARTESIAN_POINT('',(-9.8,43.91992714019,-60.));
#354=CARTESIAN_POINT('',(0.,0.,-60.));
#355=CARTESIAN_POINT('',(0.,0.,-60.));
#356=CARTESIAN_POINT('',(-9.8,20.80769088582,-50.));
#357=CARTESIAN_POINT('',(-9.8,43.91992714019,-50.));
#358=CARTESIAN_POINT('',(0.,0.,-50.));
#359=CARTESIAN_POINT('',(-9.8,0.,-50.));
#360=CARTESIAN_POINT('',(0.,0.,-28.66025403784));
#361=CARTESIAN_POINT('',(0.,-45.,-28.66025403784));
#362=CARTESIAN_POINT('',(-9.8,43.91992714019,-60.));
#363=CARTESIAN_POINT('',(0.,0.,-62.));
#364=CARTESIAN_POINT('',(0.,0.,-24.33012701892));
#365=CARTESIAN_POINT('',(-9.8,0.,-60.));
#366=CARTESIAN_POINT('',(0.,0.,43.));
#367=CARTESIAN_POINT('',(0.,23.,43.));
#368=CARTESIAN_POINT('',(0.,0.,43.));
#369=CARTESIAN_POINT('',(0.,0.,-4.973799150321E-14));
#370=CARTESIAN_POINT('',(0.,23.,-4.973799150321E-14));
#371=CARTESIAN_POINT('',(0.,0.,45.15));
#372=CARTESIAN_POINT('',(0.,0.,0.));
#373=MECHANICAL_DESIGN_GEOMETRIC_PRESENTATION_REPRESENTATION('',(#208,#209,
#210,#211,#212),#374);
#374=(
GEOMETRIC_REPRESENTATION_CONTEXT(3)
GLOBAL_UNCERTAINTY_ASSIGNED_CONTEXT((#375))
GLOBAL_UNIT_ASSIGNED_CONTEXT((#381,#377,#376))
REPRESENTATION_CONTEXT('BMA8004014660','TOP_LEVEL_ASSEMBLY_PART')
);
#375=UNCERTAINTY_MEASURE_WITH_UNIT(LENGTH_MEASURE(2.E-5),#381,
'DISTANCE_ACCURACY_VALUE','Maximum Tolerance applied to model');
#376=(
NAMED_UNIT(*)
SI_UNIT($,.STERADIAN.)
SOLID_ANGLE_UNIT()
);
#377=(
CONVERSION_BASED_UNIT('DEGREE',#379)
NAMED_UNIT(#378)
PLANE_ANGLE_UNIT()
);
#378=DIMENSIONAL_EXPONENTS(0.,0.,0.,0.,0.,0.,0.);
#379=PLANE_ANGLE_MEASURE_WITH_UNIT(PLANE_ANGLE_MEASURE(0.0174532925),#380);
#380=(
NAMED_UNIT(*)
PLANE_ANGLE_UNIT()
SI_UNIT($,.RADIAN.)
);
#381=(
LENGTH_UNIT()
NAMED_UNIT(*)
SI_UNIT(.MILLI.,.METRE.)
);
ENDSEC;
END-ISO-10303-21;
