ISO-10303-21;
HEADER;
/* Generated by software containing ST-Developer
 * from STEP Tools, Inc. (www.steptools.com) 
 */
/* OPTION: using custom schema-name function */

FILE_DESCRIPTION(
/* description */ (''),
/* implementation_level */ '2;1');

FILE_NAME(
/* name */ 'BMA6004013660.stp',
/* time_stamp */ '2017-09-14T10:19:43+06:00',
/* author */ (''),
/* organization */ (''),
/* preprocessor_version */ 'ST-DEVELOPER v16',
/* originating_system */ 'SIEMENS PLM Software NX 11.0',
/* authorisation */ '');

FILE_SCHEMA (('AUTOMOTIVE_DESIGN { 1 0 10303 214 3 1 1 1 }'));
ENDSEC;

DATA;
#10=CONSTRUCTIVE_GEOMETRY_REPRESENTATION_RELATIONSHIP(
'supplemental geometry','',#24,#11);
#11=CONSTRUCTIVE_GEOMETRY_REPRESENTATION('supplemental geometry',(#216,
#217,#218),#354);
#12=SHAPE_REPRESENTATION_RELATIONSHIP('None',
'relationship between BMA6004013660-None and BMA6004013660-None',#24,#13);
#13=ADVANCED_BREP_SHAPE_REPRESENTATION('BMA6004013660-None',(#35,#36),#354);
#14=SHAPE_DEFINITION_REPRESENTATION(#15,#24);
#15=PRODUCT_DEFINITION_SHAPE('','',#16);
#16=PRODUCT_DEFINITION(' ','',#18,#17);
#17=PRODUCT_DEFINITION_CONTEXT('part definition',#23,'design');
#18=PRODUCT_DEFINITION_FORMATION_WITH_SPECIFIED_SOURCE(' ',' ',#20,
 .NOT_KNOWN.);
#19=PRODUCT_RELATED_PRODUCT_CATEGORY('part','',(#20));
#20=PRODUCT('BMA6004013660','BMA6004013660',' ',(#21));
#21=PRODUCT_CONTEXT(' ',#23,'mechanical');
#22=APPLICATION_PROTOCOL_DEFINITION('international standard',
'automotive_design',2010,#23);
#23=APPLICATION_CONTEXT(
'core data for automotive mechanical design processes');
#24=SHAPE_REPRESENTATION('BMA6004013660-None',(#215),#354);
#25=SURFACE_STYLE_USAGE(.BOTH.,#27);
#26=SURFACE_STYLE_USAGE(.BOTH.,#28);
#27=SURFACE_SIDE_STYLE('',(#29));
#28=SURFACE_SIDE_STYLE('',(#30));
#29=SURFACE_STYLE_FILL_AREA(#31);
#30=SURFACE_STYLE_FILL_AREA(#32);
#31=FILL_AREA_STYLE('',(#33));
#32=FILL_AREA_STYLE('',(#34));
#33=FILL_AREA_STYLE_COLOUR('',#211);
#34=FILL_AREA_STYLE_COLOUR('',#211);
#35=MANIFOLD_SOLID_BREP('NOCUT',#37);
#36=MANIFOLD_SOLID_BREP('NOCUT',#38);
#37=CLOSED_SHELL('',(#70,#71,#72,#73,#74,#75,#76,#77,#78));
#38=CLOSED_SHELL('',(#79,#80,#81,#82));
#39=CYLINDRICAL_SURFACE('',#225,31.5);
#40=CYLINDRICAL_SURFACE('',#232,18.);
#41=CYLINDRICAL_SURFACE('',#240,17.);
#42=LINE('',#314,#50);
#43=LINE('',#319,#51);
#44=LINE('',#323,#52);
#45=LINE('',#325,#53);
#46=LINE('',#327,#54);
#47=LINE('',#331,#55);
#48=LINE('',#333,#56);
#49=LINE('',#339,#57);
#50=VECTOR('',#258,1.);
#51=VECTOR('',#261,1.);
#52=VECTOR('',#266,1.);
#53=VECTOR('',#267,1.);
#54=VECTOR('',#268,1.);
#55=VECTOR('',#273,1.);
#56=VECTOR('',#276,1.);
#57=VECTOR('',#283,1.);
#58=CONICAL_SURFACE('',#222,31.24999989076,44.99999979936);
#59=CONICAL_SURFACE('',#238,17.,45.);
#60=FACE_BOUND('',#100,.T.);
#61=FACE_BOUND('',#101,.T.);
#62=FACE_BOUND('',#102,.T.);
#63=FACE_BOUND('',#103,.T.);
#64=FACE_BOUND('',#107,.T.);
#65=FACE_BOUND('',#108,.T.);
#66=FACE_BOUND('',#112,.T.);
#67=FACE_BOUND('',#113,.T.);
#68=FACE_BOUND('',#114,.T.);
#69=FACE_BOUND('',#115,.T.);
#70=ADVANCED_FACE('',(#91),#83,.F.);
#71=ADVANCED_FACE('',(#60,#61),#58,.T.);
#72=ADVANCED_FACE('',(#62,#63),#39,.T.);
#73=ADVANCED_FACE('',(#92),#84,.F.);
#74=ADVANCED_FACE('',(#93),#85,.F.);
#75=ADVANCED_FACE('',(#94),#86,.F.);
#76=ADVANCED_FACE('',(#64,#65),#40,.F.);
#77=ADVANCED_FACE('',(#95),#87,.T.);
#78=ADVANCED_FACE('',(#96),#88,.F.);
#79=ADVANCED_FACE('',(#97),#89,.F.);
#80=ADVANCED_FACE('',(#66,#67),#59,.T.);
#81=ADVANCED_FACE('',(#68,#69),#41,.T.);
#82=ADVANCED_FACE('',(#98),#90,.F.);
#83=PLANE('',#220);
#84=PLANE('',#226);
#85=PLANE('',#228);
#86=PLANE('',#230);
#87=PLANE('',#233);
#88=PLANE('',#234);
#89=PLANE('',#236);
#90=PLANE('',#241);
#91=FACE_OUTER_BOUND('',#99,.T.);
#92=FACE_OUTER_BOUND('',#104,.T.);
#93=FACE_OUTER_BOUND('',#105,.T.);
#94=FACE_OUTER_BOUND('',#106,.T.);
#95=FACE_OUTER_BOUND('',#109,.T.);
#96=FACE_OUTER_BOUND('',#110,.T.);
#97=FACE_OUTER_BOUND('',#111,.T.);
#98=FACE_OUTER_BOUND('',#116,.T.);
#99=EDGE_LOOP('',(#117));
#100=EDGE_LOOP('',(#118));
#101=EDGE_LOOP('',(#119));
#102=EDGE_LOOP('',(#120,#121,#122,#123));
#103=EDGE_LOOP('',(#124));
#104=EDGE_LOOP('',(#125,#126,#127,#128));
#105=EDGE_LOOP('',(#129,#130,#131,#132));
#106=EDGE_LOOP('',(#133,#134,#135,#136));
#107=EDGE_LOOP('',(#137));
#108=EDGE_LOOP('',(#138,#139,#140,#141));
#109=EDGE_LOOP('',(#142));
#110=EDGE_LOOP('',(#143,#144,#145,#146));
#111=EDGE_LOOP('',(#147));
#112=EDGE_LOOP('',(#148));
#113=EDGE_LOOP('',(#149));
#114=EDGE_LOOP('',(#150));
#115=EDGE_LOOP('',(#151));
#116=EDGE_LOOP('',(#152));
#117=ORIENTED_EDGE('',*,*,#167,.F.);
#118=ORIENTED_EDGE('',*,*,#167,.T.);
#119=ORIENTED_EDGE('',*,*,#168,.F.);
#120=ORIENTED_EDGE('',*,*,#169,.T.);
#121=ORIENTED_EDGE('',*,*,#170,.T.);
#122=ORIENTED_EDGE('',*,*,#171,.F.);
#123=ORIENTED_EDGE('',*,*,#172,.T.);
#124=ORIENTED_EDGE('',*,*,#168,.T.);
#125=ORIENTED_EDGE('',*,*,#171,.T.);
#126=ORIENTED_EDGE('',*,*,#173,.F.);
#127=ORIENTED_EDGE('',*,*,#174,.T.);
#128=ORIENTED_EDGE('',*,*,#175,.F.);
#129=ORIENTED_EDGE('',*,*,#176,.F.);
#130=ORIENTED_EDGE('',*,*,#177,.F.);
#131=ORIENTED_EDGE('',*,*,#172,.F.);
#132=ORIENTED_EDGE('',*,*,#175,.T.);
#133=ORIENTED_EDGE('',*,*,#170,.F.);
#134=ORIENTED_EDGE('',*,*,#178,.F.);
#135=ORIENTED_EDGE('',*,*,#179,.F.);
#136=ORIENTED_EDGE('',*,*,#173,.T.);
#137=ORIENTED_EDGE('',*,*,#180,.F.);
#138=ORIENTED_EDGE('',*,*,#179,.T.);
#139=ORIENTED_EDGE('',*,*,#181,.T.);
#140=ORIENTED_EDGE('',*,*,#176,.T.);
#141=ORIENTED_EDGE('',*,*,#174,.F.);
#142=ORIENTED_EDGE('',*,*,#180,.T.);
#143=ORIENTED_EDGE('',*,*,#181,.F.);
#144=ORIENTED_EDGE('',*,*,#178,.T.);
#145=ORIENTED_EDGE('',*,*,#169,.F.);
#146=ORIENTED_EDGE('',*,*,#177,.T.);
#147=ORIENTED_EDGE('',*,*,#182,.T.);
#148=ORIENTED_EDGE('',*,*,#182,.F.);
#149=ORIENTED_EDGE('',*,*,#183,.F.);
#150=ORIENTED_EDGE('',*,*,#183,.T.);
#151=ORIENTED_EDGE('',*,*,#184,.F.);
#152=ORIENTED_EDGE('',*,*,#184,.T.);
#153=VERTEX_POINT('',#309);
#154=VERTEX_POINT('',#312);
#155=VERTEX_POINT('',#315);
#156=VERTEX_POINT('',#316);
#157=VERTEX_POINT('',#318);
#158=VERTEX_POINT('',#320);
#159=VERTEX_POINT('',#324);
#160=VERTEX_POINT('',#326);
#161=VERTEX_POINT('',#330);
#162=VERTEX_POINT('',#334);
#163=VERTEX_POINT('',#338);
#164=VERTEX_POINT('',#344);
#165=VERTEX_POINT('',#347);
#166=VERTEX_POINT('',#350);
#167=EDGE_CURVE('',#153,#153,#185,.T.);
#168=EDGE_CURVE('',#154,#154,#186,.T.);
#169=EDGE_CURVE('',#155,#156,#42,.T.);
#170=EDGE_CURVE('',#156,#157,#187,.T.);
#171=EDGE_CURVE('',#158,#157,#43,.T.);
#172=EDGE_CURVE('',#158,#155,#188,.T.);
#173=EDGE_CURVE('',#159,#157,#44,.T.);
#174=EDGE_CURVE('',#159,#160,#45,.T.);
#175=EDGE_CURVE('',#158,#160,#46,.T.);
#176=EDGE_CURVE('',#161,#160,#189,.T.);
#177=EDGE_CURVE('',#155,#161,#47,.T.);
#178=EDGE_CURVE('',#162,#156,#48,.T.);
#179=EDGE_CURVE('',#159,#162,#190,.T.);
#180=EDGE_CURVE('',#163,#163,#191,.T.);
#181=EDGE_CURVE('',#162,#161,#49,.T.);
#182=EDGE_CURVE('',#164,#164,#192,.T.);
#183=EDGE_CURVE('',#165,#165,#193,.T.);
#184=EDGE_CURVE('',#166,#166,#194,.T.);
#185=CIRCLE('',#219,30.99999989092);
#186=CIRCLE('',#221,31.5);
#187=CIRCLE('',#223,31.5);
#188=CIRCLE('',#224,31.5);
#189=CIRCLE('',#227,18.);
#190=CIRCLE('',#229,18.);
#191=CIRCLE('',#231,18.);
#192=CIRCLE('',#235,16.);
#193=CIRCLE('',#237,17.);
#194=CIRCLE('',#239,17.);
#195=PRESENTATION_LAYER_ASSIGNMENT('1','Layer 1',(#216,#217,#218,#36));
#196=PRESENTATION_LAYER_ASSIGNMENT('2','Layer 2',(#35));
#197=STYLED_ITEM('',(#202),#216);
#198=STYLED_ITEM('',(#203),#217);
#199=STYLED_ITEM('',(#204),#218);
#200=STYLED_ITEM('',(#205),#35);
#201=STYLED_ITEM('',(#206),#36);
#202=PRESENTATION_STYLE_ASSIGNMENT((#207));
#203=PRESENTATION_STYLE_ASSIGNMENT((#208));
#204=PRESENTATION_STYLE_ASSIGNMENT((#209));
#205=PRESENTATION_STYLE_ASSIGNMENT((#25));
#206=PRESENTATION_STYLE_ASSIGNMENT((#26));
#207=CURVE_STYLE('',#212,POSITIVE_LENGTH_MEASURE(0.18),#210);
#208=CURVE_STYLE('',#213,POSITIVE_LENGTH_MEASURE(0.18),#210);
#209=CURVE_STYLE('',#214,POSITIVE_LENGTH_MEASURE(0.18),#210);
#210=COLOUR_RGB('Strong Stone',0.576470588235294,0.54508278019379,0.392156862745098);
#211=COLOUR_RGB('Medium Gray',0.490196078431373,0.490196078431373,0.490196078431373);
#212=DRAUGHTING_PRE_DEFINED_CURVE_FONT('continuous');
#213=DRAUGHTING_PRE_DEFINED_CURVE_FONT('continuous');
#214=DRAUGHTING_PRE_DEFINED_CURVE_FONT('continuous');
#215=AXIS2_PLACEMENT_3D('',#304,#242,#243);
#216=AXIS2_PLACEMENT_3D('PCS',#305,#244,#245);
#217=AXIS2_PLACEMENT_3D('MCS',#306,#246,#247);
#218=AXIS2_PLACEMENT_3D('CSW',#307,#248,#249);
#219=AXIS2_PLACEMENT_3D('',#308,#250,#251);
#220=AXIS2_PLACEMENT_3D('',#310,#252,#253);
#221=AXIS2_PLACEMENT_3D('',#311,#254,#255);
#222=AXIS2_PLACEMENT_3D('',#313,#256,#257);
#223=AXIS2_PLACEMENT_3D('',#317,#259,#260);
#224=AXIS2_PLACEMENT_3D('',#321,#262,#263);
#225=AXIS2_PLACEMENT_3D('',#322,#264,#265);
#226=AXIS2_PLACEMENT_3D('',#328,#269,#270);
#227=AXIS2_PLACEMENT_3D('',#329,#271,#272);
#228=AXIS2_PLACEMENT_3D('',#332,#274,#275);
#229=AXIS2_PLACEMENT_3D('',#335,#277,#278);
#230=AXIS2_PLACEMENT_3D('',#336,#279,#280);
#231=AXIS2_PLACEMENT_3D('',#337,#281,#282);
#232=AXIS2_PLACEMENT_3D('',#340,#284,#285);
#233=AXIS2_PLACEMENT_3D('',#341,#286,#287);
#234=AXIS2_PLACEMENT_3D('',#342,#288,#289);
#235=AXIS2_PLACEMENT_3D('',#343,#290,#291);
#236=AXIS2_PLACEMENT_3D('',#345,#292,#293);
#237=AXIS2_PLACEMENT_3D('',#346,#294,#295);
#238=AXIS2_PLACEMENT_3D('',#348,#296,#297);
#239=AXIS2_PLACEMENT_3D('',#349,#298,#299);
#240=AXIS2_PLACEMENT_3D('',#351,#300,#301);
#241=AXIS2_PLACEMENT_3D('',#352,#302,#303);
#242=DIRECTION('',(0.,0.,1.));
#243=DIRECTION('',(1.,0.,0.));
#244=DIRECTION('',(0.,0.,1.));
#245=DIRECTION('',(1.,0.,0.));
#246=DIRECTION('',(0.,0.,1.));
#247=DIRECTION('',(1.,0.,0.));
#248=DIRECTION('',(0.,0.,1.));
#249=DIRECTION('',(1.17145536458252E-15,-1.,0.));
#250=DIRECTION('',(0.,0.,-1.));
#251=DIRECTION('',(0.,1.,0.));
#252=DIRECTION('',(0.,0.,-1.));
#253=DIRECTION('',(0.,1.,0.));
#254=DIRECTION('',(0.,0.,-1.));
#255=DIRECTION('',(0.,-1.,0.));
#256=DIRECTION('',(0.,0.,-1.));
#257=DIRECTION('',(1.,0.,-7.88510676337187E-17));
#258=DIRECTION('',(0.,0.,1.));
#259=DIRECTION('',(0.,0.,1.));
#260=DIRECTION('',(0.,1.,0.));
#261=DIRECTION('',(0.,0.,1.));
#262=DIRECTION('',(0.,0.,1.));
#263=DIRECTION('',(-0.282539682539696,0.959255611289487,0.));
#264=DIRECTION('',(0.,0.,1.));
#265=DIRECTION('',(-1.,0.,0.));
#266=DIRECTION('',(0.,1.,0.));
#267=DIRECTION('',(0.,0.,-1.));
#268=DIRECTION('',(0.,-1.,0.));
#269=DIRECTION('',(-1.,0.,0.));
#270=DIRECTION('',(0.,0.,-1.));
#271=DIRECTION('',(0.,0.,-1.));
#272=DIRECTION('',(-1.,0.,0.));
#273=DIRECTION('',(0.,-1.,0.));
#274=DIRECTION('',(0.,0.,1.));
#275=DIRECTION('',(0.,-1.,0.));
#276=DIRECTION('',(0.,1.,0.));
#277=DIRECTION('',(0.,0.,-1.));
#278=DIRECTION('',(-0.494444444444391,0.869209233359884,0.));
#279=DIRECTION('',(0.,0.,1.));
#280=DIRECTION('',(-1.,0.,0.));
#281=DIRECTION('',(0.,0.,-1.));
#282=DIRECTION('',(-1.,0.,0.));
#283=DIRECTION('',(0.,0.,-1.));
#284=DIRECTION('',(0.,0.,-1.));
#285=DIRECTION('',(1.,0.,0.));
#286=DIRECTION('',(0.,0.,-1.));
#287=DIRECTION('',(1.,0.,0.));
#288=DIRECTION('',(1.,0.,0.));
#289=DIRECTION('',(0.,0.,1.));
#290=DIRECTION('',(0.,0.,1.));
#291=DIRECTION('',(-1.,0.,0.));
#292=DIRECTION('',(0.,0.,-1.));
#293=DIRECTION('',(0.,1.,0.));
#294=DIRECTION('',(0.,0.,-1.));
#295=DIRECTION('',(-1.,0.,0.));
#296=DIRECTION('',(0.,0.,-1.));
#297=DIRECTION('',(-1.,0.,3.41145226347455E-17));
#298=DIRECTION('',(0.,0.,-1.));
#299=DIRECTION('',(0.,1.,0.));
#300=DIRECTION('',(0.,0.,-1.));
#301=DIRECTION('',(1.,0.,0.));
#302=DIRECTION('',(0.,0.,1.));
#303=DIRECTION('',(1.,0.,0.));
#304=CARTESIAN_POINT('',(0.,0.,0.));
#305=CARTESIAN_POINT('',(0.,0.,0.));
#306=CARTESIAN_POINT('',(0.,0.,0.));
#307=CARTESIAN_POINT('',(0.,0.,-60.));
#308=CARTESIAN_POINT('',(-5.684341886081E-14,1.403322031794E-13,-1.080336389236E-7));
#309=CARTESIAN_POINT('',(-5.684341886081E-14,30.9999998909201,-1.080336389236E-7));
#310=CARTESIAN_POINT('',(0.,0.,0.));
#311=CARTESIAN_POINT('',(0.,0.,-0.5000000010636));
#312=CARTESIAN_POINT('',(0.,-31.5,-0.5000000010636));
#313=CARTESIAN_POINT('',(2.335909243811E-13,-2.007283098817E-13,-0.2500001096252));
#314=CARTESIAN_POINT('',(8.,30.46719547316,-60.));
#315=CARTESIAN_POINT('',(8.,30.46719547316,-60.));
#316=CARTESIAN_POINT('',(8.,30.46719547316,-51.));
#317=CARTESIAN_POINT('',(0.,0.,-51.));
#318=CARTESIAN_POINT('',(-8.9,30.21655175562,-51.));
#319=CARTESIAN_POINT('',(-8.9,30.21655175562,-60.));
#320=CARTESIAN_POINT('',(-8.9,30.21655175562,-60.));
#321=CARTESIAN_POINT('',(0.,0.,-60.));
#322=CARTESIAN_POINT('',(0.,0.,-62.05));
#323=CARTESIAN_POINT('',(-8.9,15.64576620048,-51.));
#324=CARTESIAN_POINT('',(-8.9,15.64576620048,-51.));
#325=CARTESIAN_POINT('',(-8.9,15.64576620048,-51.));
#326=CARTESIAN_POINT('',(-8.9,15.64576620048,-60.));
#327=CARTESIAN_POINT('',(-8.9,30.21655175562,-60.));
#328=CARTESIAN_POINT('',(-8.9,0.,-60.));
#329=CARTESIAN_POINT('',(0.,0.,-60.));
#330=CARTESIAN_POINT('',(8.,16.1245154966,-60.));
#331=CARTESIAN_POINT('',(8.,30.46719547316,-60.));
#332=CARTESIAN_POINT('',(0.,0.,-60.));
#333=CARTESIAN_POINT('',(8.,16.1245154966,-51.));
#334=CARTESIAN_POINT('',(8.,16.1245154966,-51.));
#335=CARTESIAN_POINT('',(0.,0.,-51.));
#336=CARTESIAN_POINT('',(-8.9,0.,-51.));
#337=CARTESIAN_POINT('',(0.,0.,-18.));
#338=CARTESIAN_POINT('',(-18.,0.,-18.));
#339=CARTESIAN_POINT('',(8.,16.1245154966,-51.));
#340=CARTESIAN_POINT('',(0.,0.,-60.));
#341=CARTESIAN_POINT('',(0.,0.,-18.));
#342=CARTESIAN_POINT('',(8.,0.,-51.));
#343=CARTESIAN_POINT('',(0.,0.,38.));
#344=CARTESIAN_POINT('',(-16.,0.,38.));
#345=CARTESIAN_POINT('',(0.,0.,38.));
#346=CARTESIAN_POINT('',(0.,0.,37.));
#347=CARTESIAN_POINT('',(-17.,0.,37.));
#348=CARTESIAN_POINT('',(0.,0.,37.));
#349=CARTESIAN_POINT('',(0.,0.,-4.973799150321E-14));
#350=CARTESIAN_POINT('',(0.,17.,-4.973799150321E-14));
#351=CARTESIAN_POINT('',(0.,0.,39.9));
#352=CARTESIAN_POINT('',(0.,0.,0.));
#353=MECHANICAL_DESIGN_GEOMETRIC_PRESENTATION_REPRESENTATION('',(#197,#198,
#199,#200,#201),#354);
#354=(
GEOMETRIC_REPRESENTATION_CONTEXT(3)
GLOBAL_UNCERTAINTY_ASSIGNED_CONTEXT((#355))
GLOBAL_UNIT_ASSIGNED_CONTEXT((#361,#357,#356))
REPRESENTATION_CONTEXT('BMA6004013660','TOP_LEVEL_ASSEMBLY_PART')
);
#355=UNCERTAINTY_MEASURE_WITH_UNIT(LENGTH_MEASURE(2.E-5),#361,
'DISTANCE_ACCURACY_VALUE','Maximum Tolerance applied to model');
#356=(
NAMED_UNIT(*)
SI_UNIT($,.STERADIAN.)
SOLID_ANGLE_UNIT()
);
#357=(
CONVERSION_BASED_UNIT('DEGREE',#359)
NAMED_UNIT(#358)
PLANE_ANGLE_UNIT()
);
#358=DIMENSIONAL_EXPONENTS(0.,0.,0.,0.,0.,0.,0.);
#359=PLANE_ANGLE_MEASURE_WITH_UNIT(PLANE_ANGLE_MEASURE(0.0174532925),#360);
#360=(
NAMED_UNIT(*)
PLANE_ANGLE_UNIT()
SI_UNIT($,.RADIAN.)
);
#361=(
LENGTH_UNIT()
NAMED_UNIT(*)
SI_UNIT(.MILLI.,.METRE.)
);
ENDSEC;
END-ISO-10303-21;
