ISO-10303-21;
HEADER;
/* Generated by software containing ST-Developer
 * from STEP Tools, Inc. (www.steptools.com) 
 */
/* OPTION: using custom schema-name function */

FILE_DESCRIPTION(
/* description */ (''),
/* implementation_level */ '2;1');

FILE_NAME(
/* name */ 'BE025582012005.stp',
/* time_stamp */ '2015-10-28T15:18:06+06:00',
/* author */ (''),
/* organization */ (''),
/* preprocessor_version */ 'ST-DEVELOPER v15',
/* originating_system */ 'SIEMENS PLM Software NX 8.5',
/* authorisation */ '');

FILE_SCHEMA (('AUTOMOTIVE_DESIGN { 1 0 10303 214 3 1 1 1 }'));
ENDSEC;

DATA;
#10=PROPERTY_DEFINITION_REPRESENTATION(#14,#12);
#11=PROPERTY_DEFINITION_REPRESENTATION(#15,#13);
#12=REPRESENTATION('',(#16),#553);
#13=REPRESENTATION('',(#17),#553);
#14=PROPERTY_DEFINITION('pmi validation property','',#21);
#15=PROPERTY_DEFINITION('pmi validation property','',#21);
#16=VALUE_REPRESENTATION_ITEM('number of annotations',COUNT_MEASURE(0.));
#17=VALUE_REPRESENTATION_ITEM('number of views',COUNT_MEASURE(0.));
#18=SHAPE_REPRESENTATION_RELATIONSHIP('None',
'relationship between inpu193CBB4Ax6am-None and inpu193CBB4Ax6am-None',
#30,#19);
#19=ADVANCED_BREP_SHAPE_REPRESENTATION('inpu193CBB4Ax6am-None',(#59,#60,
#61),#553);
#20=SHAPE_DEFINITION_REPRESENTATION(#21,#30);
#21=PRODUCT_DEFINITION_SHAPE('','',#22);
#22=PRODUCT_DEFINITION(' ','',#24,#23);
#23=PRODUCT_DEFINITION_CONTEXT('part definition',#29,'design');
#24=PRODUCT_DEFINITION_FORMATION_WITH_SPECIFIED_SOURCE(' ',' ',#26,
 .NOT_KNOWN.);
#25=PRODUCT_RELATED_PRODUCT_CATEGORY('part','',(#26));
#26=PRODUCT('inpu193CBB4Ax6am','inpu193CBB4Ax6am',' ',(#27));
#27=PRODUCT_CONTEXT(' ',#29,'mechanical');
#28=APPLICATION_PROTOCOL_DEFINITION('international standard',
'automotive_design',2010,#29);
#29=APPLICATION_CONTEXT(
'core data for automotive mechanical design processes');
#30=SHAPE_REPRESENTATION('inpu193CBB4Ax6am-None',(#278),#553);
#31=FACE_OUTER_BOUND('',#173,.T.);
#32=FACE_OUTER_BOUND('',#178,.T.);
#33=TOROIDAL_SURFACE('',#304,12.3,0.8);
#34=PRESENTATION_LAYER_ASSIGNMENT('4','Layer 4',(#59));
#35=PRESENTATION_LAYER_ASSIGNMENT('1','Layer 1',(#60,#61));
#36=STYLED_ITEM('',(#39),#59);
#37=STYLED_ITEM('',(#40),#60);
#38=STYLED_ITEM('',(#41),#61);
#39=PRESENTATION_STYLE_ASSIGNMENT((#42));
#40=PRESENTATION_STYLE_ASSIGNMENT((#43));
#41=PRESENTATION_STYLE_ASSIGNMENT((#44));
#42=SURFACE_STYLE_USAGE(.BOTH.,#45);
#43=SURFACE_STYLE_USAGE(.BOTH.,#46);
#44=SURFACE_STYLE_USAGE(.BOTH.,#47);
#45=SURFACE_SIDE_STYLE('',(#48));
#46=SURFACE_SIDE_STYLE('',(#49));
#47=SURFACE_SIDE_STYLE('',(#50));
#48=SURFACE_STYLE_FILL_AREA(#51);
#49=SURFACE_STYLE_FILL_AREA(#52);
#50=SURFACE_STYLE_FILL_AREA(#53);
#51=FILL_AREA_STYLE('',(#54));
#52=FILL_AREA_STYLE('',(#55));
#53=FILL_AREA_STYLE('',(#56));
#54=FILL_AREA_STYLE_COLOUR('',#57);
#55=FILL_AREA_STYLE_COLOUR('',#58);
#56=FILL_AREA_STYLE_COLOUR('',#58);
#57=COLOUR_RGB('Iron Gray',0.301960784313725,0.301960784313725,0.301960784313725);
#58=COLOUR_RGB('Medium Gray',0.501960784313725,0.501960784313725,0.501960784313725);
#59=MANIFOLD_SOLID_BREP('',#62);
#60=MANIFOLD_SOLID_BREP('',#63);
#61=MANIFOLD_SOLID_BREP('',#64);
#62=CLOSED_SHELL('',(#78,#79,#80,#81,#82,#83));
#63=CLOSED_SHELL('',(#84,#85,#86,#87,#88,#89,#90,#91,#92));
#64=CLOSED_SHELL('',(#93,#94,#95,#96,#97));
#65=B_SPLINE_SURFACE_WITH_KNOTS('',3,1,((#462,#463),(#464,#465),(#466,#467),
(#468,#469),(#470,#471),(#472,#473),(#474,#475),(#476,#477),(#478,#479),
(#480,#481),(#482,#483),(#484,#485),(#486,#487),(#488,#489),(#490,#491),
(#492,#493),(#494,#495),(#496,#497),(#498,#499),(#500,#501),(#502,#503),
(#504,#505),(#506,#507),(#508,#509),(#510,#511)),.UNSPECIFIED.,.T.,.F.,
 .F.,(1,1,2,1,1,1,1,1,1,1,1,1,1,1,1,1,1,1,1,1,1,1,1,1,2,1,1),(2,2),(-0.125,
-0.0625,0.,0.0625,0.125,0.15625,0.1875,0.25,0.3125,0.34375,0.375,0.4375,
0.46875,0.5,0.53125,0.5625,0.625,0.65625,0.6875,0.75,0.8125,0.84375,0.875,
0.9375,1.,1.0625,1.125),(0.,1.),.UNSPECIFIED.);
#66=B_SPLINE_CURVE_WITH_KNOTS('',3,(#401,#402,#403,#404,#405,#406,#407,
#408,#409,#410,#411,#412,#413,#414),.UNSPECIFIED.,.F.,.F.,(4,1,1,1,1,1,
1,1,1,1,1,4),(0.,0.125,0.25,0.3125,0.375,0.5,0.625,0.6875,0.75,0.875,0.9375,
1.),.UNSPECIFIED.);
#67=B_SPLINE_CURVE_WITH_KNOTS('',3,(#417,#418,#419,#420,#421,#422,#423,
#424,#425,#426,#427,#428,#429,#430),.UNSPECIFIED.,.F.,.F.,(4,1,1,1,1,1,
1,1,1,1,1,4),(0.,0.0625,0.125,0.25,0.3125,0.375,0.5,0.625,0.6875,0.75,0.875,
1.),.UNSPECIFIED.);
#68=B_SPLINE_CURVE_WITH_KNOTS('',3,(#432,#433,#434,#435,#436,#437,#438,
#439,#440,#441,#442,#443,#444,#445,#446,#447,#448,#449,#450,#451,#452,#453,
#454,#455,#456,#457,#458,#459),.UNSPECIFIED.,.T.,.F.,(2,2,2,2,2,2,2,2,2,
2,2,2,2,2,2,2),(-0.0625,0.,0.125,0.1875,0.25,0.3125,0.375,0.5,0.5625,0.625,
0.6875,0.75,0.875,0.9375,1.,1.125),.UNSPECIFIED.);
#69=CONICAL_SURFACE('',#285,19.4,45.);
#70=CONICAL_SURFACE('',#314,10.77803284146,8.);
#71=CYLINDRICAL_SURFACE('',#283,16.);
#72=CYLINDRICAL_SURFACE('',#287,20.8);
#73=CYLINDRICAL_SURFACE('',#290,6.);
#74=CYLINDRICAL_SURFACE('',#293,12.5);
#75=CYLINDRICAL_SURFACE('',#297,16.);
#76=CYLINDRICAL_SURFACE('',#303,11.5);
#77=CYLINDRICAL_SURFACE('',#309,6.);
#78=ADVANCED_FACE('',(#107,#108),#98,.F.);
#79=ADVANCED_FACE('',(#109,#110),#71,.F.);
#80=ADVANCED_FACE('',(#111,#112),#69,.T.);
#81=ADVANCED_FACE('',(#113,#114),#99,.T.);
#82=ADVANCED_FACE('',(#115,#116),#72,.T.);
#83=ADVANCED_FACE('',(#117,#118),#65,.T.);
#84=ADVANCED_FACE('',(#119,#120),#73,.F.);
#85=ADVANCED_FACE('',(#121,#122),#74,.T.);
#86=ADVANCED_FACE('',(#123,#124),#100,.F.);
#87=ADVANCED_FACE('',(#125,#126),#75,.T.);
#88=ADVANCED_FACE('',(#127,#128),#101,.T.);
#89=ADVANCED_FACE('',(#129,#130),#102,.T.);
#90=ADVANCED_FACE('',(#131,#132),#76,.T.);
#91=ADVANCED_FACE('',(#133,#134),#33,.F.);
#92=ADVANCED_FACE('',(#135,#136),#103,.T.);
#93=ADVANCED_FACE('',(#31),#104,.F.);
#94=ADVANCED_FACE('',(#137,#138),#77,.F.);
#95=ADVANCED_FACE('',(#139,#140),#105,.F.);
#96=ADVANCED_FACE('',(#32),#106,.F.);
#97=ADVANCED_FACE('',(#141,#142),#70,.T.);
#98=PLANE('',#281);
#99=PLANE('',#286);
#100=PLANE('',#295);
#101=PLANE('',#299);
#102=PLANE('',#301);
#103=PLANE('',#305);
#104=PLANE('',#307);
#105=PLANE('',#311);
#106=PLANE('',#313);
#107=FACE_BOUND('',#143,.T.);
#108=FACE_BOUND('',#144,.T.);
#109=FACE_BOUND('',#145,.T.);
#110=FACE_BOUND('',#146,.T.);
#111=FACE_BOUND('',#147,.T.);
#112=FACE_BOUND('',#148,.T.);
#113=FACE_BOUND('',#149,.T.);
#114=FACE_BOUND('',#150,.T.);
#115=FACE_BOUND('',#151,.T.);
#116=FACE_BOUND('',#152,.T.);
#117=FACE_BOUND('',#153,.T.);
#118=FACE_BOUND('',#154,.T.);
#119=FACE_BOUND('',#155,.T.);
#120=FACE_BOUND('',#156,.T.);
#121=FACE_BOUND('',#157,.T.);
#122=FACE_BOUND('',#158,.T.);
#123=FACE_BOUND('',#159,.T.);
#124=FACE_BOUND('',#160,.T.);
#125=FACE_BOUND('',#161,.T.);
#126=FACE_BOUND('',#162,.T.);
#127=FACE_BOUND('',#163,.T.);
#128=FACE_BOUND('',#164,.T.);
#129=FACE_BOUND('',#165,.T.);
#130=FACE_BOUND('',#166,.T.);
#131=FACE_BOUND('',#167,.T.);
#132=FACE_BOUND('',#168,.T.);
#133=FACE_BOUND('',#169,.T.);
#134=FACE_BOUND('',#170,.T.);
#135=FACE_BOUND('',#171,.T.);
#136=FACE_BOUND('',#172,.T.);
#137=FACE_BOUND('',#174,.T.);
#138=FACE_BOUND('',#175,.T.);
#139=FACE_BOUND('',#176,.T.);
#140=FACE_BOUND('',#177,.T.);
#141=FACE_BOUND('',#179,.T.);
#142=FACE_BOUND('',#180,.T.);
#143=EDGE_LOOP('',(#181));
#144=EDGE_LOOP('',(#182));
#145=EDGE_LOOP('',(#183));
#146=EDGE_LOOP('',(#184));
#147=EDGE_LOOP('',(#185));
#148=EDGE_LOOP('',(#186));
#149=EDGE_LOOP('',(#187));
#150=EDGE_LOOP('',(#188,#189));
#151=EDGE_LOOP('',(#190));
#152=EDGE_LOOP('',(#191));
#153=EDGE_LOOP('',(#192));
#154=EDGE_LOOP('',(#193,#194));
#155=EDGE_LOOP('',(#195));
#156=EDGE_LOOP('',(#196));
#157=EDGE_LOOP('',(#197));
#158=EDGE_LOOP('',(#198));
#159=EDGE_LOOP('',(#199));
#160=EDGE_LOOP('',(#200));
#161=EDGE_LOOP('',(#201));
#162=EDGE_LOOP('',(#202));
#163=EDGE_LOOP('',(#203));
#164=EDGE_LOOP('',(#204));
#165=EDGE_LOOP('',(#205));
#166=EDGE_LOOP('',(#206));
#167=EDGE_LOOP('',(#207));
#168=EDGE_LOOP('',(#208));
#169=EDGE_LOOP('',(#209));
#170=EDGE_LOOP('',(#210));
#171=EDGE_LOOP('',(#211));
#172=EDGE_LOOP('',(#212));
#173=EDGE_LOOP('',(#213));
#174=EDGE_LOOP('',(#214));
#175=EDGE_LOOP('',(#215));
#176=EDGE_LOOP('',(#216));
#177=EDGE_LOOP('',(#217));
#178=EDGE_LOOP('',(#218));
#179=EDGE_LOOP('',(#219));
#180=EDGE_LOOP('',(#220));
#181=ORIENTED_EDGE('',*,*,#241,.F.);
#182=ORIENTED_EDGE('',*,*,#242,.T.);
#183=ORIENTED_EDGE('',*,*,#242,.F.);
#184=ORIENTED_EDGE('',*,*,#243,.T.);
#185=ORIENTED_EDGE('',*,*,#244,.F.);
#186=ORIENTED_EDGE('',*,*,#241,.T.);
#187=ORIENTED_EDGE('',*,*,#243,.F.);
#188=ORIENTED_EDGE('',*,*,#245,.F.);
#189=ORIENTED_EDGE('',*,*,#246,.F.);
#190=ORIENTED_EDGE('',*,*,#244,.T.);
#191=ORIENTED_EDGE('',*,*,#247,.F.);
#192=ORIENTED_EDGE('',*,*,#247,.T.);
#193=ORIENTED_EDGE('',*,*,#246,.T.);
#194=ORIENTED_EDGE('',*,*,#245,.T.);
#195=ORIENTED_EDGE('',*,*,#248,.T.);
#196=ORIENTED_EDGE('',*,*,#249,.F.);
#197=ORIENTED_EDGE('',*,*,#250,.T.);
#198=ORIENTED_EDGE('',*,*,#251,.T.);
#199=ORIENTED_EDGE('',*,*,#252,.F.);
#200=ORIENTED_EDGE('',*,*,#251,.F.);
#201=ORIENTED_EDGE('',*,*,#253,.F.);
#202=ORIENTED_EDGE('',*,*,#252,.T.);
#203=ORIENTED_EDGE('',*,*,#254,.F.);
#204=ORIENTED_EDGE('',*,*,#253,.T.);
#205=ORIENTED_EDGE('',*,*,#248,.F.);
#206=ORIENTED_EDGE('',*,*,#255,.T.);
#207=ORIENTED_EDGE('',*,*,#255,.F.);
#208=ORIENTED_EDGE('',*,*,#256,.T.);
#209=ORIENTED_EDGE('',*,*,#256,.F.);
#210=ORIENTED_EDGE('',*,*,#254,.T.);
#211=ORIENTED_EDGE('',*,*,#250,.F.);
#212=ORIENTED_EDGE('',*,*,#249,.T.);
#213=ORIENTED_EDGE('',*,*,#257,.T.);
#214=ORIENTED_EDGE('',*,*,#258,.F.);
#215=ORIENTED_EDGE('',*,*,#257,.F.);
#216=ORIENTED_EDGE('',*,*,#259,.T.);
#217=ORIENTED_EDGE('',*,*,#258,.T.);
#218=ORIENTED_EDGE('',*,*,#260,.T.);
#219=ORIENTED_EDGE('',*,*,#260,.F.);
#220=ORIENTED_EDGE('',*,*,#259,.F.);
#221=VERTEX_POINT('',#391);
#222=VERTEX_POINT('',#393);
#223=VERTEX_POINT('',#396);
#224=VERTEX_POINT('',#399);
#225=VERTEX_POINT('',#415);
#226=VERTEX_POINT('',#416);
#227=VERTEX_POINT('',#460);
#228=VERTEX_POINT('',#513);
#229=VERTEX_POINT('',#515);
#230=VERTEX_POINT('',#518);
#231=VERTEX_POINT('',#520);
#232=VERTEX_POINT('',#523);
#233=VERTEX_POINT('',#526);
#234=VERTEX_POINT('',#529);
#235=VERTEX_POINT('',#532);
#236=VERTEX_POINT('',#535);
#237=VERTEX_POINT('',#540);
#238=VERTEX_POINT('',#543);
#239=VERTEX_POINT('',#546);
#240=VERTEX_POINT('',#549);
#241=EDGE_CURVE('',#221,#221,#261,.T.);
#242=EDGE_CURVE('',#222,#222,#262,.T.);
#243=EDGE_CURVE('',#223,#223,#263,.T.);
#244=EDGE_CURVE('',#224,#224,#264,.T.);
#245=EDGE_CURVE('',#225,#226,#66,.T.);
#246=EDGE_CURVE('',#226,#225,#67,.T.);
#247=EDGE_CURVE('',#227,#227,#68,.T.);
#248=EDGE_CURVE('',#228,#228,#265,.T.);
#249=EDGE_CURVE('',#229,#229,#266,.T.);
#250=EDGE_CURVE('',#230,#230,#267,.T.);
#251=EDGE_CURVE('',#231,#231,#268,.T.);
#252=EDGE_CURVE('',#232,#232,#269,.T.);
#253=EDGE_CURVE('',#233,#233,#270,.T.);
#254=EDGE_CURVE('',#234,#234,#271,.T.);
#255=EDGE_CURVE('',#235,#235,#272,.T.);
#256=EDGE_CURVE('',#236,#236,#273,.T.);
#257=EDGE_CURVE('',#237,#237,#274,.T.);
#258=EDGE_CURVE('',#238,#238,#275,.T.);
#259=EDGE_CURVE('',#239,#239,#276,.T.);
#260=EDGE_CURVE('',#240,#240,#277,.T.);
#261=CIRCLE('',#279,18.);
#262=CIRCLE('',#280,16.);
#263=CIRCLE('',#282,16.);
#264=CIRCLE('',#284,20.8);
#265=CIRCLE('',#288,6.);
#266=CIRCLE('',#289,6.);
#267=CIRCLE('',#291,12.5);
#268=CIRCLE('',#292,12.5);
#269=CIRCLE('',#294,16.);
#270=CIRCLE('',#296,16.);
#271=CIRCLE('',#298,12.3);
#272=CIRCLE('',#300,11.5);
#273=CIRCLE('',#302,11.5);
#274=CIRCLE('',#306,6.);
#275=CIRCLE('',#308,6.);
#276=CIRCLE('',#310,12.5);
#277=CIRCLE('',#312,8.98647913243944);
#278=AXIS2_PLACEMENT_3D('',#389,#315,#316);
#279=AXIS2_PLACEMENT_3D('',#390,#317,#318);
#280=AXIS2_PLACEMENT_3D('',#392,#319,#320);
#281=AXIS2_PLACEMENT_3D('',#394,#321,#322);
#282=AXIS2_PLACEMENT_3D('',#395,#323,#324);
#283=AXIS2_PLACEMENT_3D('',#397,#325,#326);
#284=AXIS2_PLACEMENT_3D('',#398,#327,#328);
#285=AXIS2_PLACEMENT_3D('',#400,#329,#330);
#286=AXIS2_PLACEMENT_3D('',#431,#331,#332);
#287=AXIS2_PLACEMENT_3D('',#461,#333,#334);
#288=AXIS2_PLACEMENT_3D('',#512,#335,#336);
#289=AXIS2_PLACEMENT_3D('',#514,#337,#338);
#290=AXIS2_PLACEMENT_3D('',#516,#339,#340);
#291=AXIS2_PLACEMENT_3D('',#517,#341,#342);
#292=AXIS2_PLACEMENT_3D('',#519,#343,#344);
#293=AXIS2_PLACEMENT_3D('',#521,#345,#346);
#294=AXIS2_PLACEMENT_3D('',#522,#347,#348);
#295=AXIS2_PLACEMENT_3D('',#524,#349,#350);
#296=AXIS2_PLACEMENT_3D('',#525,#351,#352);
#297=AXIS2_PLACEMENT_3D('',#527,#353,#354);
#298=AXIS2_PLACEMENT_3D('',#528,#355,#356);
#299=AXIS2_PLACEMENT_3D('',#530,#357,#358);
#300=AXIS2_PLACEMENT_3D('',#531,#359,#360);
#301=AXIS2_PLACEMENT_3D('',#533,#361,#362);
#302=AXIS2_PLACEMENT_3D('',#534,#363,#364);
#303=AXIS2_PLACEMENT_3D('',#536,#365,#366);
#304=AXIS2_PLACEMENT_3D('',#537,#367,#368);
#305=AXIS2_PLACEMENT_3D('',#538,#369,#370);
#306=AXIS2_PLACEMENT_3D('',#539,#371,#372);
#307=AXIS2_PLACEMENT_3D('',#541,#373,#374);
#308=AXIS2_PLACEMENT_3D('',#542,#375,#376);
#309=AXIS2_PLACEMENT_3D('',#544,#377,#378);
#310=AXIS2_PLACEMENT_3D('',#545,#379,#380);
#311=AXIS2_PLACEMENT_3D('',#547,#381,#382);
#312=AXIS2_PLACEMENT_3D('',#548,#383,#384);
#313=AXIS2_PLACEMENT_3D('',#550,#385,#386);
#314=AXIS2_PLACEMENT_3D('',#551,#387,#388);
#315=DIRECTION('',(0.,0.,1.));
#316=DIRECTION('',(1.,0.,0.));
#317=DIRECTION('',(0.,0.,1.));
#318=DIRECTION('',(0.,1.,0.));
#319=DIRECTION('',(0.,0.,1.));
#320=DIRECTION('',(1.,0.,0.));
#321=DIRECTION('',(0.,0.,1.));
#322=DIRECTION('',(0.,-1.,0.));
#323=DIRECTION('',(0.,0.,1.));
#324=DIRECTION('',(1.,0.,0.));
#325=DIRECTION('',(0.,0.,1.));
#326=DIRECTION('',(0.,-1.,0.));
#327=DIRECTION('',(0.,0.,1.));
#328=DIRECTION('',(-0.108373112435603,0.994110289908026,0.));
#329=DIRECTION('',(0.,0.,1.));
#330=DIRECTION('',(0.,-1.,3.40342059245989E-018));
#331=DIRECTION('',(0.,0.,1.));
#332=DIRECTION('',(0.,-1.,0.));
#333=DIRECTION('',(0.,0.,1.));
#334=DIRECTION('',(0.,-1.,0.));
#335=DIRECTION('',(0.,0.,-1.));
#336=DIRECTION('',(-1.,0.,0.));
#337=DIRECTION('',(0.,0.,-1.));
#338=DIRECTION('',(1.,0.,0.));
#339=DIRECTION('',(0.,0.,1.));
#340=DIRECTION('',(0.,-1.,0.));
#341=DIRECTION('',(0.,0.,-1.));
#342=DIRECTION('',(1.,0.,0.));
#343=DIRECTION('',(0.,0.,1.));
#344=DIRECTION('',(0.,1.,0.));
#345=DIRECTION('',(0.,0.,-1.));
#346=DIRECTION('',(0.,1.,0.));
#347=DIRECTION('',(0.,0.,-1.));
#348=DIRECTION('',(-1.,0.,0.));
#349=DIRECTION('',(0.,0.,-1.));
#350=DIRECTION('',(0.,1.,0.));
#351=DIRECTION('',(0.,0.,-1.));
#352=DIRECTION('',(-1.,0.,0.));
#353=DIRECTION('',(0.,0.,-1.));
#354=DIRECTION('',(0.,1.,0.));
#355=DIRECTION('',(0.,0.,-1.));
#356=DIRECTION('',(0.,1.,0.));
#357=DIRECTION('',(0.,0.,-1.));
#358=DIRECTION('',(0.,1.,0.));
#359=DIRECTION('',(0.,0.,-1.));
#360=DIRECTION('',(-1.,0.,0.));
#361=DIRECTION('',(0.,0.,-1.));
#362=DIRECTION('',(0.,1.,0.));
#363=DIRECTION('',(0.,0.,-1.));
#364=DIRECTION('',(0.,1.,0.));
#365=DIRECTION('',(0.,0.,-1.));
#366=DIRECTION('',(0.,1.,0.));
#367=DIRECTION('',(0.,0.,-1.));
#368=DIRECTION('',(0.000133711303949306,-0.999999991060644,0.));
#369=DIRECTION('',(0.,0.,1.));
#370=DIRECTION('',(-1.,0.,0.));
#371=DIRECTION('',(0.,0.,-1.));
#372=DIRECTION('',(1.,0.,0.));
#373=DIRECTION('',(0.,0.,1.));
#374=DIRECTION('',(1.,0.,0.));
#375=DIRECTION('',(0.,0.,1.));
#376=DIRECTION('',(1.,0.,0.));
#377=DIRECTION('',(0.,0.,1.));
#378=DIRECTION('',(0.,-1.,0.));
#379=DIRECTION('',(0.,0.,-1.));
#380=DIRECTION('',(1.,0.,0.));
#381=DIRECTION('',(0.,0.,1.));
#382=DIRECTION('',(-1.,0.,0.));
#383=DIRECTION('',(0.,0.,1.));
#384=DIRECTION('',(-1.,0.,0.));
#385=DIRECTION('',(0.,0.,-1.));
#386=DIRECTION('',(0.,1.,0.));
#387=DIRECTION('',(0.,0.,-1.));
#388=DIRECTION('',(0.,1.,-1.26104289210432E-016));
#389=CARTESIAN_POINT('',(0.,0.,0.));
#390=CARTESIAN_POINT('',(0.,0.,-9.5));
#391=CARTESIAN_POINT('',(0.,18.,-9.5));
#392=CARTESIAN_POINT('',(0.,0.,-9.5));
#393=CARTESIAN_POINT('',(16.,0.,-9.5));
#394=CARTESIAN_POINT('',(0.,0.,-9.5));
#395=CARTESIAN_POINT('',(0.,0.,11.));
#396=CARTESIAN_POINT('',(16.,0.,11.));
#397=CARTESIAN_POINT('',(0.,0.,-9.885));
#398=CARTESIAN_POINT('',(0.,0.,-6.7));
#399=CARTESIAN_POINT('',(-2.25416073866054,20.677494030087,-6.7));
#400=CARTESIAN_POINT('',(0.,0.,-8.1));
#401=CARTESIAN_POINT('',(-1.0842021724855E-015,-19.3,11.));
#402=CARTESIAN_POINT('',(-2.4125,-19.3,11.));
#403=CARTESIAN_POINT('',(-7.50204943848289,-18.3595467260479,11.));
#404=CARTESIAN_POINT('',(-13.0240601125659,-14.6437202074514,11.));
#405=CARTESIAN_POINT('',(-16.1846129548906,-10.7241477946274,11.));
#406=CARTESIAN_POINT('',(-18.4755732721093,-6.46642482729993,11.));
#407=CARTESIAN_POINT('',(-19.8496178185938,-3.5527136788005E-015,11.));
#408=CARTESIAN_POINT('',(-18.4755732721093,6.46642482729993,11.));
#409=CARTESIAN_POINT('',(-16.1846129548906,10.7241477946274,11.));
#410=CARTESIAN_POINT('',(-13.0240843157936,14.6437199902915,11.));
#411=CARTESIAN_POINT('',(-8.60630151328773,17.6163827687199,11.));
#412=CARTESIAN_POINT('',(-3.68512939189778,19.0648845099131,11.));
#413=CARTESIAN_POINT('',(-1.22837646396592,19.2999965254417,11.));
#414=CARTESIAN_POINT('',(1.20346441145891E-014,19.2999965254417,11.));
#415=CARTESIAN_POINT('',(-1.0842021724855E-015,-19.3,11.));
#416=CARTESIAN_POINT('',(1.19262238973405E-014,19.2999965254417,11.));
#417=CARTESIAN_POINT('',(1.20346441145891E-014,19.2999965254417,11.));
#418=CARTESIAN_POINT('',(1.22837646396594,19.2999965254417,11.));
#419=CARTESIAN_POINT('',(3.6851293918978,19.0648845099131,11.));
#420=CARTESIAN_POINT('',(8.60630151328773,17.6163827687199,11.));
#421=CARTESIAN_POINT('',(13.0240843157936,14.6437199902915,11.));
#422=CARTESIAN_POINT('',(16.1846129548906,10.7241477946274,11.));
#423=CARTESIAN_POINT('',(18.4755732721093,6.46642482729991,11.));
#424=CARTESIAN_POINT('',(19.8496178185938,-1.50990331349021E-014,11.));
#425=CARTESIAN_POINT('',(18.4755732721093,-6.46642482729994,11.));
#426=CARTESIAN_POINT('',(16.1846129548906,-10.7241477946274,11.));
#427=CARTESIAN_POINT('',(13.0240601125659,-14.6437202074514,11.));
#428=CARTESIAN_POINT('',(7.50204943848289,-18.3595467260479,11.));
#429=CARTESIAN_POINT('',(2.4125,-19.3,11.));
#430=CARTESIAN_POINT('',(-1.0842021724855E-015,-19.3,11.));
#431=CARTESIAN_POINT('',(0.,0.,11.));
#432=CARTESIAN_POINT('',(2.74829139675594,20.8,9.49999625539771));
#433=CARTESIAN_POINT('',(-5.49658279351185,20.8,9.4999962553977));
#434=CARTESIAN_POINT('',(-10.8819800249597,18.539774444454,9.49303317209506));
#435=CARTESIAN_POINT('',(-16.6383170804783,12.7742548181166,9.50370924018526));
#436=CARTESIAN_POINT('',(-18.1794104203106,10.4691767365164,9.50978842698507));
#437=CARTESIAN_POINT('',(-20.2654610423941,5.42270352404775,9.49217947001712));
#438=CARTESIAN_POINT('',(-20.802758895774,2.72223087749345,9.50015626489005));
#439=CARTESIAN_POINT('',(-20.7972199040241,-2.76422916737182,9.49984253171746));
#440=CARTESIAN_POINT('',(-20.2526729041019,-5.46684071276129,9.49241706918417));
#441=CARTESIAN_POINT('',(-18.1624941570289,-10.4967096337441,9.5097997268979));
#442=CARTESIAN_POINT('',(-16.6133392012963,-12.805985856174,9.50379926128672));
#443=CARTESIAN_POINT('',(-10.8542407161979,-18.5539944793097,9.49270430377995));
#444=CARTESIAN_POINT('',(-5.42227165657915,-20.8018676276917,9.50007361318516));
#445=CARTESIAN_POINT('',(2.7218751530319,-20.7990643378673,9.49996312048361));
#446=CARTESIAN_POINT('',(5.44394849215878,-20.2595087063166,9.50133842290924));
#447=CARTESIAN_POINT('',(10.4849073400451,-18.1700574098506,9.49713757160791));
#448=CARTESIAN_POINT('',(12.7745205256267,-16.6430475578962,9.4965323075516));
#449=CARTESIAN_POINT('',(16.6557352037929,-12.7579736437723,9.50375094742938));
#450=CARTESIAN_POINT('',(18.1809064682132,-10.4652143956958,9.50977250968554));
#451=CARTESIAN_POINT('',(20.2632005652441,-5.42851500932682,9.49220183887821));
#452=CARTESIAN_POINT('',(20.8014074784514,-2.70223411971886,9.50007997133891));
#453=CARTESIAN_POINT('',(20.7971766125435,5.43690483970893,9.49983957777471));
#454=CARTESIAN_POINT('',(18.5467932799185,10.868095620456,9.50737305138927));
#455=CARTESIAN_POINT('',(12.7904992502749,16.6255192332321,9.49651046750101));
#456=CARTESIAN_POINT('',(10.4830270229558,18.1708730759452,9.49709722433365));
#457=CARTESIAN_POINT('',(5.44535636148003,20.2588888639683,9.50137335299404));
#458=CARTESIAN_POINT('',(2.74829139675594,20.8,9.49999625539771));
#459=CARTESIAN_POINT('',(-5.49658279351185,20.8,9.4999962553977));
#460=CARTESIAN_POINT('',(1.01915004213637E-014,20.8,9.49999625539771));
#461=CARTESIAN_POINT('',(0.,0.,-10.525));
#462=CARTESIAN_POINT('',(-2.60249766177279,-20.8199812941824,9.48001870581764));
#463=CARTESIAN_POINT('',(-2.4125,-19.3,11.));
#464=CARTESIAN_POINT('',(2.60249766177279,-20.8199812941824,9.48001870581764));
#465=CARTESIAN_POINT('',(2.4125,-19.3,11.));
#466=CARTESIAN_POINT('',(8.09287714908005,-19.8054621453877,9.48001870581764));
#467=CARTESIAN_POINT('',(7.50204943848289,-18.3595467260479,11.));
#468=CARTESIAN_POINT('',(14.0497765760585,-15.7969938236465,9.48001870581764));
#469=CARTESIAN_POINT('',(13.0240601125659,-14.6437202074514,11.));
#470=CARTESIAN_POINT('',(17.4592403613681,-11.5687334963829,9.48001870581764));
#471=CARTESIAN_POINT('',(16.1846129548906,-10.7241477946274,11.));
#472=CARTESIAN_POINT('',(19.9306264209643,-6.97569139609436,9.48001870581764));
#473=CARTESIAN_POINT('',(18.4755732721093,-6.46642482729994,11.));
#474=CARTESIAN_POINT('',(21.4128845429944,-7.89895535441873E-015,9.48001870581764));
#475=CARTESIAN_POINT('',(19.8496178185938,-1.50990331349021E-014,11.));
#476=CARTESIAN_POINT('',(19.9306264209643,6.97569139609433,9.48001870581764));
#477=CARTESIAN_POINT('',(18.4755732721093,6.46642482729991,11.));
#478=CARTESIAN_POINT('',(17.4592403613681,11.5687334963829,9.48001870581764));
#479=CARTESIAN_POINT('',(16.1846129548906,10.7241477946274,11.));
#480=CARTESIAN_POINT('',(14.0498026854237,15.7969935893841,9.48001870581764));
#481=CARTESIAN_POINT('',(13.0240843157936,14.6437199902915,11.));
#482=CARTESIAN_POINT('',(9.2840951564116,19.0037699334666,9.48001870581764));
#483=CARTESIAN_POINT('',(8.60630151328773,17.6163827687199,11.));
#484=CARTESIAN_POINT('',(3.97535362725149,20.5663491643594,9.48001870581764));
#485=CARTESIAN_POINT('',(3.6851293918978,19.0648845099131,11.));
#486=CARTESIAN_POINT('',(1.01785579179705E-014,20.9467917367956,9.48001870581764));
#487=CARTESIAN_POINT('',(1.28785870856518E-014,19.4175525332061,11.));
#488=CARTESIAN_POINT('',(-3.97535362725147,20.5663491643594,9.48001870581764));
#489=CARTESIAN_POINT('',(-3.68512939189778,19.0648845099131,11.));
#490=CARTESIAN_POINT('',(-9.28409515641159,19.0037699334666,9.48001870581764));
#491=CARTESIAN_POINT('',(-8.60630151328773,17.6163827687199,11.));
#492=CARTESIAN_POINT('',(-14.0498026854237,15.7969935893841,9.48001870581764));
#493=CARTESIAN_POINT('',(-13.0240843157936,14.6437199902915,11.));
#494=CARTESIAN_POINT('',(-17.4592403613681,11.5687334963829,9.48001870581764));
#495=CARTESIAN_POINT('',(-16.1846129548906,10.7241477946274,11.));
#496=CARTESIAN_POINT('',(-19.9306264209643,6.97569139609435,9.48001870581764));
#497=CARTESIAN_POINT('',(-18.4755732721093,6.46642482729992,11.));
#498=CARTESIAN_POINT('',(-21.4128845429945,-4.90272826264114E-015,9.48001870581764));
#499=CARTESIAN_POINT('',(-19.8496178185938,-3.5527136788005E-015,11.));
#500=CARTESIAN_POINT('',(-19.9306264209643,-6.97569139609435,9.48001870581764));
#501=CARTESIAN_POINT('',(-18.4755732721093,-6.46642482729993,11.));
#502=CARTESIAN_POINT('',(-17.4592403613681,-11.5687334963829,9.48001870581764));
#503=CARTESIAN_POINT('',(-16.1846129548906,-10.7241477946274,11.));
#504=CARTESIAN_POINT('',(-14.0497765760585,-15.7969938236465,9.48001870581764));
#505=CARTESIAN_POINT('',(-13.0240601125659,-14.6437202074514,11.));
#506=CARTESIAN_POINT('',(-8.09287714908006,-19.8054621453877,9.48001870581764));
#507=CARTESIAN_POINT('',(-7.50204943848289,-18.3595467260479,11.));
#508=CARTESIAN_POINT('',(-2.60249766177279,-20.8199812941824,9.48001870581764));
#509=CARTESIAN_POINT('',(-2.4125,-19.3,11.));
#510=CARTESIAN_POINT('',(2.60249766177279,-20.8199812941824,9.48001870581764));
#511=CARTESIAN_POINT('',(2.4125,-19.3,11.));
#512=CARTESIAN_POINT('',(0.,0.,-14.5));
#513=CARTESIAN_POINT('',(-6.,0.,-14.5));
#514=CARTESIAN_POINT('',(0.,0.,0.));
#515=CARTESIAN_POINT('',(6.,0.,0.));
#516=CARTESIAN_POINT('',(0.,0.,-15.2375));
#517=CARTESIAN_POINT('',(0.,0.,0.));
#518=CARTESIAN_POINT('',(12.5,0.,0.));
#519=CARTESIAN_POINT('',(0.,0.,-2.));
#520=CARTESIAN_POINT('',(0.,12.5,-2.));
#521=CARTESIAN_POINT('',(0.,0.,26.975));
#522=CARTESIAN_POINT('',(0.,0.,-2.));
#523=CARTESIAN_POINT('',(-16.,0.,-2.));
#524=CARTESIAN_POINT('',(0.,0.,-2.));
#525=CARTESIAN_POINT('',(0.,0.,-9.5));
#526=CARTESIAN_POINT('',(-16.,0.,-9.5));
#527=CARTESIAN_POINT('',(0.,0.,26.975));
#528=CARTESIAN_POINT('',(0.,0.,-9.5));
#529=CARTESIAN_POINT('',(0.,12.3,-9.5));
#530=CARTESIAN_POINT('',(0.,0.,-9.5));
#531=CARTESIAN_POINT('',(0.,0.,-14.5));
#532=CARTESIAN_POINT('',(-11.5,0.,-14.5));
#533=CARTESIAN_POINT('',(0.,0.,-14.5));
#534=CARTESIAN_POINT('',(0.,0.,-10.3));
#535=CARTESIAN_POINT('',(0.,11.5,-10.3));
#536=CARTESIAN_POINT('',(0.,0.,26.975));
#537=CARTESIAN_POINT('',(0.,0.,-10.3));
#538=CARTESIAN_POINT('',(0.,0.,0.));
#539=CARTESIAN_POINT('',(0.,0.,11.));
#540=CARTESIAN_POINT('',(6.,0.,11.));
#541=CARTESIAN_POINT('',(0.,0.,11.));
#542=CARTESIAN_POINT('',(0.,0.,0.));
#543=CARTESIAN_POINT('',(6.,0.,0.));
#544=CARTESIAN_POINT('',(0.,0.,-15.2375));
#545=CARTESIAN_POINT('',(0.,0.,0.));
#546=CARTESIAN_POINT('',(12.5,0.,0.));
#547=CARTESIAN_POINT('',(0.,0.,0.));
#548=CARTESIAN_POINT('',(0.,0.,25.));
#549=CARTESIAN_POINT('',(-8.98647913243944,0.,25.));
#550=CARTESIAN_POINT('',(0.,0.,25.));
#551=CARTESIAN_POINT('',(0.,0.,12.25243298281));
#552=MECHANICAL_DESIGN_GEOMETRIC_PRESENTATION_REPRESENTATION('',(#36,#37,
#38),#553);
#553=(
GEOMETRIC_REPRESENTATION_CONTEXT(3)
GLOBAL_UNCERTAINTY_ASSIGNED_CONTEXT((#554))
GLOBAL_UNIT_ASSIGNED_CONTEXT((#560,#556,#555))
REPRESENTATION_CONTEXT('BE025582012005','TOP_LEVEL_ASSEMBLY_PART')
);
#554=UNCERTAINTY_MEASURE_WITH_UNIT(LENGTH_MEASURE(0.0508),#560,
'DISTANCE_ACCURACY_VALUE','Maximum Tolerance applied to model');
#555=(
NAMED_UNIT(*)
SI_UNIT($,.STERADIAN.)
SOLID_ANGLE_UNIT()
);
#556=(
CONVERSION_BASED_UNIT('DEGREE',#558)
NAMED_UNIT(#557)
PLANE_ANGLE_UNIT()
);
#557=DIMENSIONAL_EXPONENTS(0.,0.,0.,0.,0.,0.,0.);
#558=PLANE_ANGLE_MEASURE_WITH_UNIT(PLANE_ANGLE_MEASURE(0.0174532925),#559);
#559=(
NAMED_UNIT(*)
PLANE_ANGLE_UNIT()
SI_UNIT($,.RADIAN.)
);
#560=(
LENGTH_UNIT()
NAMED_UNIT(*)
SI_UNIT(.MILLI.,.METRE.)
);
ENDSEC;
END-ISO-10303-21;
