ISO-10303-21;
HEADER;
/* Generated by software containing ST-Developer
 * from STEP Tools, Inc. (www.steptools.com) 
 */
/* OPTION: using custom schema-name function */

FILE_DESCRIPTION(
/* description */ (''),
/* implementation_level */ '2;1');

FILE_NAME(
/* name */ 'BE025582010005.stp',
/* time_stamp */ '2015-10-28T14:03:39+06:00',
/* author */ (''),
/* organization */ (''),
/* preprocessor_version */ 'ST-DEVELOPER v15',
/* originating_system */ 'SIEMENS PLM Software NX 8.5',
/* authorisation */ '');

FILE_SCHEMA (('AUTOMOTIVE_DESIGN { 1 0 10303 214 3 1 1 1 }'));
ENDSEC;

DATA;
#10=PROPERTY_DEFINITION_REPRESENTATION(#14,#12);
#11=PROPERTY_DEFINITION_REPRESENTATION(#15,#13);
#12=REPRESENTATION('',(#16),#546);
#13=REPRESENTATION('',(#17),#546);
#14=PROPERTY_DEFINITION('pmi validation property','',#21);
#15=PROPERTY_DEFINITION('pmi validation property','',#21);
#16=VALUE_REPRESENTATION_ITEM('number of annotations',COUNT_MEASURE(0.));
#17=VALUE_REPRESENTATION_ITEM('number of views',COUNT_MEASURE(0.));
#18=SHAPE_REPRESENTATION_RELATIONSHIP('None',
'relationship between inpu193CBB4Ax684-None and inpu193CBB4Ax684-None',
#30,#19);
#19=ADVANCED_BREP_SHAPE_REPRESENTATION('inpu193CBB4Ax684-None',(#60,#61,
#62),#546);
#20=SHAPE_DEFINITION_REPRESENTATION(#21,#30);
#21=PRODUCT_DEFINITION_SHAPE('','',#22);
#22=PRODUCT_DEFINITION(' ','',#24,#23);
#23=PRODUCT_DEFINITION_CONTEXT('part definition',#29,'design');
#24=PRODUCT_DEFINITION_FORMATION_WITH_SPECIFIED_SOURCE(' ',' ',#26,
 .NOT_KNOWN.);
#25=PRODUCT_RELATED_PRODUCT_CATEGORY('part','',(#26));
#26=PRODUCT('inpu193CBB4Ax684','inpu193CBB4Ax684',' ',(#27));
#27=PRODUCT_CONTEXT(' ',#29,'mechanical');
#28=APPLICATION_PROTOCOL_DEFINITION('international standard',
'automotive_design',2010,#29);
#29=APPLICATION_CONTEXT(
'core data for automotive mechanical design processes');
#30=SHAPE_REPRESENTATION('inpu193CBB4Ax684-None',(#274),#546);
#31=FACE_OUTER_BOUND('',#173,.T.);
#32=FACE_OUTER_BOUND('',#178,.T.);
#33=TOROIDAL_SURFACE('',#300,10.05,0.8);
#34=PRESENTATION_LAYER_ASSIGNMENT('4','Layer 4',(#60));
#35=PRESENTATION_LAYER_ASSIGNMENT('2','Layer 2',(#61));
#36=PRESENTATION_LAYER_ASSIGNMENT('1','Layer 1',(#62));
#37=STYLED_ITEM('',(#40),#60);
#38=STYLED_ITEM('',(#41),#61);
#39=STYLED_ITEM('',(#42),#62);
#40=PRESENTATION_STYLE_ASSIGNMENT((#43));
#41=PRESENTATION_STYLE_ASSIGNMENT((#44));
#42=PRESENTATION_STYLE_ASSIGNMENT((#45));
#43=SURFACE_STYLE_USAGE(.BOTH.,#46);
#44=SURFACE_STYLE_USAGE(.BOTH.,#47);
#45=SURFACE_STYLE_USAGE(.BOTH.,#48);
#46=SURFACE_SIDE_STYLE('',(#49));
#47=SURFACE_SIDE_STYLE('',(#50));
#48=SURFACE_SIDE_STYLE('',(#51));
#49=SURFACE_STYLE_FILL_AREA(#52);
#50=SURFACE_STYLE_FILL_AREA(#53);
#51=SURFACE_STYLE_FILL_AREA(#54);
#52=FILL_AREA_STYLE('',(#55));
#53=FILL_AREA_STYLE('',(#56));
#54=FILL_AREA_STYLE('',(#57));
#55=FILL_AREA_STYLE_COLOUR('',#58);
#56=FILL_AREA_STYLE_COLOUR('',#59);
#57=FILL_AREA_STYLE_COLOUR('',#59);
#58=COLOUR_RGB('Iron Gray',0.301960784313725,0.301960784313725,0.301960784313725);
#59=COLOUR_RGB('Medium Gray',0.501960784313725,0.501960784313725,0.501960784313725);
#60=MANIFOLD_SOLID_BREP('',#63);
#61=MANIFOLD_SOLID_BREP('',#64);
#62=MANIFOLD_SOLID_BREP('',#65);
#63=CLOSED_SHELL('',(#78,#79,#80,#81,#82,#83));
#64=CLOSED_SHELL('',(#84,#85,#86,#87,#88,#89,#90,#91,#92));
#65=CLOSED_SHELL('',(#93,#94,#95,#96,#97));
#66=CONICAL_SURFACE('',#283,19.4,45.);
#67=CONICAL_SURFACE('',#310,10.77803284146,8.);
#68=B_SPLINE_SURFACE_WITH_KNOTS('',3,1,((#450,#451),(#452,#453),(#454,#455),
(#456,#457),(#458,#459),(#460,#461),(#462,#463),(#464,#465),(#466,#467),
(#468,#469),(#470,#471),(#472,#473),(#474,#475),(#476,#477),(#478,#479),
(#480,#481),(#482,#483),(#484,#485),(#486,#487),(#488,#489),(#490,#491),
(#492,#493),(#494,#495),(#496,#497),(#498,#499)),.UNSPECIFIED.,.T.,.F.,
 .F.,(1,1,2,1,1,1,1,1,1,1,1,1,1,1,1,1,1,1,1,1,1,1,1,1,2,1,1),(2,2),(-0.125,
-0.0625,0.,0.0625,0.125,0.15625,0.1875,0.25,0.3125,0.34375,0.375,0.4375,
0.46875,0.5,0.53125,0.5625,0.625,0.65625,0.6875,0.75,0.8125,0.84375,0.875,
0.9375,1.,1.0625,1.125),(0.,1.),.UNSPECIFIED.);
#69=B_SPLINE_CURVE_WITH_KNOTS('',3,(#394,#395,#396,#397,#398,#399,#400,
#401,#402,#403,#404,#405,#406,#407,#408,#409,#410,#411,#412,#413,#414,#415,
#416,#417,#418,#419),.UNSPECIFIED.,.T.,.F.,(1,1,2,1,1,1,1,1,1,1,1,1,1,2,
1,1,1,1,1,1,1,1,1,1,2,1,1),(-0.0625,-0.03125,0.,0.03125,0.0625,0.125,0.15625,
0.1875,0.25,0.3125,0.34375,0.375,0.4375,0.5,0.5625,0.625,0.65625,0.6875,
0.75,0.8125,0.84375,0.875,0.9375,0.96875,1.,1.03125,1.0625),
 .UNSPECIFIED.);
#70=B_SPLINE_CURVE_WITH_KNOTS('',3,(#421,#422,#423,#424,#425,#426,#427,
#428,#429,#430,#431,#432,#433,#434,#435,#436,#437,#438,#439,#440,#441,#442,
#443,#444,#445,#446,#447,#448),.UNSPECIFIED.,.T.,.F.,(2,2,2,2,2,2,2,2,2,
2,2,2,2,2,2,2),(-0.0624999999999999,0.,0.125,0.1875,0.25,0.3125,0.375,0.5,
0.5625,0.625,0.6875,0.75,0.875,0.9375,1.,1.125),.UNSPECIFIED.);
#71=CYLINDRICAL_SURFACE('',#279,16.);
#72=CYLINDRICAL_SURFACE('',#281,20.8);
#73=CYLINDRICAL_SURFACE('',#286,5.);
#74=CYLINDRICAL_SURFACE('',#289,16.);
#75=CYLINDRICAL_SURFACE('',#292,12.5);
#76=CYLINDRICAL_SURFACE('',#299,9.25);
#77=CYLINDRICAL_SURFACE('',#305,5.);
#78=ADVANCED_FACE('',(#107,#108),#98,.F.);
#79=ADVANCED_FACE('',(#109,#110),#71,.F.);
#80=ADVANCED_FACE('',(#111,#112),#68,.F.);
#81=ADVANCED_FACE('',(#113,#114),#72,.T.);
#82=ADVANCED_FACE('',(#115,#116),#99,.T.);
#83=ADVANCED_FACE('',(#117,#118),#66,.T.);
#84=ADVANCED_FACE('',(#119,#120),#73,.F.);
#85=ADVANCED_FACE('',(#121,#122),#74,.T.);
#86=ADVANCED_FACE('',(#123,#124),#75,.T.);
#87=ADVANCED_FACE('',(#125,#126),#100,.F.);
#88=ADVANCED_FACE('',(#127,#128),#101,.T.);
#89=ADVANCED_FACE('',(#129,#130),#102,.T.);
#90=ADVANCED_FACE('',(#131,#132),#76,.T.);
#91=ADVANCED_FACE('',(#133,#134),#33,.F.);
#92=ADVANCED_FACE('',(#135,#136),#103,.T.);
#93=ADVANCED_FACE('',(#31),#104,.F.);
#94=ADVANCED_FACE('',(#137,#138),#77,.F.);
#95=ADVANCED_FACE('',(#139,#140),#105,.F.);
#96=ADVANCED_FACE('',(#32),#106,.F.);
#97=ADVANCED_FACE('',(#141,#142),#67,.T.);
#98=PLANE('',#277);
#99=PLANE('',#282);
#100=PLANE('',#293);
#101=PLANE('',#295);
#102=PLANE('',#297);
#103=PLANE('',#301);
#104=PLANE('',#303);
#105=PLANE('',#307);
#106=PLANE('',#309);
#107=FACE_BOUND('',#143,.T.);
#108=FACE_BOUND('',#144,.T.);
#109=FACE_BOUND('',#145,.T.);
#110=FACE_BOUND('',#146,.T.);
#111=FACE_BOUND('',#147,.T.);
#112=FACE_BOUND('',#148,.T.);
#113=FACE_BOUND('',#149,.T.);
#114=FACE_BOUND('',#150,.T.);
#115=FACE_BOUND('',#151,.T.);
#116=FACE_BOUND('',#152,.T.);
#117=FACE_BOUND('',#153,.T.);
#118=FACE_BOUND('',#154,.T.);
#119=FACE_BOUND('',#155,.T.);
#120=FACE_BOUND('',#156,.T.);
#121=FACE_BOUND('',#157,.T.);
#122=FACE_BOUND('',#158,.T.);
#123=FACE_BOUND('',#159,.T.);
#124=FACE_BOUND('',#160,.T.);
#125=FACE_BOUND('',#161,.T.);
#126=FACE_BOUND('',#162,.T.);
#127=FACE_BOUND('',#163,.T.);
#128=FACE_BOUND('',#164,.T.);
#129=FACE_BOUND('',#165,.T.);
#130=FACE_BOUND('',#166,.T.);
#131=FACE_BOUND('',#167,.T.);
#132=FACE_BOUND('',#168,.T.);
#133=FACE_BOUND('',#169,.T.);
#134=FACE_BOUND('',#170,.T.);
#135=FACE_BOUND('',#171,.T.);
#136=FACE_BOUND('',#172,.T.);
#137=FACE_BOUND('',#174,.T.);
#138=FACE_BOUND('',#175,.T.);
#139=FACE_BOUND('',#176,.T.);
#140=FACE_BOUND('',#177,.T.);
#141=FACE_BOUND('',#179,.T.);
#142=FACE_BOUND('',#180,.T.);
#143=EDGE_LOOP('',(#181));
#144=EDGE_LOOP('',(#182));
#145=EDGE_LOOP('',(#183));
#146=EDGE_LOOP('',(#184));
#147=EDGE_LOOP('',(#185));
#148=EDGE_LOOP('',(#186));
#149=EDGE_LOOP('',(#187));
#150=EDGE_LOOP('',(#188));
#151=EDGE_LOOP('',(#189));
#152=EDGE_LOOP('',(#190));
#153=EDGE_LOOP('',(#191));
#154=EDGE_LOOP('',(#192));
#155=EDGE_LOOP('',(#193));
#156=EDGE_LOOP('',(#194));
#157=EDGE_LOOP('',(#195));
#158=EDGE_LOOP('',(#196));
#159=EDGE_LOOP('',(#197));
#160=EDGE_LOOP('',(#198));
#161=EDGE_LOOP('',(#199));
#162=EDGE_LOOP('',(#200));
#163=EDGE_LOOP('',(#201));
#164=EDGE_LOOP('',(#202));
#165=EDGE_LOOP('',(#203));
#166=EDGE_LOOP('',(#204));
#167=EDGE_LOOP('',(#205));
#168=EDGE_LOOP('',(#206));
#169=EDGE_LOOP('',(#207));
#170=EDGE_LOOP('',(#208));
#171=EDGE_LOOP('',(#209));
#172=EDGE_LOOP('',(#210));
#173=EDGE_LOOP('',(#211));
#174=EDGE_LOOP('',(#212));
#175=EDGE_LOOP('',(#213));
#176=EDGE_LOOP('',(#214));
#177=EDGE_LOOP('',(#215));
#178=EDGE_LOOP('',(#216));
#179=EDGE_LOOP('',(#217));
#180=EDGE_LOOP('',(#218));
#181=ORIENTED_EDGE('',*,*,#238,.F.);
#182=ORIENTED_EDGE('',*,*,#239,.T.);
#183=ORIENTED_EDGE('',*,*,#240,.T.);
#184=ORIENTED_EDGE('',*,*,#239,.F.);
#185=ORIENTED_EDGE('',*,*,#241,.F.);
#186=ORIENTED_EDGE('',*,*,#242,.F.);
#187=ORIENTED_EDGE('',*,*,#243,.T.);
#188=ORIENTED_EDGE('',*,*,#242,.T.);
#189=ORIENTED_EDGE('',*,*,#240,.F.);
#190=ORIENTED_EDGE('',*,*,#241,.T.);
#191=ORIENTED_EDGE('',*,*,#243,.F.);
#192=ORIENTED_EDGE('',*,*,#238,.T.);
#193=ORIENTED_EDGE('',*,*,#244,.T.);
#194=ORIENTED_EDGE('',*,*,#245,.T.);
#195=ORIENTED_EDGE('',*,*,#246,.F.);
#196=ORIENTED_EDGE('',*,*,#247,.T.);
#197=ORIENTED_EDGE('',*,*,#248,.T.);
#198=ORIENTED_EDGE('',*,*,#249,.T.);
#199=ORIENTED_EDGE('',*,*,#248,.F.);
#200=ORIENTED_EDGE('',*,*,#246,.T.);
#201=ORIENTED_EDGE('',*,*,#244,.F.);
#202=ORIENTED_EDGE('',*,*,#250,.T.);
#203=ORIENTED_EDGE('',*,*,#247,.F.);
#204=ORIENTED_EDGE('',*,*,#251,.F.);
#205=ORIENTED_EDGE('',*,*,#250,.F.);
#206=ORIENTED_EDGE('',*,*,#252,.T.);
#207=ORIENTED_EDGE('',*,*,#252,.F.);
#208=ORIENTED_EDGE('',*,*,#251,.T.);
#209=ORIENTED_EDGE('',*,*,#249,.F.);
#210=ORIENTED_EDGE('',*,*,#245,.F.);
#211=ORIENTED_EDGE('',*,*,#253,.T.);
#212=ORIENTED_EDGE('',*,*,#254,.T.);
#213=ORIENTED_EDGE('',*,*,#253,.F.);
#214=ORIENTED_EDGE('',*,*,#255,.T.);
#215=ORIENTED_EDGE('',*,*,#254,.F.);
#216=ORIENTED_EDGE('',*,*,#256,.T.);
#217=ORIENTED_EDGE('',*,*,#256,.F.);
#218=ORIENTED_EDGE('',*,*,#255,.F.);
#219=VERTEX_POINT('',#387);
#220=VERTEX_POINT('',#389);
#221=VERTEX_POINT('',#392);
#222=VERTEX_POINT('',#420);
#223=VERTEX_POINT('',#449);
#224=VERTEX_POINT('',#501);
#225=VERTEX_POINT('',#506);
#226=VERTEX_POINT('',#508);
#227=VERTEX_POINT('',#511);
#228=VERTEX_POINT('',#513);
#229=VERTEX_POINT('',#516);
#230=VERTEX_POINT('',#518);
#231=VERTEX_POINT('',#522);
#232=VERTEX_POINT('',#525);
#233=VERTEX_POINT('',#528);
#234=VERTEX_POINT('',#533);
#235=VERTEX_POINT('',#536);
#236=VERTEX_POINT('',#539);
#237=VERTEX_POINT('',#542);
#238=EDGE_CURVE('',#219,#219,#257,.T.);
#239=EDGE_CURVE('',#220,#220,#258,.T.);
#240=EDGE_CURVE('',#221,#221,#259,.T.);
#241=EDGE_CURVE('',#222,#222,#69,.T.);
#242=EDGE_CURVE('',#223,#223,#70,.T.);
#243=EDGE_CURVE('',#224,#224,#260,.T.);
#244=EDGE_CURVE('',#225,#225,#261,.T.);
#245=EDGE_CURVE('',#226,#226,#262,.T.);
#246=EDGE_CURVE('',#227,#227,#263,.T.);
#247=EDGE_CURVE('',#228,#228,#264,.T.);
#248=EDGE_CURVE('',#229,#229,#265,.T.);
#249=EDGE_CURVE('',#230,#230,#266,.T.);
#250=EDGE_CURVE('',#231,#231,#267,.T.);
#251=EDGE_CURVE('',#232,#232,#268,.T.);
#252=EDGE_CURVE('',#233,#233,#269,.T.);
#253=EDGE_CURVE('',#234,#234,#270,.T.);
#254=EDGE_CURVE('',#235,#235,#271,.T.);
#255=EDGE_CURVE('',#236,#236,#272,.T.);
#256=EDGE_CURVE('',#237,#237,#273,.T.);
#257=CIRCLE('',#275,18.);
#258=CIRCLE('',#276,16.);
#259=CIRCLE('',#278,16.);
#260=CIRCLE('',#280,20.8);
#261=CIRCLE('',#284,5.);
#262=CIRCLE('',#285,5.);
#263=CIRCLE('',#287,16.);
#264=CIRCLE('',#288,16.);
#265=CIRCLE('',#290,12.5);
#266=CIRCLE('',#291,12.5);
#267=CIRCLE('',#294,9.25);
#268=CIRCLE('',#296,10.05);
#269=CIRCLE('',#298,9.25);
#270=CIRCLE('',#302,5.);
#271=CIRCLE('',#304,5.);
#272=CIRCLE('',#306,12.5);
#273=CIRCLE('',#308,8.98647913243944);
#274=AXIS2_PLACEMENT_3D('',#385,#311,#312);
#275=AXIS2_PLACEMENT_3D('',#386,#313,#314);
#276=AXIS2_PLACEMENT_3D('',#388,#315,#316);
#277=AXIS2_PLACEMENT_3D('',#390,#317,#318);
#278=AXIS2_PLACEMENT_3D('',#391,#319,#320);
#279=AXIS2_PLACEMENT_3D('',#393,#321,#322);
#280=AXIS2_PLACEMENT_3D('',#500,#323,#324);
#281=AXIS2_PLACEMENT_3D('',#502,#325,#326);
#282=AXIS2_PLACEMENT_3D('',#503,#327,#328);
#283=AXIS2_PLACEMENT_3D('',#504,#329,#330);
#284=AXIS2_PLACEMENT_3D('',#505,#331,#332);
#285=AXIS2_PLACEMENT_3D('',#507,#333,#334);
#286=AXIS2_PLACEMENT_3D('',#509,#335,#336);
#287=AXIS2_PLACEMENT_3D('',#510,#337,#338);
#288=AXIS2_PLACEMENT_3D('',#512,#339,#340);
#289=AXIS2_PLACEMENT_3D('',#514,#341,#342);
#290=AXIS2_PLACEMENT_3D('',#515,#343,#344);
#291=AXIS2_PLACEMENT_3D('',#517,#345,#346);
#292=AXIS2_PLACEMENT_3D('',#519,#347,#348);
#293=AXIS2_PLACEMENT_3D('',#520,#349,#350);
#294=AXIS2_PLACEMENT_3D('',#521,#351,#352);
#295=AXIS2_PLACEMENT_3D('',#523,#353,#354);
#296=AXIS2_PLACEMENT_3D('',#524,#355,#356);
#297=AXIS2_PLACEMENT_3D('',#526,#357,#358);
#298=AXIS2_PLACEMENT_3D('',#527,#359,#360);
#299=AXIS2_PLACEMENT_3D('',#529,#361,#362);
#300=AXIS2_PLACEMENT_3D('',#530,#363,#364);
#301=AXIS2_PLACEMENT_3D('',#531,#365,#366);
#302=AXIS2_PLACEMENT_3D('',#532,#367,#368);
#303=AXIS2_PLACEMENT_3D('',#534,#369,#370);
#304=AXIS2_PLACEMENT_3D('',#535,#371,#372);
#305=AXIS2_PLACEMENT_3D('',#537,#373,#374);
#306=AXIS2_PLACEMENT_3D('',#538,#375,#376);
#307=AXIS2_PLACEMENT_3D('',#540,#377,#378);
#308=AXIS2_PLACEMENT_3D('',#541,#379,#380);
#309=AXIS2_PLACEMENT_3D('',#543,#381,#382);
#310=AXIS2_PLACEMENT_3D('',#544,#383,#384);
#311=DIRECTION('',(0.,0.,1.));
#312=DIRECTION('',(1.,0.,0.));
#313=DIRECTION('',(0.,0.,1.));
#314=DIRECTION('',(0.,1.,0.));
#315=DIRECTION('',(0.,0.,1.));
#316=DIRECTION('',(1.,0.,0.));
#317=DIRECTION('',(0.,0.,1.));
#318=DIRECTION('',(0.,1.,0.));
#319=DIRECTION('',(0.,0.,1.));
#320=DIRECTION('',(1.,0.,0.));
#321=DIRECTION('',(0.,0.,1.));
#322=DIRECTION('',(0.,1.,0.));
#323=DIRECTION('',(0.,0.,1.));
#324=DIRECTION('',(0.109225955814594,0.99401694682555,0.));
#325=DIRECTION('',(0.,0.,1.));
#326=DIRECTION('',(0.,1.,0.));
#327=DIRECTION('',(0.,0.,1.));
#328=DIRECTION('',(0.,1.,0.));
#329=DIRECTION('',(0.,0.,1.));
#330=DIRECTION('',(0.,1.,3.40342059245989E-018));
#331=DIRECTION('',(0.,0.,-1.));
#332=DIRECTION('',(-1.,0.,0.));
#333=DIRECTION('',(0.,0.,1.));
#334=DIRECTION('',(1.,0.,0.));
#335=DIRECTION('',(0.,0.,1.));
#336=DIRECTION('',(0.,1.,0.));
#337=DIRECTION('',(0.,0.,1.));
#338=DIRECTION('',(-1.,0.,0.));
#339=DIRECTION('',(0.,0.,1.));
#340=DIRECTION('',(-1.,0.,0.));
#341=DIRECTION('',(0.,0.,-1.));
#342=DIRECTION('',(0.,-1.,0.));
#343=DIRECTION('',(0.,0.,1.));
#344=DIRECTION('',(0.,1.,0.));
#345=DIRECTION('',(0.,0.,-1.));
#346=DIRECTION('',(1.,0.,0.));
#347=DIRECTION('',(0.,0.,-1.));
#348=DIRECTION('',(0.,-1.,0.));
#349=DIRECTION('',(0.,0.,-1.));
#350=DIRECTION('',(0.,-1.,0.));
#351=DIRECTION('',(0.,0.,-1.));
#352=DIRECTION('',(-1.,0.,0.));
#353=DIRECTION('',(0.,0.,-1.));
#354=DIRECTION('',(0.,-1.,0.));
#355=DIRECTION('',(0.,0.,-1.));
#356=DIRECTION('',(0.,1.,0.));
#357=DIRECTION('',(0.,0.,-1.));
#358=DIRECTION('',(0.,-1.,0.));
#359=DIRECTION('',(0.,0.,-1.));
#360=DIRECTION('',(0.,1.,0.));
#361=DIRECTION('',(0.,0.,-1.));
#362=DIRECTION('',(0.,-1.,0.));
#363=DIRECTION('',(0.,0.,-1.));
#364=DIRECTION('',(-0.000166235674909792,0.99999998618285,0.));
#365=DIRECTION('',(0.,0.,1.));
#366=DIRECTION('',(1.,0.,0.));
#367=DIRECTION('',(0.,0.,-1.));
#368=DIRECTION('',(1.,0.,0.));
#369=DIRECTION('',(0.,0.,1.));
#370=DIRECTION('',(1.,0.,0.));
#371=DIRECTION('',(0.,0.,-1.));
#372=DIRECTION('',(1.,0.,0.));
#373=DIRECTION('',(0.,0.,1.));
#374=DIRECTION('',(0.,1.,0.));
#375=DIRECTION('',(0.,0.,-1.));
#376=DIRECTION('',(1.,0.,0.));
#377=DIRECTION('',(0.,0.,1.));
#378=DIRECTION('',(1.,0.,0.));
#379=DIRECTION('',(0.,0.,1.));
#380=DIRECTION('',(-1.,0.,0.));
#381=DIRECTION('',(0.,0.,-1.));
#382=DIRECTION('',(0.,-1.,0.));
#383=DIRECTION('',(0.,0.,-1.));
#384=DIRECTION('',(0.,-1.,-1.26104289210432E-016));
#385=CARTESIAN_POINT('',(0.,0.,0.));
#386=CARTESIAN_POINT('',(0.,0.,-9.5));
#387=CARTESIAN_POINT('',(0.,18.,-9.5));
#388=CARTESIAN_POINT('',(0.,0.,-9.5));
#389=CARTESIAN_POINT('',(16.,0.,-9.5));
#390=CARTESIAN_POINT('',(0.,0.,-9.5));
#391=CARTESIAN_POINT('',(0.,0.,11.));
#392=CARTESIAN_POINT('',(16.,0.,11.));
#393=CARTESIAN_POINT('',(0.,0.,-9.885));
#394=CARTESIAN_POINT('',(-1.22829578654064,-19.300000000006,10.999999999994));
#395=CARTESIAN_POINT('',(1.22829578654061,-19.300000000006,10.999999999994));
#396=CARTESIAN_POINT('',(3.68488735962186,-19.0648866815179,10.999999999994));
#397=CARTESIAN_POINT('',(8.60645157330217,-17.6163814223341,10.999999999994));
#398=CARTESIAN_POINT('',(13.02406011257,-14.643720207456,10.999999999994));
#399=CARTESIAN_POINT('',(16.1846129548956,-10.7241477946307,10.999999999994));
#400=CARTESIAN_POINT('',(18.475573272115,-6.46642482730195,10.999999999994));
#401=CARTESIAN_POINT('',(19.8496178186,-1.3322676295573E-014,10.999999999994));
#402=CARTESIAN_POINT('',(18.475573272115,6.46642482730192,10.999999999994));
#403=CARTESIAN_POINT('',(16.1846129548957,10.7241477946307,10.999999999994));
#404=CARTESIAN_POINT('',(13.02406011257,14.643720207456,10.999999999994));
#405=CARTESIAN_POINT('',(7.50204943848524,18.3595467260536,10.999999999994));
#406=CARTESIAN_POINT('',(2.41250000000077,19.300000000006,10.999999999994));
#407=CARTESIAN_POINT('',(-2.41250000000075,19.300000000006,10.999999999994));
#408=CARTESIAN_POINT('',(-7.50204943848523,18.3595467260536,10.999999999994));
#409=CARTESIAN_POINT('',(-13.02406011257,14.643720207456,10.999999999994));
#410=CARTESIAN_POINT('',(-16.1846129548956,10.7241477946307,10.999999999994));
#411=CARTESIAN_POINT('',(-18.475573272115,6.46642482730196,10.999999999994));
#412=CARTESIAN_POINT('',(-19.8496178186,9.76996261671027E-015,10.999999999994));
#413=CARTESIAN_POINT('',(-18.475573272115,-6.46642482730193,10.999999999994));
#414=CARTESIAN_POINT('',(-16.1846129548956,-10.7241477946307,10.999999999994));
#415=CARTESIAN_POINT('',(-13.02406011257,-14.643720207456,10.999999999994));
#416=CARTESIAN_POINT('',(-8.60645157330219,-17.6163814223341,10.999999999994));
#417=CARTESIAN_POINT('',(-3.68488735962189,-19.0648866815179,10.999999999994));
#418=CARTESIAN_POINT('',(-1.22829578654064,-19.300000000006,10.999999999994));
#419=CARTESIAN_POINT('',(1.22829578654061,-19.300000000006,10.999999999994));
#420=CARTESIAN_POINT('',(-1.46367293285543E-014,-19.3,11.));
#421=CARTESIAN_POINT('',(-2.74829107842598,20.8,9.50000000000003));
#422=CARTESIAN_POINT('',(5.49658215685202,20.8,9.50000000000004));
#423=CARTESIAN_POINT('',(10.8819793568929,18.5397760598452,9.49306590372834));
#424=CARTESIAN_POINT('',(16.6383201279819,12.774251292622,9.5036917520324));
#425=CARTESIAN_POINT('',(18.1794117228103,10.46917522462,9.50978843168744));
#426=CARTESIAN_POINT('',(20.2654633843768,5.42269621938503,9.49217943455059));
#427=CARTESIAN_POINT('',(20.8027597910216,2.72222132598703,9.50015631526535));
#428=CARTESIAN_POINT('',(20.7972189949205,-2.76423333818334,9.49984248055725));
#429=CARTESIAN_POINT('',(20.2526704266308,-5.46684911289475,9.49241711433404));
#430=CARTESIAN_POINT('',(18.1624911500681,-10.4967144315058,9.50979972735847));
#431=CARTESIAN_POINT('',(16.6133340085903,-12.8059924933054,9.50379928398478));
#432=CARTESIAN_POINT('',(10.8542343385699,-18.5539979358012,9.49270422608978));
#433=CARTESIAN_POINT('',(5.42226402270001,-20.8018699591907,9.5000048420447));
#434=CARTESIAN_POINT('',(-2.72188474905953,-20.7990631674981,9.49999757420222));
#435=CARTESIAN_POINT('',(-5.44395706397405,-20.2595064774522,9.50133846211907));
#436=CARTESIAN_POINT('',(-10.4849159968635,-18.1700524975311,9.49713751804066));
#437=CARTESIAN_POINT('',(-12.7745233411029,-16.6430456412869,9.49653233365727));
#438=CARTESIAN_POINT('',(-16.6557392118433,-12.7579687300686,9.50375093401478));
#439=CARTESIAN_POINT('',(-18.1809082317622,-10.4652115453799,9.50977250837747));
#440=CARTESIAN_POINT('',(-20.263201955659,-5.42851023076221,9.49220181357275));
#441=CARTESIAN_POINT('',(-20.8014078891533,-2.70223112750087,9.50007999459655));
#442=CARTESIAN_POINT('',(-20.7971757862101,5.43690833718271,9.49983953097933));
#443=CARTESIAN_POINT('',(-18.5467914625702,10.868097589328,9.50733866742322));
#444=CARTESIAN_POINT('',(-12.7904997245515,16.6255186832789,9.49652666622814));
#445=CARTESIAN_POINT('',(-10.4830264061385,18.170873173432,9.4971404038751));
#446=CARTESIAN_POINT('',(-5.44535903772279,20.25888791289,9.50133598251917));
#447=CARTESIAN_POINT('',(-2.74829107842598,20.8,9.50000000000003));
#448=CARTESIAN_POINT('',(5.49658215685202,20.8,9.50000000000004));
#449=CARTESIAN_POINT('',(1.51788304147971E-014,20.8,9.50000000000003));
#450=CARTESIAN_POINT('',(-2.60249766150422,20.8199812920338,9.48001870796624));
#451=CARTESIAN_POINT('',(-2.4125,19.3,11.));
#452=CARTESIAN_POINT('',(2.60249766150425,20.8199812920338,9.48001870796624));
#453=CARTESIAN_POINT('',(2.41250000000002,19.3,11.));
#454=CARTESIAN_POINT('',(8.09287714824491,19.8054621433438,9.48001870796624));
#455=CARTESIAN_POINT('',(7.50204943848291,18.3595467260479,11.));
#456=CARTESIAN_POINT('',(14.0497765746086,15.7969938220163,9.48001870796624));
#457=CARTESIAN_POINT('',(13.0240601125659,14.6437202074514,11.));
#458=CARTESIAN_POINT('',(17.4592403595664,11.5687334951889,9.48001870796624));
#459=CARTESIAN_POINT('',(16.1846129548907,10.7241477946274,11.));
#460=CARTESIAN_POINT('',(19.9306264189075,6.97569139537445,9.48001870796624));
#461=CARTESIAN_POINT('',(18.4755732721093,6.46642482729991,11.));
#462=CARTESIAN_POINT('',(21.4128845407846,-3.13228707212659E-014,9.48001870796624));
#463=CARTESIAN_POINT('',(19.8496178185938,-1.33226762955019E-014,11.));
#464=CARTESIAN_POINT('',(19.9306264189075,-6.97569139537448,9.48001870796624));
#465=CARTESIAN_POINT('',(18.4755732721093,-6.46642482729994,11.));
#466=CARTESIAN_POINT('',(17.4592403595664,-11.568733495189,9.48001870796624));
#467=CARTESIAN_POINT('',(16.1846129548906,-10.7241477946274,11.));
#468=CARTESIAN_POINT('',(14.0497765746086,-15.7969938220164,9.48001870796624));
#469=CARTESIAN_POINT('',(13.0240601125659,-14.6437202074514,11.));
#470=CARTESIAN_POINT('',(9.2842570335176,-19.0037684790784,9.48001870796624));
#471=CARTESIAN_POINT('',(8.60645157329949,-17.6163814223286,11.));
#472=CARTESIAN_POINT('',(3.97509253318937,-20.5663515048614,9.48001870796624));
#473=CARTESIAN_POINT('',(3.68488735962071,-19.064886681512,11.));
#474=CARTESIAN_POINT('',(-1.71329284839916E-014,-20.94679618562,9.48001870796624));
#475=CARTESIAN_POINT('',(-1.4432899320127E-014,-19.417556659244,11.));
#476=CARTESIAN_POINT('',(-3.97509253318941,-20.5663515048613,9.48001870796624));
#477=CARTESIAN_POINT('',(-3.68488735962074,-19.064886681512,11.));
#478=CARTESIAN_POINT('',(-9.28425703351763,-19.0037684790784,9.48001870796624));
#479=CARTESIAN_POINT('',(-8.60645157329951,-17.6163814223286,11.));
#480=CARTESIAN_POINT('',(-14.0497765746086,-15.7969938220163,9.48001870796624));
#481=CARTESIAN_POINT('',(-13.0240601125659,-14.6437202074514,11.));
#482=CARTESIAN_POINT('',(-17.4592403595664,-11.568733495189,9.48001870796624));
#483=CARTESIAN_POINT('',(-16.1846129548906,-10.7241477946274,11.));
#484=CARTESIAN_POINT('',(-19.9306264189075,-6.97569139537445,9.48001870796624));
#485=CARTESIAN_POINT('',(-18.4755732721093,-6.46642482729992,11.));
#486=CARTESIAN_POINT('',(-21.4128845407846,1.20199869199219E-014,9.48001870796624));
#487=CARTESIAN_POINT('',(-19.8496178185938,9.76996261670138E-015,11.));
#488=CARTESIAN_POINT('',(-19.9306264189075,6.97569139537449,9.48001870796624));
#489=CARTESIAN_POINT('',(-18.4755732721093,6.46642482729995,11.));
#490=CARTESIAN_POINT('',(-17.4592403595664,11.568733495189,9.48001870796624));
#491=CARTESIAN_POINT('',(-16.1846129548906,10.7241477946274,11.));
#492=CARTESIAN_POINT('',(-14.0497765746086,15.7969938220164,9.48001870796624));
#493=CARTESIAN_POINT('',(-13.0240601125659,14.6437202074514,11.));
#494=CARTESIAN_POINT('',(-8.09287714824488,19.8054621433438,9.48001870796624));
#495=CARTESIAN_POINT('',(-7.5020494384829,18.3595467260479,11.));
#496=CARTESIAN_POINT('',(-2.60249766150422,20.8199812920338,9.48001870796624));
#497=CARTESIAN_POINT('',(-2.4125,19.3,11.));
#498=CARTESIAN_POINT('',(2.60249766150425,20.8199812920338,9.48001870796624));
#499=CARTESIAN_POINT('',(2.41250000000002,19.3,11.));
#500=CARTESIAN_POINT('',(0.,0.,-6.7));
#501=CARTESIAN_POINT('',(2.27189988094356,20.6755524939714,-6.7));
#502=CARTESIAN_POINT('',(0.,0.,-10.525));
#503=CARTESIAN_POINT('',(0.,0.,11.));
#504=CARTESIAN_POINT('',(0.,0.,-8.1));
#505=CARTESIAN_POINT('',(0.,0.,-14.5));
#506=CARTESIAN_POINT('',(-5.,0.,-14.5));
#507=CARTESIAN_POINT('',(0.,0.,0.));
#508=CARTESIAN_POINT('',(5.,0.,0.));
#509=CARTESIAN_POINT('',(0.,0.,-15.1375));
#510=CARTESIAN_POINT('',(0.,0.,-2.));
#511=CARTESIAN_POINT('',(-16.,0.,-2.));
#512=CARTESIAN_POINT('',(0.,0.,-9.5));
#513=CARTESIAN_POINT('',(-16.,0.,-9.5));
#514=CARTESIAN_POINT('',(0.,0.,26.975));
#515=CARTESIAN_POINT('',(0.,0.,-2.));
#516=CARTESIAN_POINT('',(0.,12.5,-2.));
#517=CARTESIAN_POINT('',(0.,0.,0.));
#518=CARTESIAN_POINT('',(12.5,0.,0.));
#519=CARTESIAN_POINT('',(0.,0.,26.975));
#520=CARTESIAN_POINT('',(0.,0.,-2.));
#521=CARTESIAN_POINT('',(0.,0.,-14.5));
#522=CARTESIAN_POINT('',(-9.25,0.,-14.5));
#523=CARTESIAN_POINT('',(0.,0.,-14.5));
#524=CARTESIAN_POINT('',(0.,0.,-9.5));
#525=CARTESIAN_POINT('',(0.,10.05,-9.5));
#526=CARTESIAN_POINT('',(0.,0.,-9.5));
#527=CARTESIAN_POINT('',(0.,0.,-10.3));
#528=CARTESIAN_POINT('',(0.,9.25,-10.3));
#529=CARTESIAN_POINT('',(0.,0.,26.975));
#530=CARTESIAN_POINT('',(0.,0.,-10.3));
#531=CARTESIAN_POINT('',(0.,0.,0.));
#532=CARTESIAN_POINT('',(0.,0.,8.));
#533=CARTESIAN_POINT('',(5.,0.,8.));
#534=CARTESIAN_POINT('',(0.,0.,8.));
#535=CARTESIAN_POINT('',(0.,0.,0.));
#536=CARTESIAN_POINT('',(5.,0.,0.));
#537=CARTESIAN_POINT('',(0.,0.,-15.1375));
#538=CARTESIAN_POINT('',(0.,0.,0.));
#539=CARTESIAN_POINT('',(12.5,0.,0.));
#540=CARTESIAN_POINT('',(0.,0.,0.));
#541=CARTESIAN_POINT('',(0.,0.,25.));
#542=CARTESIAN_POINT('',(-8.98647913243944,0.,25.));
#543=CARTESIAN_POINT('',(0.,0.,25.));
#544=CARTESIAN_POINT('',(0.,0.,12.25243298281));
#545=MECHANICAL_DESIGN_GEOMETRIC_PRESENTATION_REPRESENTATION('',(#37,#38,
#39),#546);
#546=(
GEOMETRIC_REPRESENTATION_CONTEXT(3)
GLOBAL_UNCERTAINTY_ASSIGNED_CONTEXT((#547))
GLOBAL_UNIT_ASSIGNED_CONTEXT((#553,#549,#548))
REPRESENTATION_CONTEXT('BE025582010005','TOP_LEVEL_ASSEMBLY_PART')
);
#547=UNCERTAINTY_MEASURE_WITH_UNIT(LENGTH_MEASURE(0.0508),#553,
'DISTANCE_ACCURACY_VALUE','Maximum Tolerance applied to model');
#548=(
NAMED_UNIT(*)
SI_UNIT($,.STERADIAN.)
SOLID_ANGLE_UNIT()
);
#549=(
CONVERSION_BASED_UNIT('DEGREE',#551)
NAMED_UNIT(#550)
PLANE_ANGLE_UNIT()
);
#550=DIMENSIONAL_EXPONENTS(0.,0.,0.,0.,0.,0.,0.);
#551=PLANE_ANGLE_MEASURE_WITH_UNIT(PLANE_ANGLE_MEASURE(0.0174532925),#552);
#552=(
NAMED_UNIT(*)
PLANE_ANGLE_UNIT()
SI_UNIT($,.RADIAN.)
);
#553=(
LENGTH_UNIT()
NAMED_UNIT(*)
SI_UNIT(.MILLI.,.METRE.)
);
ENDSEC;
END-ISO-10303-21;
