ISO-10303-21;
HEADER;
/* Generated by software containing ST-Developer
 * from STEP Tools, Inc. (www.steptools.com) 
 */
/* OPTION: using custom schema-name function */

FILE_DESCRIPTION(
/* description */ (''),
/* implementation_level */ '2;1');

FILE_NAME(
/* name */ 'BE025582008005.stp',
/* time_stamp */ '2016-03-15T11:33:23+05:00',
/* author */ (''),
/* organization */ (''),
/* preprocessor_version */ 'ST-DEVELOPER v15',
/* originating_system */ 'SIEMENS PLM Software NX 8.5',
/* authorisation */ '');

FILE_SCHEMA (('AUTOMOTIVE_DESIGN { 1 0 10303 214 3 1 1 1 }'));
ENDSEC;

DATA;
#10=PROPERTY_DEFINITION_REPRESENTATION(#14,#12);
#11=PROPERTY_DEFINITION_REPRESENTATION(#15,#13);
#12=REPRESENTATION('',(#16),#460);
#13=REPRESENTATION('',(#17),#460);
#14=PROPERTY_DEFINITION('pmi validation property','',#21);
#15=PROPERTY_DEFINITION('pmi validation property','',#21);
#16=VALUE_REPRESENTATION_ITEM('number of annotations',COUNT_MEASURE(0.));
#17=VALUE_REPRESENTATION_ITEM('number of views',COUNT_MEASURE(0.));
#18=SHAPE_REPRESENTATION_RELATIONSHIP('None',
'relationship between inpuEB4045472b9x-None and inpuEB4045472b9x-None',
#30,#19);
#19=ADVANCED_BREP_SHAPE_REPRESENTATION('inpuEB4045472b9x-None',(#61,#62,
#63),#460);
#20=SHAPE_DEFINITION_REPRESENTATION(#21,#30);
#21=PRODUCT_DEFINITION_SHAPE('','',#22);
#22=PRODUCT_DEFINITION(' ','',#24,#23);
#23=PRODUCT_DEFINITION_CONTEXT('part definition',#29,'design');
#24=PRODUCT_DEFINITION_FORMATION_WITH_SPECIFIED_SOURCE(' ',' ',#26,
 .NOT_KNOWN.);
#25=PRODUCT_RELATED_PRODUCT_CATEGORY('part','',(#26));
#26=PRODUCT('inpuEB4045472b9x','inpuEB4045472b9x',' ',(#27));
#27=PRODUCT_CONTEXT(' ',#29,'mechanical');
#28=APPLICATION_PROTOCOL_DEFINITION('international standard',
'automotive_design',2010,#29);
#29=APPLICATION_CONTEXT(
'core data for automotive mechanical design processes');
#30=SHAPE_REPRESENTATION('inpuEB4045472b9x-None',(#276),#460);
#31=CONICAL_SURFACE('',#304,10.77803284146,8.);
#32=CONICAL_SURFACE('',#310,20.8,7.09069235371727E-007);
#33=CONICAL_SURFACE('',#311,19.4,45.);
#34=CONICAL_SURFACE('',#315,19.3,45.);
#35=PRESENTATION_LAYER_ASSIGNMENT('2','Layer 2',(#61));
#36=PRESENTATION_LAYER_ASSIGNMENT('1','Layer 1',(#62));
#37=PRESENTATION_LAYER_ASSIGNMENT('4','Layer 4',(#63));
#38=STYLED_ITEM('',(#41),#61);
#39=STYLED_ITEM('',(#42),#62);
#40=STYLED_ITEM('',(#43),#63);
#41=PRESENTATION_STYLE_ASSIGNMENT((#44));
#42=PRESENTATION_STYLE_ASSIGNMENT((#45));
#43=PRESENTATION_STYLE_ASSIGNMENT((#46));
#44=SURFACE_STYLE_USAGE(.BOTH.,#47);
#45=SURFACE_STYLE_USAGE(.BOTH.,#48);
#46=SURFACE_STYLE_USAGE(.BOTH.,#49);
#47=SURFACE_SIDE_STYLE('',(#50));
#48=SURFACE_SIDE_STYLE('',(#51));
#49=SURFACE_SIDE_STYLE('',(#52));
#50=SURFACE_STYLE_FILL_AREA(#53);
#51=SURFACE_STYLE_FILL_AREA(#54);
#52=SURFACE_STYLE_FILL_AREA(#55);
#53=FILL_AREA_STYLE('',(#56));
#54=FILL_AREA_STYLE('',(#57));
#55=FILL_AREA_STYLE('',(#58));
#56=FILL_AREA_STYLE_COLOUR('',#59);
#57=FILL_AREA_STYLE_COLOUR('',#59);
#58=FILL_AREA_STYLE_COLOUR('',#60);
#59=COLOUR_RGB('Medium Gray',0.501960784313725,0.501960784313725,0.501960784313725);
#60=COLOUR_RGB('Iron Gray',0.301960784313725,0.301960784313725,0.301960784313725);
#61=MANIFOLD_SOLID_BREP('',#64);
#62=MANIFOLD_SOLID_BREP('',#65);
#63=MANIFOLD_SOLID_BREP('',#66);
#64=CLOSED_SHELL('',(#109,#110,#111,#112,#113,#114,#115,#116,#117,#118,
#119,#120));
#65=CLOSED_SHELL('',(#121,#122,#123));
#66=CLOSED_SHELL('',(#124,#125,#126,#127,#128,#129));
#67=TOROIDAL_SURFACE('',#285,16.1,1.6);
#68=TOROIDAL_SURFACE('',#291,7.55,0.8);
#69=CYLINDRICAL_SURFACE('',#280,4.);
#70=CYLINDRICAL_SURFACE('',#287,6.75);
#71=CYLINDRICAL_SURFACE('',#292,16.);
#72=CYLINDRICAL_SURFACE('',#294,16.);
#73=CYLINDRICAL_SURFACE('',#298,12.5);
#74=CYLINDRICAL_SURFACE('',#313,16.);
#75=FACE_BOUND('',#144,.T.);
#76=FACE_BOUND('',#145,.T.);
#77=FACE_BOUND('',#146,.T.);
#78=FACE_BOUND('',#147,.T.);
#79=FACE_BOUND('',#148,.T.);
#80=FACE_BOUND('',#149,.T.);
#81=FACE_BOUND('',#150,.T.);
#82=FACE_BOUND('',#151,.T.);
#83=FACE_BOUND('',#152,.T.);
#84=FACE_BOUND('',#153,.T.);
#85=FACE_BOUND('',#154,.T.);
#86=FACE_BOUND('',#155,.T.);
#87=FACE_BOUND('',#156,.T.);
#88=FACE_BOUND('',#157,.T.);
#89=FACE_BOUND('',#158,.T.);
#90=FACE_BOUND('',#159,.T.);
#91=FACE_BOUND('',#160,.T.);
#92=FACE_BOUND('',#161,.T.);
#93=FACE_BOUND('',#162,.T.);
#94=FACE_BOUND('',#163,.T.);
#95=FACE_BOUND('',#167,.T.);
#96=FACE_BOUND('',#168,.T.);
#97=FACE_BOUND('',#169,.T.);
#98=FACE_BOUND('',#170,.T.);
#99=FACE_BOUND('',#171,.T.);
#100=FACE_BOUND('',#172,.T.);
#101=FACE_BOUND('',#173,.T.);
#102=FACE_BOUND('',#174,.T.);
#103=FACE_BOUND('',#175,.T.);
#104=FACE_BOUND('',#176,.T.);
#105=FACE_BOUND('',#177,.T.);
#106=FACE_BOUND('',#178,.T.);
#107=FACE_BOUND('',#179,.T.);
#108=FACE_BOUND('',#180,.T.);
#109=ADVANCED_FACE('',(#139),#130,.F.);
#110=ADVANCED_FACE('',(#75,#76),#69,.F.);
#111=ADVANCED_FACE('',(#77,#78),#131,.T.);
#112=ADVANCED_FACE('',(#79,#80),#67,.F.);
#113=ADVANCED_FACE('',(#81,#82),#70,.T.);
#114=ADVANCED_FACE('',(#83,#84),#132,.T.);
#115=ADVANCED_FACE('',(#85,#86),#68,.F.);
#116=ADVANCED_FACE('',(#87,#88),#71,.T.);
#117=ADVANCED_FACE('',(#89,#90),#72,.T.);
#118=ADVANCED_FACE('',(#91,#92),#133,.F.);
#119=ADVANCED_FACE('',(#93,#94),#73,.T.);
#120=ADVANCED_FACE('',(#140),#134,.F.);
#121=ADVANCED_FACE('',(#141),#135,.T.);
#122=ADVANCED_FACE('',(#142),#136,.F.);
#123=ADVANCED_FACE('',(#95,#96),#31,.T.);
#124=ADVANCED_FACE('',(#97,#98),#137,.F.);
#125=ADVANCED_FACE('',(#99,#100),#32,.T.);
#126=ADVANCED_FACE('',(#101,#102),#33,.T.);
#127=ADVANCED_FACE('',(#103,#104),#74,.F.);
#128=ADVANCED_FACE('',(#105,#106),#34,.T.);
#129=ADVANCED_FACE('',(#107,#108),#138,.T.);
#130=PLANE('',#278);
#131=PLANE('',#282);
#132=PLANE('',#290);
#133=PLANE('',#296);
#134=PLANE('',#299);
#135=PLANE('',#301);
#136=PLANE('',#303);
#137=PLANE('',#307);
#138=PLANE('',#316);
#139=FACE_OUTER_BOUND('',#143,.T.);
#140=FACE_OUTER_BOUND('',#164,.T.);
#141=FACE_OUTER_BOUND('',#165,.T.);
#142=FACE_OUTER_BOUND('',#166,.T.);
#143=EDGE_LOOP('',(#181));
#144=EDGE_LOOP('',(#182));
#145=EDGE_LOOP('',(#183));
#146=EDGE_LOOP('',(#184));
#147=EDGE_LOOP('',(#185));
#148=EDGE_LOOP('',(#186));
#149=EDGE_LOOP('',(#187));
#150=EDGE_LOOP('',(#188));
#151=EDGE_LOOP('',(#189));
#152=EDGE_LOOP('',(#190));
#153=EDGE_LOOP('',(#191));
#154=EDGE_LOOP('',(#192));
#155=EDGE_LOOP('',(#193));
#156=EDGE_LOOP('',(#194));
#157=EDGE_LOOP('',(#195));
#158=EDGE_LOOP('',(#196));
#159=EDGE_LOOP('',(#197));
#160=EDGE_LOOP('',(#198));
#161=EDGE_LOOP('',(#199));
#162=EDGE_LOOP('',(#200));
#163=EDGE_LOOP('',(#201));
#164=EDGE_LOOP('',(#202));
#165=EDGE_LOOP('',(#203));
#166=EDGE_LOOP('',(#204));
#167=EDGE_LOOP('',(#205));
#168=EDGE_LOOP('',(#206));
#169=EDGE_LOOP('',(#207));
#170=EDGE_LOOP('',(#208));
#171=EDGE_LOOP('',(#209));
#172=EDGE_LOOP('',(#210));
#173=EDGE_LOOP('',(#211));
#174=EDGE_LOOP('',(#212));
#175=EDGE_LOOP('',(#213));
#176=EDGE_LOOP('',(#214));
#177=EDGE_LOOP('',(#215));
#178=EDGE_LOOP('',(#216));
#179=EDGE_LOOP('',(#217));
#180=EDGE_LOOP('',(#218));
#181=ORIENTED_EDGE('',*,*,#238,.T.);
#182=ORIENTED_EDGE('',*,*,#239,.F.);
#183=ORIENTED_EDGE('',*,*,#238,.F.);
#184=ORIENTED_EDGE('',*,*,#240,.T.);
#185=ORIENTED_EDGE('',*,*,#239,.T.);
#186=ORIENTED_EDGE('',*,*,#241,.F.);
#187=ORIENTED_EDGE('',*,*,#242,.T.);
#188=ORIENTED_EDGE('',*,*,#240,.F.);
#189=ORIENTED_EDGE('',*,*,#243,.T.);
#190=ORIENTED_EDGE('',*,*,#244,.F.);
#191=ORIENTED_EDGE('',*,*,#245,.F.);
#192=ORIENTED_EDGE('',*,*,#243,.F.);
#193=ORIENTED_EDGE('',*,*,#245,.T.);
#194=ORIENTED_EDGE('',*,*,#241,.T.);
#195=ORIENTED_EDGE('',*,*,#244,.T.);
#196=ORIENTED_EDGE('',*,*,#242,.F.);
#197=ORIENTED_EDGE('',*,*,#246,.T.);
#198=ORIENTED_EDGE('',*,*,#246,.F.);
#199=ORIENTED_EDGE('',*,*,#247,.T.);
#200=ORIENTED_EDGE('',*,*,#248,.F.);
#201=ORIENTED_EDGE('',*,*,#247,.F.);
#202=ORIENTED_EDGE('',*,*,#248,.T.);
#203=ORIENTED_EDGE('',*,*,#249,.T.);
#204=ORIENTED_EDGE('',*,*,#250,.T.);
#205=ORIENTED_EDGE('',*,*,#249,.F.);
#206=ORIENTED_EDGE('',*,*,#250,.F.);
#207=ORIENTED_EDGE('',*,*,#251,.T.);
#208=ORIENTED_EDGE('',*,*,#252,.T.);
#209=ORIENTED_EDGE('',*,*,#253,.T.);
#210=ORIENTED_EDGE('',*,*,#254,.F.);
#211=ORIENTED_EDGE('',*,*,#254,.T.);
#212=ORIENTED_EDGE('',*,*,#252,.F.);
#213=ORIENTED_EDGE('',*,*,#255,.T.);
#214=ORIENTED_EDGE('',*,*,#251,.F.);
#215=ORIENTED_EDGE('',*,*,#256,.F.);
#216=ORIENTED_EDGE('',*,*,#253,.F.);
#217=ORIENTED_EDGE('',*,*,#255,.F.);
#218=ORIENTED_EDGE('',*,*,#256,.T.);
#219=VERTEX_POINT('',#401);
#220=VERTEX_POINT('',#404);
#221=VERTEX_POINT('',#407);
#222=VERTEX_POINT('',#410);
#223=VERTEX_POINT('',#412);
#224=VERTEX_POINT('',#415);
#225=VERTEX_POINT('',#418);
#226=VERTEX_POINT('',#420);
#227=VERTEX_POINT('',#425);
#228=VERTEX_POINT('',#428);
#229=VERTEX_POINT('',#431);
#230=VERTEX_POINT('',#435);
#231=VERTEX_POINT('',#438);
#232=VERTEX_POINT('',#442);
#233=VERTEX_POINT('',#444);
#234=VERTEX_POINT('',#447);
#235=VERTEX_POINT('',#449);
#236=VERTEX_POINT('',#453);
#237=VERTEX_POINT('',#456);
#238=EDGE_CURVE('',#219,#219,#257,.T.);
#239=EDGE_CURVE('',#220,#220,#258,.T.);
#240=EDGE_CURVE('',#221,#221,#259,.T.);
#241=EDGE_CURVE('',#222,#222,#260,.T.);
#242=EDGE_CURVE('',#223,#223,#261,.T.);
#243=EDGE_CURVE('',#224,#224,#262,.T.);
#244=EDGE_CURVE('',#225,#225,#263,.T.);
#245=EDGE_CURVE('',#226,#226,#264,.T.);
#246=EDGE_CURVE('',#227,#227,#265,.T.);
#247=EDGE_CURVE('',#228,#228,#266,.T.);
#248=EDGE_CURVE('',#229,#229,#267,.T.);
#249=EDGE_CURVE('',#230,#230,#268,.T.);
#250=EDGE_CURVE('',#231,#231,#269,.T.);
#251=EDGE_CURVE('',#232,#232,#270,.T.);
#252=EDGE_CURVE('',#233,#233,#271,.T.);
#253=EDGE_CURVE('',#234,#234,#272,.T.);
#254=EDGE_CURVE('',#235,#235,#273,.T.);
#255=EDGE_CURVE('',#236,#236,#274,.T.);
#256=EDGE_CURVE('',#237,#237,#275,.T.);
#257=CIRCLE('',#277,4.);
#258=CIRCLE('',#279,4.);
#259=CIRCLE('',#281,6.75);
#260=CIRCLE('',#283,16.);
#261=CIRCLE('',#284,16.);
#262=CIRCLE('',#286,6.75);
#263=CIRCLE('',#288,16.);
#264=CIRCLE('',#289,7.55);
#265=CIRCLE('',#293,16.);
#266=CIRCLE('',#295,12.5);
#267=CIRCLE('',#297,12.4999999999992);
#268=CIRCLE('',#300,12.5);
#269=CIRCLE('',#302,8.98647913243944);
#270=CIRCLE('',#305,16.);
#271=CIRCLE('',#306,18.);
#272=CIRCLE('',#308,20.8);
#273=CIRCLE('',#309,20.8);
#274=CIRCLE('',#312,16.);
#275=CIRCLE('',#314,19.3);
#276=AXIS2_PLACEMENT_3D('',#399,#317,#318);
#277=AXIS2_PLACEMENT_3D('',#400,#319,#320);
#278=AXIS2_PLACEMENT_3D('',#402,#321,#322);
#279=AXIS2_PLACEMENT_3D('',#403,#323,#324);
#280=AXIS2_PLACEMENT_3D('',#405,#325,#326);
#281=AXIS2_PLACEMENT_3D('',#406,#327,#328);
#282=AXIS2_PLACEMENT_3D('',#408,#329,#330);
#283=AXIS2_PLACEMENT_3D('',#409,#331,#332);
#284=AXIS2_PLACEMENT_3D('',#411,#333,#334);
#285=AXIS2_PLACEMENT_3D('',#413,#335,#336);
#286=AXIS2_PLACEMENT_3D('',#414,#337,#338);
#287=AXIS2_PLACEMENT_3D('',#416,#339,#340);
#288=AXIS2_PLACEMENT_3D('',#417,#341,#342);
#289=AXIS2_PLACEMENT_3D('',#419,#343,#344);
#290=AXIS2_PLACEMENT_3D('',#421,#345,#346);
#291=AXIS2_PLACEMENT_3D('',#422,#347,#348);
#292=AXIS2_PLACEMENT_3D('',#423,#349,#350);
#293=AXIS2_PLACEMENT_3D('',#424,#351,#352);
#294=AXIS2_PLACEMENT_3D('',#426,#353,#354);
#295=AXIS2_PLACEMENT_3D('',#427,#355,#356);
#296=AXIS2_PLACEMENT_3D('',#429,#357,#358);
#297=AXIS2_PLACEMENT_3D('',#430,#359,#360);
#298=AXIS2_PLACEMENT_3D('',#432,#361,#362);
#299=AXIS2_PLACEMENT_3D('',#433,#363,#364);
#300=AXIS2_PLACEMENT_3D('',#434,#365,#366);
#301=AXIS2_PLACEMENT_3D('',#436,#367,#368);
#302=AXIS2_PLACEMENT_3D('',#437,#369,#370);
#303=AXIS2_PLACEMENT_3D('',#439,#371,#372);
#304=AXIS2_PLACEMENT_3D('',#440,#373,#374);
#305=AXIS2_PLACEMENT_3D('',#441,#375,#376);
#306=AXIS2_PLACEMENT_3D('',#443,#377,#378);
#307=AXIS2_PLACEMENT_3D('',#445,#379,#380);
#308=AXIS2_PLACEMENT_3D('',#446,#381,#382);
#309=AXIS2_PLACEMENT_3D('',#448,#383,#384);
#310=AXIS2_PLACEMENT_3D('',#450,#385,#386);
#311=AXIS2_PLACEMENT_3D('',#451,#387,#388);
#312=AXIS2_PLACEMENT_3D('',#452,#389,#390);
#313=AXIS2_PLACEMENT_3D('',#454,#391,#392);
#314=AXIS2_PLACEMENT_3D('',#455,#393,#394);
#315=AXIS2_PLACEMENT_3D('',#457,#395,#396);
#316=AXIS2_PLACEMENT_3D('',#458,#397,#398);
#317=DIRECTION('',(0.,0.,1.));
#318=DIRECTION('',(1.,0.,0.));
#319=DIRECTION('',(0.,0.,-1.));
#320=DIRECTION('',(1.,0.,0.));
#321=DIRECTION('',(0.,0.,1.));
#322=DIRECTION('',(-1.,0.,0.));
#323=DIRECTION('',(0.,0.,1.));
#324=DIRECTION('',(-1.,0.,0.));
#325=DIRECTION('',(0.,0.,1.));
#326=DIRECTION('',(0.,-1.,0.));
#327=DIRECTION('',(0.,0.,-1.));
#328=DIRECTION('',(-1.,0.,0.));
#329=DIRECTION('',(0.,0.,-1.));
#330=DIRECTION('',(0.,1.,0.));
#331=DIRECTION('',(0.,0.,-1.));
#332=DIRECTION('',(0.,-1.,0.));
#333=DIRECTION('',(0.,0.,-1.));
#334=DIRECTION('',(0.,-1.,0.));
#335=DIRECTION('',(0.,0.,1.));
#336=DIRECTION('',(0.,-1.,0.));
#337=DIRECTION('',(0.,0.,-1.));
#338=DIRECTION('',(0.,-1.,0.));
#339=DIRECTION('',(0.,0.,-1.));
#340=DIRECTION('',(0.,1.,0.));
#341=DIRECTION('',(0.,0.,1.));
#342=DIRECTION('',(-1.,0.,0.));
#343=DIRECTION('',(0.,0.,-1.));
#344=DIRECTION('',(0.,1.,0.));
#345=DIRECTION('',(0.,0.,-1.));
#346=DIRECTION('',(0.,1.,0.));
#347=DIRECTION('',(0.,0.,-1.));
#348=DIRECTION('',(0.000227804442474193,-0.999999974052568,0.));
#349=DIRECTION('',(0.,0.,-1.));
#350=DIRECTION('',(0.,1.,0.));
#351=DIRECTION('',(0.,0.,-1.));
#352=DIRECTION('',(-1.,0.,0.));
#353=DIRECTION('',(0.,0.,-1.));
#354=DIRECTION('',(0.,1.,0.));
#355=DIRECTION('',(0.,0.,-1.));
#356=DIRECTION('',(0.,1.,0.));
#357=DIRECTION('',(0.,0.,-1.));
#358=DIRECTION('',(0.,1.,0.));
#359=DIRECTION('',(0.,0.,1.));
#360=DIRECTION('',(-1.,0.,0.));
#361=DIRECTION('',(0.,0.,-1.));
#362=DIRECTION('',(0.,1.,0.));
#363=DIRECTION('',(0.,0.,-1.));
#364=DIRECTION('',(1.,0.,0.));
#365=DIRECTION('',(0.,0.,-1.));
#366=DIRECTION('',(0.,1.,0.));
#367=DIRECTION('',(0.,0.,-1.));
#368=DIRECTION('',(1.,0.,0.));
#369=DIRECTION('',(0.,0.,1.));
#370=DIRECTION('',(-1.,0.,0.));
#371=DIRECTION('',(0.,0.,-1.));
#372=DIRECTION('',(0.,1.,0.));
#373=DIRECTION('',(0.,0.,-1.));
#374=DIRECTION('',(0.,1.,-1.26104289210432E-016));
#375=DIRECTION('',(0.,0.,1.));
#376=DIRECTION('',(1.,0.,0.));
#377=DIRECTION('',(0.,0.,-1.));
#378=DIRECTION('',(0.,1.,0.));
#379=DIRECTION('',(0.,0.,1.));
#380=DIRECTION('',(0.,-1.,0.));
#381=DIRECTION('',(0.,0.,-1.));
#382=DIRECTION('',(0.,1.,0.));
#383=DIRECTION('',(0.,0.,-1.));
#384=DIRECTION('',(0.109225955814594,0.99401694682555,0.));
#385=DIRECTION('',(0.,0.,-1.));
#386=DIRECTION('',(1.,0.,-2.25180317230648E-015));
#387=DIRECTION('',(0.,0.,1.));
#388=DIRECTION('',(0.,-1.,3.40342059245989E-018));
#389=DIRECTION('',(0.,0.,1.));
#390=DIRECTION('',(1.,0.,0.));
#391=DIRECTION('',(0.,0.,1.));
#392=DIRECTION('',(0.,-1.,0.));
#393=DIRECTION('',(0.,0.,1.));
#394=DIRECTION('',(0.,1.,0.));
#395=DIRECTION('',(0.,0.,-1.));
#396=DIRECTION('',(1.,0.,1.0211263470873E-017));
#397=DIRECTION('',(0.,0.,1.));
#398=DIRECTION('',(0.,-1.,0.));
#399=CARTESIAN_POINT('',(0.,0.,0.));
#400=CARTESIAN_POINT('',(0.,0.,-6.05));
#401=CARTESIAN_POINT('',(4.,0.,-6.05));
#402=CARTESIAN_POINT('',(0.,0.,-6.05));
#403=CARTESIAN_POINT('',(0.,0.,-14.5));
#404=CARTESIAN_POINT('',(-4.,0.,-14.5));
#405=CARTESIAN_POINT('',(0.,0.,-15.0625));
#406=CARTESIAN_POINT('',(0.,0.,-14.5));
#407=CARTESIAN_POINT('',(-6.75,0.,-14.5));
#408=CARTESIAN_POINT('',(0.,0.,-14.5));
#409=CARTESIAN_POINT('',(0.,0.,-7.596871942267));
#410=CARTESIAN_POINT('',(0.,-16.,-7.596871942267));
#411=CARTESIAN_POINT('',(0.,0.,-4.403128057733));
#412=CARTESIAN_POINT('',(0.,-16.,-4.403128057733));
#413=CARTESIAN_POINT('',(0.,0.,-6.));
#414=CARTESIAN_POINT('',(0.,0.,-10.3));
#415=CARTESIAN_POINT('',(0.,-6.75,-10.3));
#416=CARTESIAN_POINT('',(0.,0.,26.975));
#417=CARTESIAN_POINT('',(0.,0.,-9.5));
#418=CARTESIAN_POINT('',(-16.,0.,-9.5));
#419=CARTESIAN_POINT('',(0.,0.,-9.5));
#420=CARTESIAN_POINT('',(0.,7.55,-9.5));
#421=CARTESIAN_POINT('',(0.,0.,-9.5));
#422=CARTESIAN_POINT('',(0.,0.,-10.3));
#423=CARTESIAN_POINT('',(0.,0.,26.975));
#424=CARTESIAN_POINT('',(0.,0.,-2.));
#425=CARTESIAN_POINT('',(-16.,0.,-2.));
#426=CARTESIAN_POINT('',(0.,0.,26.975));
#427=CARTESIAN_POINT('',(0.,0.,-2.));
#428=CARTESIAN_POINT('',(0.,12.5,-2.));
#429=CARTESIAN_POINT('',(0.,0.,-2.));
#430=CARTESIAN_POINT('',(0.,0.,0.));
#431=CARTESIAN_POINT('',(-12.4999999999992,0.,0.));
#432=CARTESIAN_POINT('',(0.,0.,26.975));
#433=CARTESIAN_POINT('',(0.,0.,0.));
#434=CARTESIAN_POINT('',(0.,0.,-1.42247325030098E-013));
#435=CARTESIAN_POINT('',(0.,12.5,-1.42247325030098E-013));
#436=CARTESIAN_POINT('',(0.,0.,0.));
#437=CARTESIAN_POINT('',(0.,0.,25.));
#438=CARTESIAN_POINT('',(-8.98647913243944,0.,25.));
#439=CARTESIAN_POINT('',(0.,0.,25.));
#440=CARTESIAN_POINT('',(0.,0.,12.25243298281));
#441=CARTESIAN_POINT('',(0.,0.,-9.5));
#442=CARTESIAN_POINT('',(16.,0.,-9.5));
#443=CARTESIAN_POINT('',(0.,0.,-9.5));
#444=CARTESIAN_POINT('',(0.,18.,-9.5));
#445=CARTESIAN_POINT('',(0.,0.,-9.5));
#446=CARTESIAN_POINT('',(0.,0.,9.5));
#447=CARTESIAN_POINT('',(0.,20.8,9.5));
#448=CARTESIAN_POINT('',(0.,0.,-6.7));
#449=CARTESIAN_POINT('',(2.27189988094356,20.6755524939714,-6.7));
#450=CARTESIAN_POINT('',(0.,0.,9.5));
#451=CARTESIAN_POINT('',(0.,0.,-8.1));
#452=CARTESIAN_POINT('',(0.,0.,11.));
#453=CARTESIAN_POINT('',(16.,0.,11.));
#454=CARTESIAN_POINT('',(0.,0.,-9.885));
#455=CARTESIAN_POINT('',(0.,0.,11.));
#456=CARTESIAN_POINT('',(0.,19.3,11.));
#457=CARTESIAN_POINT('',(-5.51470787655403E-015,1.05274847427043E-014,11.));
#458=CARTESIAN_POINT('',(0.,0.,11.));
#459=MECHANICAL_DESIGN_GEOMETRIC_PRESENTATION_REPRESENTATION('',(#38,#39,
#40),#460);
#460=(
GEOMETRIC_REPRESENTATION_CONTEXT(3)
GLOBAL_UNCERTAINTY_ASSIGNED_CONTEXT((#461))
GLOBAL_UNIT_ASSIGNED_CONTEXT((#467,#463,#462))
REPRESENTATION_CONTEXT('BE025582008005','TOP_LEVEL_ASSEMBLY_PART')
);
#461=UNCERTAINTY_MEASURE_WITH_UNIT(LENGTH_MEASURE(2.E-005),#467,
'DISTANCE_ACCURACY_VALUE','Maximum Tolerance applied to model');
#462=(
NAMED_UNIT(*)
SI_UNIT($,.STERADIAN.)
SOLID_ANGLE_UNIT()
);
#463=(
CONVERSION_BASED_UNIT('DEGREE',#465)
NAMED_UNIT(#464)
PLANE_ANGLE_UNIT()
);
#464=DIMENSIONAL_EXPONENTS(0.,0.,0.,0.,0.,0.,0.);
#465=PLANE_ANGLE_MEASURE_WITH_UNIT(PLANE_ANGLE_MEASURE(0.0174532925),#466);
#466=(
NAMED_UNIT(*)
PLANE_ANGLE_UNIT()
SI_UNIT($,.RADIAN.)
);
#467=(
LENGTH_UNIT()
NAMED_UNIT(*)
SI_UNIT(.MILLI.,.METRE.)
);
ENDSEC;
END-ISO-10303-21;
