ISO-10303-21;
HEADER;
/* Generated by software containing ST-Developer
 * from STEP Tools, Inc. (www.steptools.com) 
 */
/* OPTION: using custom schema-name function */

FILE_DESCRIPTION(
/* description */ (''),
/* implementation_level */ '2;1');

FILE_NAME(
/* name */ 'BC04058211660.stp',
/* time_stamp */ '2017-09-14T10:19:50+06:00',
/* author */ (''),
/* organization */ (''),
/* preprocessor_version */ 'ST-DEVELOPER v16',
/* originating_system */ 'SIEMENS PLM Software NX 11.0',
/* authorisation */ '');

FILE_SCHEMA (('AUTOMOTIVE_DESIGN { 1 0 10303 214 3 1 1 1 }'));
ENDSEC;

DATA;
#10=CONSTRUCTIVE_GEOMETRY_REPRESENTATION_RELATIONSHIP(
'supplemental geometry','',#24,#11);
#11=CONSTRUCTIVE_GEOMETRY_REPRESENTATION('supplemental geometry',(#234,
#235,#236),#450);
#12=SHAPE_REPRESENTATION_RELATIONSHIP('None',
'relationship between BC04058211660-None and BC04058211660-None',#24,#13);
#13=ADVANCED_BREP_SHAPE_REPRESENTATION('BC04058211660-None',(#38,#39),#450);
#14=SHAPE_DEFINITION_REPRESENTATION(#15,#24);
#15=PRODUCT_DEFINITION_SHAPE('','',#16);
#16=PRODUCT_DEFINITION(' ','',#18,#17);
#17=PRODUCT_DEFINITION_CONTEXT('part definition',#23,'design');
#18=PRODUCT_DEFINITION_FORMATION_WITH_SPECIFIED_SOURCE(' ',' ',#20,
 .NOT_KNOWN.);
#19=PRODUCT_RELATED_PRODUCT_CATEGORY('part','',(#20));
#20=PRODUCT('BC04058211660','BC04058211660',' ',(#21));
#21=PRODUCT_CONTEXT(' ',#23,'mechanical');
#22=APPLICATION_PROTOCOL_DEFINITION('international standard',
'automotive_design',2010,#23);
#23=APPLICATION_CONTEXT(
'core data for automotive mechanical design processes');
#24=SHAPE_REPRESENTATION('BC04058211660-None',(#233),#450);
#25=B_SPLINE_CURVE_WITH_KNOTS('',3,(#367,#368,#369,#370,#371,#372,#373,
#374,#375,#376,#377,#378,#379,#380,#381,#382,#383,#384,#385,#386,#387,#388,
#389),.UNSPECIFIED.,.F.,.F.,(4,1,1,1,1,1,1,1,1,1,1,1,1,1,1,1,1,1,1,1,4),
(0.,0.05,0.1,0.15,0.2,0.25,0.3,0.35,0.4,0.45,0.5,0.55,0.6,0.65,0.7,0.75,
0.8,0.85,0.9,0.95,1.),.UNSPECIFIED.);
#26=B_SPLINE_CURVE_WITH_KNOTS('',3,(#392,#393,#394,#395,#396,#397,#398,
#399,#400,#401,#402,#403,#404,#405,#406,#407,#408,#409,#410,#411,#412,#413,
#414),.UNSPECIFIED.,.F.,.F.,(4,1,1,1,1,1,1,1,1,1,1,1,1,1,1,1,1,1,1,1,4),
(0.,0.05,0.1,0.15,0.2,0.25,0.3,0.35,0.4,0.45,0.5,0.55,0.6,0.65,0.7,0.75,
0.8,0.85,0.9,0.95,1.),.UNSPECIFIED.);
#27=B_SPLINE_CURVE_WITH_KNOTS('',3,(#416,#417,#418,#419,#420,#421,#422,
#423,#424,#425,#426,#427,#428,#429,#430,#431,#432,#433),.UNSPECIFIED.,.T.,
 .F.,(2,2,2,2,2,2,2,2,2,2,2),(-0.125,0.,0.125,0.25,0.375,0.5,0.625,0.75,
0.875,1.,1.125),.UNSPECIFIED.);
#28=SURFACE_STYLE_USAGE(.BOTH.,#30);
#29=SURFACE_STYLE_USAGE(.BOTH.,#31);
#30=SURFACE_SIDE_STYLE('',(#32));
#31=SURFACE_SIDE_STYLE('',(#33));
#32=SURFACE_STYLE_FILL_AREA(#34);
#33=SURFACE_STYLE_FILL_AREA(#35);
#34=FILL_AREA_STYLE('',(#36));
#35=FILL_AREA_STYLE('',(#37));
#36=FILL_AREA_STYLE_COLOUR('',#229);
#37=FILL_AREA_STYLE_COLOUR('',#229);
#38=MANIFOLD_SOLID_BREP('NOCUT',#40);
#39=MANIFOLD_SOLID_BREP('NOCUT',#41);
#40=CLOSED_SHELL('',(#78,#79,#80,#81,#82));
#41=CLOSED_SHELL('',(#83,#84,#85,#86,#87,#88,#89,#90,#91,#92,#93,#94));
#42=CYLINDRICAL_SURFACE('',#244,12.5);
#43=CYLINDRICAL_SURFACE('',#248,15.);
#44=CYLINDRICAL_SURFACE('',#251,15.2835);
#45=CYLINDRICAL_SURFACE('',#262,8.);
#46=CYLINDRICAL_SURFACE('',#265,8.5);
#47=CONICAL_SURFACE('',#240,14.47808177882,1.2915);
#48=CONICAL_SURFACE('',#242,12.91133176142,45.00000017096);
#49=CONICAL_SURFACE('',#254,15.45849987841,29.99999972503);
#50=CONICAL_SURFACE('',#260,8.,45.);
#51=CONICAL_SURFACE('',#264,8.5,30.);
#52=FACE_BOUND('',#107,.T.);
#53=FACE_BOUND('',#108,.T.);
#54=FACE_BOUND('',#109,.T.);
#55=FACE_BOUND('',#110,.T.);
#56=FACE_BOUND('',#111,.T.);
#57=FACE_BOUND('',#112,.T.);
#58=FACE_BOUND('',#114,.T.);
#59=FACE_BOUND('',#115,.T.);
#60=FACE_BOUND('',#116,.T.);
#61=FACE_BOUND('',#117,.T.);
#62=FACE_BOUND('',#119,.T.);
#63=FACE_BOUND('',#120,.T.);
#64=FACE_BOUND('',#121,.T.);
#65=FACE_BOUND('',#122,.T.);
#66=FACE_BOUND('',#123,.T.);
#67=FACE_BOUND('',#124,.T.);
#68=FACE_BOUND('',#125,.T.);
#69=FACE_BOUND('',#126,.T.);
#70=FACE_BOUND('',#127,.T.);
#71=FACE_BOUND('',#128,.T.);
#72=FACE_BOUND('',#129,.T.);
#73=FACE_BOUND('',#130,.T.);
#74=FACE_BOUND('',#131,.T.);
#75=FACE_BOUND('',#132,.T.);
#76=FACE_BOUND('',#133,.T.);
#77=FACE_BOUND('',#134,.T.);
#78=ADVANCED_FACE('',(#102),#95,.F.);
#79=ADVANCED_FACE('',(#52,#53),#47,.T.);
#80=ADVANCED_FACE('',(#54,#55),#48,.T.);
#81=ADVANCED_FACE('',(#56,#57),#42,.T.);
#82=ADVANCED_FACE('',(#103),#96,.F.);
#83=ADVANCED_FACE('',(#58,#59),#43,.T.);
#84=ADVANCED_FACE('',(#60,#61),#44,.T.);
#85=ADVANCED_FACE('',(#104),#97,.T.);
#86=ADVANCED_FACE('',(#62,#63),#49,.T.);
#87=ADVANCED_FACE('',(#64,#65),#98,.T.);
#88=ADVANCED_FACE('',(#66,#67),#99,.F.);
#89=ADVANCED_FACE('',(#68,#69),#100,.F.);
#90=ADVANCED_FACE('',(#70,#71),#50,.F.);
#91=ADVANCED_FACE('',(#72,#73),#45,.F.);
#92=ADVANCED_FACE('',(#74,#75),#51,.F.);
#93=ADVANCED_FACE('',(#76,#77),#46,.F.);
#94=ADVANCED_FACE('',(#105),#101,.T.);
#95=PLANE('',#238);
#96=PLANE('',#245);
#97=PLANE('',#253);
#98=PLANE('',#255);
#99=PLANE('',#256);
#100=PLANE('',#257);
#101=PLANE('',#266);
#102=FACE_OUTER_BOUND('',#106,.T.);
#103=FACE_OUTER_BOUND('',#113,.T.);
#104=FACE_OUTER_BOUND('',#118,.T.);
#105=FACE_OUTER_BOUND('',#135,.T.);
#106=EDGE_LOOP('',(#136));
#107=EDGE_LOOP('',(#137));
#108=EDGE_LOOP('',(#138));
#109=EDGE_LOOP('',(#139));
#110=EDGE_LOOP('',(#140));
#111=EDGE_LOOP('',(#141));
#112=EDGE_LOOP('',(#142));
#113=EDGE_LOOP('',(#143));
#114=EDGE_LOOP('',(#144));
#115=EDGE_LOOP('',(#145));
#116=EDGE_LOOP('',(#146));
#117=EDGE_LOOP('',(#147));
#118=EDGE_LOOP('',(#148));
#119=EDGE_LOOP('',(#149));
#120=EDGE_LOOP('',(#150));
#121=EDGE_LOOP('',(#151));
#122=EDGE_LOOP('',(#152));
#123=EDGE_LOOP('',(#153,#154));
#124=EDGE_LOOP('',(#155));
#125=EDGE_LOOP('',(#156));
#126=EDGE_LOOP('',(#157,#158));
#127=EDGE_LOOP('',(#159));
#128=EDGE_LOOP('',(#160));
#129=EDGE_LOOP('',(#161));
#130=EDGE_LOOP('',(#162));
#131=EDGE_LOOP('',(#163));
#132=EDGE_LOOP('',(#164));
#133=EDGE_LOOP('',(#165));
#134=EDGE_LOOP('',(#166));
#135=EDGE_LOOP('',(#167));
#136=ORIENTED_EDGE('',*,*,#184,.T.);
#137=ORIENTED_EDGE('',*,*,#185,.F.);
#138=ORIENTED_EDGE('',*,*,#184,.F.);
#139=ORIENTED_EDGE('',*,*,#186,.F.);
#140=ORIENTED_EDGE('',*,*,#185,.T.);
#141=ORIENTED_EDGE('',*,*,#186,.T.);
#142=ORIENTED_EDGE('',*,*,#187,.T.);
#143=ORIENTED_EDGE('',*,*,#187,.F.);
#144=ORIENTED_EDGE('',*,*,#188,.F.);
#145=ORIENTED_EDGE('',*,*,#189,.T.);
#146=ORIENTED_EDGE('',*,*,#190,.T.);
#147=ORIENTED_EDGE('',*,*,#191,.F.);
#148=ORIENTED_EDGE('',*,*,#192,.F.);
#149=ORIENTED_EDGE('',*,*,#190,.F.);
#150=ORIENTED_EDGE('',*,*,#192,.T.);
#151=ORIENTED_EDGE('',*,*,#188,.T.);
#152=ORIENTED_EDGE('',*,*,#191,.T.);
#153=ORIENTED_EDGE('',*,*,#193,.F.);
#154=ORIENTED_EDGE('',*,*,#194,.T.);
#155=ORIENTED_EDGE('',*,*,#189,.F.);
#156=ORIENTED_EDGE('',*,*,#195,.F.);
#157=ORIENTED_EDGE('',*,*,#194,.F.);
#158=ORIENTED_EDGE('',*,*,#193,.T.);
#159=ORIENTED_EDGE('',*,*,#196,.F.);
#160=ORIENTED_EDGE('',*,*,#197,.T.);
#161=ORIENTED_EDGE('',*,*,#198,.F.);
#162=ORIENTED_EDGE('',*,*,#196,.T.);
#163=ORIENTED_EDGE('',*,*,#199,.F.);
#164=ORIENTED_EDGE('',*,*,#198,.T.);
#165=ORIENTED_EDGE('',*,*,#199,.T.);
#166=ORIENTED_EDGE('',*,*,#195,.T.);
#167=ORIENTED_EDGE('',*,*,#197,.F.);
#168=VERTEX_POINT('',#340);
#169=VERTEX_POINT('',#343);
#170=VERTEX_POINT('',#346);
#171=VERTEX_POINT('',#349);
#172=VERTEX_POINT('',#353);
#173=VERTEX_POINT('',#355);
#174=VERTEX_POINT('',#358);
#175=VERTEX_POINT('',#360);
#176=VERTEX_POINT('',#363);
#177=VERTEX_POINT('',#390);
#178=VERTEX_POINT('',#391);
#179=VERTEX_POINT('',#434);
#180=VERTEX_POINT('',#437);
#181=VERTEX_POINT('',#439);
#182=VERTEX_POINT('',#442);
#183=VERTEX_POINT('',#445);
#184=EDGE_CURVE('',#168,#168,#200,.T.);
#185=EDGE_CURVE('',#169,#169,#201,.T.);
#186=EDGE_CURVE('',#170,#170,#202,.T.);
#187=EDGE_CURVE('',#171,#171,#203,.T.);
#188=EDGE_CURVE('',#172,#172,#204,.T.);
#189=EDGE_CURVE('',#173,#173,#205,.T.);
#190=EDGE_CURVE('',#174,#174,#206,.T.);
#191=EDGE_CURVE('',#175,#175,#207,.T.);
#192=EDGE_CURVE('',#176,#176,#208,.T.);
#193=EDGE_CURVE('',#177,#178,#25,.T.);
#194=EDGE_CURVE('',#177,#178,#26,.T.);
#195=EDGE_CURVE('',#179,#179,#27,.T.);
#196=EDGE_CURVE('',#180,#180,#209,.T.);
#197=EDGE_CURVE('',#181,#181,#210,.T.);
#198=EDGE_CURVE('',#182,#182,#211,.T.);
#199=EDGE_CURVE('',#183,#183,#212,.T.);
#200=CIRCLE('',#237,15.63349999349);
#201=CIRCLE('',#239,13.5302461725202);
#202=CIRCLE('',#241,12.5);
#203=CIRCLE('',#243,12.5);
#204=CIRCLE('',#246,15.);
#205=CIRCLE('',#247,15.);
#206=CIRCLE('',#249,15.2835);
#207=CIRCLE('',#250,15.2835);
#208=CIRCLE('',#252,15.6334999934918);
#209=CIRCLE('',#258,8.);
#210=CIRCLE('',#259,6.);
#211=CIRCLE('',#261,8.);
#212=CIRCLE('',#263,8.5);
#213=PRESENTATION_LAYER_ASSIGNMENT('1','Layer 1',(#234,#235,#236,#38));
#214=PRESENTATION_LAYER_ASSIGNMENT('2','Layer 2',(#39));
#215=STYLED_ITEM('',(#220),#234);
#216=STYLED_ITEM('',(#221),#235);
#217=STYLED_ITEM('',(#222),#236);
#218=STYLED_ITEM('',(#223),#38);
#219=STYLED_ITEM('',(#224),#39);
#220=PRESENTATION_STYLE_ASSIGNMENT((#225));
#221=PRESENTATION_STYLE_ASSIGNMENT((#226));
#222=PRESENTATION_STYLE_ASSIGNMENT((#227));
#223=PRESENTATION_STYLE_ASSIGNMENT((#28));
#224=PRESENTATION_STYLE_ASSIGNMENT((#29));
#225=CURVE_STYLE('',#230,POSITIVE_LENGTH_MEASURE(0.18),#228);
#226=CURVE_STYLE('',#231,POSITIVE_LENGTH_MEASURE(0.18),#228);
#227=CURVE_STYLE('',#232,POSITIVE_LENGTH_MEASURE(0.18),#228);
#228=COLOUR_RGB('Strong Stone',0.576470588235294,0.54508278019379,0.392156862745098);
#229=COLOUR_RGB('Medium Gray',0.490196078431373,0.490196078431373,0.490196078431373);
#230=DRAUGHTING_PRE_DEFINED_CURVE_FONT('continuous');
#231=DRAUGHTING_PRE_DEFINED_CURVE_FONT('continuous');
#232=DRAUGHTING_PRE_DEFINED_CURVE_FONT('continuous');
#233=AXIS2_PLACEMENT_3D('',#335,#267,#268);
#234=AXIS2_PLACEMENT_3D('PCS',#336,#269,#270);
#235=AXIS2_PLACEMENT_3D('MCS',#337,#271,#272);
#236=AXIS2_PLACEMENT_3D('CSW',#338,#273,#274);
#237=AXIS2_PLACEMENT_3D('',#339,#275,#276);
#238=AXIS2_PLACEMENT_3D('',#341,#277,#278);
#239=AXIS2_PLACEMENT_3D('',#342,#279,#280);
#240=AXIS2_PLACEMENT_3D('',#344,#281,#282);
#241=AXIS2_PLACEMENT_3D('',#345,#283,#284);
#242=AXIS2_PLACEMENT_3D('',#347,#285,#286);
#243=AXIS2_PLACEMENT_3D('',#348,#287,#288);
#244=AXIS2_PLACEMENT_3D('',#350,#289,#290);
#245=AXIS2_PLACEMENT_3D('',#351,#291,#292);
#246=AXIS2_PLACEMENT_3D('',#352,#293,#294);
#247=AXIS2_PLACEMENT_3D('',#354,#295,#296);
#248=AXIS2_PLACEMENT_3D('',#356,#297,#298);
#249=AXIS2_PLACEMENT_3D('',#357,#299,#300);
#250=AXIS2_PLACEMENT_3D('',#359,#301,#302);
#251=AXIS2_PLACEMENT_3D('',#361,#303,#304);
#252=AXIS2_PLACEMENT_3D('',#362,#305,#306);
#253=AXIS2_PLACEMENT_3D('',#364,#307,#308);
#254=AXIS2_PLACEMENT_3D('',#365,#309,#310);
#255=AXIS2_PLACEMENT_3D('',#366,#311,#312);
#256=AXIS2_PLACEMENT_3D('',#415,#313,#314);
#257=AXIS2_PLACEMENT_3D('',#435,#315,#316);
#258=AXIS2_PLACEMENT_3D('',#436,#317,#318);
#259=AXIS2_PLACEMENT_3D('',#438,#319,#320);
#260=AXIS2_PLACEMENT_3D('',#440,#321,#322);
#261=AXIS2_PLACEMENT_3D('',#441,#323,#324);
#262=AXIS2_PLACEMENT_3D('',#443,#325,#326);
#263=AXIS2_PLACEMENT_3D('',#444,#327,#328);
#264=AXIS2_PLACEMENT_3D('',#446,#329,#330);
#265=AXIS2_PLACEMENT_3D('',#447,#331,#332);
#266=AXIS2_PLACEMENT_3D('',#448,#333,#334);
#267=DIRECTION('',(0.,0.,1.));
#268=DIRECTION('',(1.,0.,0.));
#269=DIRECTION('',(0.,0.,1.));
#270=DIRECTION('',(1.,0.,0.));
#271=DIRECTION('',(0.,0.,1.));
#272=DIRECTION('',(1.,0.,0.));
#273=DIRECTION('',(0.,0.,1.));
#274=DIRECTION('',(1.,0.,0.));
#275=DIRECTION('',(0.,0.,-1.));
#276=DIRECTION('',(1.,0.,0.));
#277=DIRECTION('',(0.,0.,1.));
#278=DIRECTION('',(-1.,0.,0.));
#279=DIRECTION('',(0.,0.,1.));
#280=DIRECTION('',(1.,0.,0.));
#281=DIRECTION('',(0.,0.,-1.));
#282=DIRECTION('',(-1.,0.,3.74844082792285E-16));
#283=DIRECTION('',(0.,0.,1.));
#284=DIRECTION('',(0.,-1.,0.));
#285=DIRECTION('',(0.,0.,-1.));
#286=DIRECTION('',(0.,1.,0.));
#287=DIRECTION('',(0.,0.,-1.));
#288=DIRECTION('',(0.,1.,0.));
#289=DIRECTION('',(0.,0.,-1.));
#290=DIRECTION('',(0.,-1.,0.));
#291=DIRECTION('',(0.,0.,-1.));
#292=DIRECTION('',(0.,-1.,0.));
#293=DIRECTION('',(0.,0.,1.));
#294=DIRECTION('',(0.,-1.,0.));
#295=DIRECTION('',(0.,0.,1.));
#296=DIRECTION('',(0.,1.,0.));
#297=DIRECTION('',(0.,0.,1.));
#298=DIRECTION('',(0.,1.,0.));
#299=DIRECTION('',(0.,0.,-1.));
#300=DIRECTION('',(0.,1.,0.));
#301=DIRECTION('',(0.,0.,-1.));
#302=DIRECTION('',(0.,1.,0.));
#303=DIRECTION('',(0.,0.,-1.));
#304=DIRECTION('',(0.,-1.,0.));
#305=DIRECTION('',(0.,0.,-1.));
#306=DIRECTION('',(1.,0.,0.));
#307=DIRECTION('',(0.,0.,1.));
#308=DIRECTION('',(-1.,0.,0.));
#309=DIRECTION('',(0.,0.,1.));
#310=DIRECTION('',(0.,1.,-9.34580163163442E-17));
#311=DIRECTION('',(0.,0.,-1.));
#312=DIRECTION('',(0.,-1.,0.));
#313=DIRECTION('',(0.,0.,1.));
#314=DIRECTION('',(0.,1.,0.));
#315=DIRECTION('',(0.,0.,1.));
#316=DIRECTION('',(0.,1.,0.));
#317=DIRECTION('',(0.,0.,1.));
#318=DIRECTION('',(1.,0.,0.));
#319=DIRECTION('',(0.,0.,1.));
#320=DIRECTION('',(1.,0.,0.));
#321=DIRECTION('',(0.,0.,-1.));
#322=DIRECTION('',(1.,0.,5.50705865389463E-17));
#323=DIRECTION('',(0.,0.,1.));
#324=DIRECTION('',(1.,0.,0.));
#325=DIRECTION('',(0.,0.,1.));
#326=DIRECTION('',(-1.,0.,0.));
#327=DIRECTION('',(0.,0.,1.));
#328=DIRECTION('',(1.,0.,0.));
#329=DIRECTION('',(0.,0.,-1.));
#330=DIRECTION('',(1.,0.,-1.53973848771241E-16));
#331=DIRECTION('',(0.,0.,1.));
#332=DIRECTION('',(-1.,0.,0.));
#333=DIRECTION('',(0.,0.,-1.));
#334=DIRECTION('',(1.,0.,0.));
#335=CARTESIAN_POINT('',(0.,0.,0.));
#336=CARTESIAN_POINT('',(0.,0.,0.));
#337=CARTESIAN_POINT('',(0.,0.,0.));
#338=CARTESIAN_POINT('',(1.255221509131E-14,0.,-60.000000288832));
#339=CARTESIAN_POINT('',(0.,0.,0.));
#340=CARTESIAN_POINT('',(15.63349999349,0.,0.));
#341=CARTESIAN_POINT('',(0.,0.,0.));
#342=CARTESIAN_POINT('',(1.255221509131E-14,2.84217094304E-14,93.2924171853612));
#343=CARTESIAN_POINT('',(13.5302461725202,2.84217094304E-14,93.2924171853612));
#344=CARTESIAN_POINT('',(1.255221509131E-14,0.,51.249999896248));
#345=CARTESIAN_POINT('',(-3.5369999251511E-23,0.,94.322663267468));
#346=CARTESIAN_POINT('',(-3.5369999251511E-23,-12.5,94.322663267468));
#347=CARTESIAN_POINT('',(1.255221509131E-14,2.84217094304E-14,93.911331592768));
#348=CARTESIAN_POINT('',(-3.5369999251511E-23,0.,102.499999711168));
#349=CARTESIAN_POINT('',(-3.5369999251511E-23,12.5,102.499999711168));
#350=CARTESIAN_POINT('',(-3.5369999251511E-23,0.,93.499999711168));
#351=CARTESIAN_POINT('',(1.255221509131E-14,0.,102.499999711168));
#352=CARTESIAN_POINT('',(1.255221509131E-14,0.,-6.50000028883199));
#353=CARTESIAN_POINT('',(1.255221509131E-14,-15.,-6.50000028883199));
#354=CARTESIAN_POINT('',(1.255221509131E-14,0.,-60.000000288832));
#355=CARTESIAN_POINT('',(1.255221509131E-14,15.,-60.000000288832));
#356=CARTESIAN_POINT('',(1.255221509131E-14,0.,-62.750000288832));
#357=CARTESIAN_POINT('',(-3.5369999251511E-23,0.,-0.606218056976485));
#358=CARTESIAN_POINT('',(-3.5369999251511E-23,15.2835,-0.606218056976485));
#359=CARTESIAN_POINT('',(-3.5369999251511E-23,0.,-6.50000028883199));
#360=CARTESIAN_POINT('',(-3.5369999251511E-23,15.2835,-6.50000028883199));
#361=CARTESIAN_POINT('',(-3.5369999251511E-23,0.,-2.88831986106075E-7));
#362=CARTESIAN_POINT('',(4.55850643354E-14,4.085620730621E-14,0.));
#363=CARTESIAN_POINT('',(15.6334999934918,4.085620730621E-14,0.));
#364=CARTESIAN_POINT('',(0.,0.,0.));
#365=CARTESIAN_POINT('',(4.55850643354E-14,4.085620730621E-14,-0.303109094011489));
#366=CARTESIAN_POINT('',(1.255221509131E-14,0.,-6.50000028883199));
#367=CARTESIAN_POINT('',(1.255221509131E-14,-14.75,-60.000000288832));
#368=CARTESIAN_POINT('',(-0.778605461723887,-14.74925474663,-60.000000288832));
#369=CARTESIAN_POINT('',(-2.31399293454299,-14.62878233954,-60.000000288832));
#370=CARTESIAN_POINT('',(-4.57756669257399,-14.08579783434,-60.000000288832));
#371=CARTESIAN_POINT('',(-6.72374429734299,-13.1965280152,-60.000000288832));
#372=CARTESIAN_POINT('',(-8.70561534500199,-11.98216749551,-60.000000288832));
#373=CARTESIAN_POINT('',(-10.47278915053,-10.47280600493,-60.000000288832));
#374=CARTESIAN_POINT('',(-11.98217818788,-8.705558619779,-60.000000288832));
#375=CARTESIAN_POINT('',(-13.19650210013,-6.723954343837,-60.000000288832));
#376=CARTESIAN_POINT('',(-14.08589080225,-4.576783231821,-60.000000288832));
#377=CARTESIAN_POINT('',(-14.62843638298,-2.31691673106,-60.000000288832));
#378=CARTESIAN_POINT('',(-14.81078180851,0.,-60.000000288832));
#379=CARTESIAN_POINT('',(-14.62843638298,2.31691673106,-60.000000288832));
#380=CARTESIAN_POINT('',(-14.08589080225,4.576783231821,-60.000000288832));
#381=CARTESIAN_POINT('',(-13.19650210013,6.723954343837,-60.000000288832));
#382=CARTESIAN_POINT('',(-11.98217818788,8.705558619779,-60.000000288832));
#383=CARTESIAN_POINT('',(-10.47278915053,10.47280600493,-60.000000288832));
#384=CARTESIAN_POINT('',(-8.70561534500199,11.98216749551,-60.000000288832));
#385=CARTESIAN_POINT('',(-6.72374429734299,13.1965280152,-60.000000288832));
#386=CARTESIAN_POINT('',(-4.57756669257399,14.08579783434,-60.000000288832));
#387=CARTESIAN_POINT('',(-2.31399293454299,14.62878233954,-60.000000288832));
#388=CARTESIAN_POINT('',(-0.778605461723887,14.74925474663,-60.000000288832));
#389=CARTESIAN_POINT('',(1.255221509131E-14,14.75,-60.000000288832));
#390=CARTESIAN_POINT('',(0.,-14.75,-60.000000288832));
#391=CARTESIAN_POINT('',(0.,14.75,-60.000000288832));
#392=CARTESIAN_POINT('',(1.255221509131E-14,-14.75,-60.000000288832));
#393=CARTESIAN_POINT('',(0.778605461723913,-14.74925474663,-60.000000288832));
#394=CARTESIAN_POINT('',(2.31399293454301,-14.62878233954,-60.000000288832));
#395=CARTESIAN_POINT('',(4.57756669257401,-14.08579783434,-60.000000288832));
#396=CARTESIAN_POINT('',(6.72374429734301,-13.1965280152,-60.000000288832));
#397=CARTESIAN_POINT('',(8.70561534500201,-11.98216749551,-60.000000288832));
#398=CARTESIAN_POINT('',(10.47278915053,-10.47280600493,-60.000000288832));
#399=CARTESIAN_POINT('',(11.98217818788,-8.705558619779,-60.000000288832));
#400=CARTESIAN_POINT('',(13.19650210013,-6.723954343837,-60.000000288832));
#401=CARTESIAN_POINT('',(14.08589080225,-4.576783231821,-60.000000288832));
#402=CARTESIAN_POINT('',(14.62843638298,-2.31691673106,-60.000000288832));
#403=CARTESIAN_POINT('',(14.81078180851,0.,-60.000000288832));
#404=CARTESIAN_POINT('',(14.62843638298,2.31691673106,-60.000000288832));
#405=CARTESIAN_POINT('',(14.08589080225,4.576783231821,-60.000000288832));
#406=CARTESIAN_POINT('',(13.19650210013,6.723954343837,-60.000000288832));
#407=CARTESIAN_POINT('',(11.98217818788,8.705558619779,-60.000000288832));
#408=CARTESIAN_POINT('',(10.47278915053,10.47280600493,-60.000000288832));
#409=CARTESIAN_POINT('',(8.70561534500201,11.98216749551,-60.000000288832));
#410=CARTESIAN_POINT('',(6.72374429734301,13.1965280152,-60.000000288832));
#411=CARTESIAN_POINT('',(4.57756669257401,14.08579783434,-60.000000288832));
#412=CARTESIAN_POINT('',(2.31399293454301,14.62878233954,-60.000000288832));
#413=CARTESIAN_POINT('',(0.778605461723913,14.74925474663,-60.000000288832));
#414=CARTESIAN_POINT('',(1.255221509131E-14,14.75,-60.000000288832));
#415=CARTESIAN_POINT('',(1.255221509131E-14,0.,-60.000000288832));
#416=CARTESIAN_POINT('',(8.5,2.22529479629277,-60.000000289));
#417=CARTESIAN_POINT('',(8.5,-2.22529479629277,-60.000000289));
#418=CARTESIAN_POINT('',(7.58392868068341,-4.43688659948789,-60.000000289));
#419=CARTESIAN_POINT('',(4.4368865994879,-7.5839286806834,-60.000000289));
#420=CARTESIAN_POINT('',(2.22529479629277,-8.5,-60.000000289));
#421=CARTESIAN_POINT('',(-2.22529479629277,-8.5,-60.000000289));
#422=CARTESIAN_POINT('',(-4.43688659948791,-7.58392868068341,-60.000000289));
#423=CARTESIAN_POINT('',(-7.58392868068341,-4.43688659948789,-60.000000289));
#424=CARTESIAN_POINT('',(-8.5,-2.22529479629276,-60.000000289));
#425=CARTESIAN_POINT('',(-8.5,2.22529479629277,-60.000000289));
#426=CARTESIAN_POINT('',(-7.58392868068341,4.4368865994879,-60.000000289));
#427=CARTESIAN_POINT('',(-4.4368865994879,7.58392868068341,-60.000000289));
#428=CARTESIAN_POINT('',(-2.22529479629277,8.5,-60.000000289));
#429=CARTESIAN_POINT('',(2.22529479629277,8.5,-60.000000289));
#430=CARTESIAN_POINT('',(4.4368865994879,7.58392868068341,-60.000000289));
#431=CARTESIAN_POINT('',(7.58392868068341,4.4368865994879,-60.000000289));
#432=CARTESIAN_POINT('',(8.5,2.22529479629277,-60.000000289));
#433=CARTESIAN_POINT('',(8.5,-2.22529479629277,-60.000000289));
#434=CARTESIAN_POINT('',(8.5,-5.20474889637625E-16,-60.000000288916));
#435=CARTESIAN_POINT('',(1.255221509131E-14,0.,-60.000000288832));
#436=CARTESIAN_POINT('',(0.,0.,-39.250000289));
#437=CARTESIAN_POINT('',(8.,0.,-39.250000289));
#438=CARTESIAN_POINT('',(0.,0.,-37.250000289));
#439=CARTESIAN_POINT('',(6.,0.,-37.250000289));
#440=CARTESIAN_POINT('',(0.,0.,-39.250000289));
#441=CARTESIAN_POINT('',(0.,0.,-54.1339748852156));
#442=CARTESIAN_POINT('',(8.,0.,-54.1339748852156));
#443=CARTESIAN_POINT('',(0.,0.,-60.000000289));
#444=CARTESIAN_POINT('',(0.,0.,-55.000000289));
#445=CARTESIAN_POINT('',(8.5,0.,-55.000000289));
#446=CARTESIAN_POINT('',(0.,0.,-55.000000289));
#447=CARTESIAN_POINT('',(0.,0.,-60.000000289));
#448=CARTESIAN_POINT('',(0.,6.,-37.250000289));
#449=MECHANICAL_DESIGN_GEOMETRIC_PRESENTATION_REPRESENTATION('',(#215,#216,
#217,#218,#219),#450);
#450=(
GEOMETRIC_REPRESENTATION_CONTEXT(3)
GLOBAL_UNCERTAINTY_ASSIGNED_CONTEXT((#451))
GLOBAL_UNIT_ASSIGNED_CONTEXT((#457,#453,#452))
REPRESENTATION_CONTEXT('BC04058211660','TOP_LEVEL_ASSEMBLY_PART')
);
#451=UNCERTAINTY_MEASURE_WITH_UNIT(LENGTH_MEASURE(0.0508),#457,
'DISTANCE_ACCURACY_VALUE','Maximum Tolerance applied to model');
#452=(
NAMED_UNIT(*)
SI_UNIT($,.STERADIAN.)
SOLID_ANGLE_UNIT()
);
#453=(
CONVERSION_BASED_UNIT('DEGREE',#455)
NAMED_UNIT(#454)
PLANE_ANGLE_UNIT()
);
#454=DIMENSIONAL_EXPONENTS(0.,0.,0.,0.,0.,0.,0.);
#455=PLANE_ANGLE_MEASURE_WITH_UNIT(PLANE_ANGLE_MEASURE(0.0174532925),#456);
#456=(
NAMED_UNIT(*)
PLANE_ANGLE_UNIT()
SI_UNIT($,.RADIAN.)
);
#457=(
LENGTH_UNIT()
NAMED_UNIT(*)
SI_UNIT(.MILLI.,.METRE.)
);
ENDSEC;
END-ISO-10303-21;
