ISO-10303-21;
HEADER;
/* Generated by software containing ST-Developer
 * from STEP Tools, Inc. (www.steptools.com) 
 */
/* OPTION: using custom schema-name function */

FILE_DESCRIPTION(
/* description */ (''),
/* implementation_level */ '2;1');

FILE_NAME(
/* name */ 'BC040582116100.stp',
/* time_stamp */ '2017-09-14T10:19:50+06:00',
/* author */ (''),
/* organization */ (''),
/* preprocessor_version */ 'ST-DEVELOPER v16',
/* originating_system */ 'SIEMENS PLM Software NX 11.0',
/* authorisation */ '');

FILE_SCHEMA (('AUTOMOTIVE_DESIGN { 1 0 10303 214 3 1 1 1 }'));
ENDSEC;

DATA;
#10=CONSTRUCTIVE_GEOMETRY_REPRESENTATION_RELATIONSHIP(
'supplemental geometry','',#24,#11);
#11=CONSTRUCTIVE_GEOMETRY_REPRESENTATION('supplemental geometry',(#256,
#257,#258),#472);
#12=SHAPE_REPRESENTATION_RELATIONSHIP('None',
'relationship between BC040582116100-None and BC040582116100-None',#24,
#13);
#13=ADVANCED_BREP_SHAPE_REPRESENTATION('BC040582116100-None',(#35,#36),
#472);
#14=SHAPE_DEFINITION_REPRESENTATION(#15,#24);
#15=PRODUCT_DEFINITION_SHAPE('','',#16);
#16=PRODUCT_DEFINITION(' ','',#18,#17);
#17=PRODUCT_DEFINITION_CONTEXT('part definition',#23,'design');
#18=PRODUCT_DEFINITION_FORMATION_WITH_SPECIFIED_SOURCE(' ',' ',#20,
 .NOT_KNOWN.);
#19=PRODUCT_RELATED_PRODUCT_CATEGORY('part','',(#20));
#20=PRODUCT('BC040582116100','BC040582116100',' ',(#21));
#21=PRODUCT_CONTEXT(' ',#23,'mechanical');
#22=APPLICATION_PROTOCOL_DEFINITION('international standard',
'automotive_design',2010,#23);
#23=APPLICATION_CONTEXT(
'core data for automotive mechanical design processes');
#24=SHAPE_REPRESENTATION('BC040582116100-None',(#255),#472);
#25=SURFACE_STYLE_USAGE(.BOTH.,#27);
#26=SURFACE_STYLE_USAGE(.BOTH.,#28);
#27=SURFACE_SIDE_STYLE('',(#29));
#28=SURFACE_SIDE_STYLE('',(#30));
#29=SURFACE_STYLE_FILL_AREA(#31);
#30=SURFACE_STYLE_FILL_AREA(#32);
#31=FILL_AREA_STYLE('',(#33));
#32=FILL_AREA_STYLE('',(#34));
#33=FILL_AREA_STYLE_COLOUR('',#251);
#34=FILL_AREA_STYLE_COLOUR('',#251);
#35=MANIFOLD_SOLID_BREP('NOCUT',#37);
#36=MANIFOLD_SOLID_BREP('NOCUT',#38);
#37=CLOSED_SHELL('',(#55,#56,#57,#58,#59,#60,#61,#62,#63,#64,#65,#66,#67,
#68));
#38=CLOSED_SHELL('',(#69,#70,#71,#72,#73));
#39=TOROIDAL_SURFACE('',#273,9.,0.799999999999999);
#40=CONICAL_SURFACE('',#271,15.45849987841,29.99999972503);
#41=CONICAL_SURFACE('',#277,8.29039133345743,27.4999999999998);
#42=CONICAL_SURFACE('',#281,8.5,30.);
#43=CONICAL_SURFACE('',#284,8.,45.);
#44=CONICAL_SURFACE('',#290,12.91133176142,45.00000017096);
#45=CONICAL_SURFACE('',#292,14.47808177882,1.2915);
#46=CYLINDRICAL_SURFACE('',#268,15.);
#47=CYLINDRICAL_SURFACE('',#270,15.2835);
#48=CYLINDRICAL_SURFACE('',#279,8.5);
#49=CYLINDRICAL_SURFACE('',#283,8.);
#50=CYLINDRICAL_SURFACE('',#288,12.5);
#51=FACE_OUTER_BOUND('',#119,.T.);
#52=FACE_OUTER_BOUND('',#128,.T.);
#53=FACE_OUTER_BOUND('',#139,.T.);
#54=FACE_OUTER_BOUND('',#146,.T.);
#55=ADVANCED_FACE('',(#83,#84),#74,.F.);
#56=ADVANCED_FACE('',(#85,#86),#75,.F.);
#57=ADVANCED_FACE('',(#87,#88),#76,.T.);
#58=ADVANCED_FACE('',(#51),#77,.T.);
#59=ADVANCED_FACE('',(#89,#90),#46,.T.);
#60=ADVANCED_FACE('',(#91,#92),#47,.T.);
#61=ADVANCED_FACE('',(#93,#94),#40,.T.);
#62=ADVANCED_FACE('',(#95,#96),#39,.T.);
#63=ADVANCED_FACE('',(#52),#78,.T.);
#64=ADVANCED_FACE('',(#97,#98),#41,.F.);
#65=ADVANCED_FACE('',(#99,#100),#48,.F.);
#66=ADVANCED_FACE('',(#101,#102),#42,.F.);
#67=ADVANCED_FACE('',(#103,#104),#49,.F.);
#68=ADVANCED_FACE('',(#105,#106),#43,.F.);
#69=ADVANCED_FACE('',(#53),#79,.F.);
#70=ADVANCED_FACE('',(#107,#108),#50,.T.);
#71=ADVANCED_FACE('',(#109,#110),#44,.T.);
#72=ADVANCED_FACE('',(#111,#112),#45,.T.);
#73=ADVANCED_FACE('',(#54),#80,.F.);
#74=PLANE('',#260);
#75=PLANE('',#262);
#76=PLANE('',#265);
#77=PLANE('',#267);
#78=PLANE('',#275);
#79=PLANE('',#286);
#80=PLANE('',#293);
#81=B_SPLINE_CURVE_WITH_KNOTS('',3,(#378,#379,#380,#381,#382,#383,#384,
#385,#386,#387,#388,#389,#390,#391,#392,#393,#394,#395,#396,#397,#398),
 .UNSPECIFIED.,.F.,.F.,(4,1,1,1,1,1,1,1,1,1,1,1,1,1,1,1,1,1,4),(0.,0.0555555555556,
0.1111111111111,0.1666666666667,0.2222222222222,0.2777777777778,0.3333333333333,
0.3888888888889,0.4444444444444,0.5,0.5555555555556,0.6111111111111,0.6666666666667,
0.7222222222222,0.7777777777778,0.8333333333333,0.8888888888889,0.94444444444444,
1.),.UNSPECIFIED.);
#82=B_SPLINE_CURVE_WITH_KNOTS('',3,(#401,#402,#403,#404,#405,#406,#407,
#408,#409,#410,#411,#412,#413,#414,#415,#416,#417,#418,#419,#420,#421),
 .UNSPECIFIED.,.F.,.F.,(4,1,1,1,1,1,1,1,1,1,1,1,1,1,1,1,1,1,4),(0.,0.0555555555556,
0.1111111111111,0.1666666666667,0.2222222222222,0.2777777777778,0.3333333333333,
0.3888888888889,0.4444444444444,0.5,0.5555555555556,0.6111111111111,0.6666666666667,
0.7222222222222,0.7777777777778,0.8333333333333,0.8888888888889,0.94444444444444,
1.),.UNSPECIFIED.);
#83=FACE_BOUND('',#113,.T.);
#84=FACE_BOUND('',#114,.T.);
#85=FACE_BOUND('',#115,.T.);
#86=FACE_BOUND('',#116,.T.);
#87=FACE_BOUND('',#117,.T.);
#88=FACE_BOUND('',#118,.T.);
#89=FACE_BOUND('',#120,.T.);
#90=FACE_BOUND('',#121,.T.);
#91=FACE_BOUND('',#122,.T.);
#92=FACE_BOUND('',#123,.T.);
#93=FACE_BOUND('',#124,.T.);
#94=FACE_BOUND('',#125,.T.);
#95=FACE_BOUND('',#126,.T.);
#96=FACE_BOUND('',#127,.T.);
#97=FACE_BOUND('',#129,.T.);
#98=FACE_BOUND('',#130,.T.);
#99=FACE_BOUND('',#131,.T.);
#100=FACE_BOUND('',#132,.T.);
#101=FACE_BOUND('',#133,.T.);
#102=FACE_BOUND('',#134,.T.);
#103=FACE_BOUND('',#135,.T.);
#104=FACE_BOUND('',#136,.T.);
#105=FACE_BOUND('',#137,.T.);
#106=FACE_BOUND('',#138,.T.);
#107=FACE_BOUND('',#140,.T.);
#108=FACE_BOUND('',#141,.T.);
#109=FACE_BOUND('',#142,.T.);
#110=FACE_BOUND('',#143,.T.);
#111=FACE_BOUND('',#144,.T.);
#112=FACE_BOUND('',#145,.T.);
#113=EDGE_LOOP('',(#147));
#114=EDGE_LOOP('',(#148,#149));
#115=EDGE_LOOP('',(#150,#151));
#116=EDGE_LOOP('',(#152));
#117=EDGE_LOOP('',(#153));
#118=EDGE_LOOP('',(#154));
#119=EDGE_LOOP('',(#155));
#120=EDGE_LOOP('',(#156));
#121=EDGE_LOOP('',(#157));
#122=EDGE_LOOP('',(#158));
#123=EDGE_LOOP('',(#159));
#124=EDGE_LOOP('',(#160));
#125=EDGE_LOOP('',(#161));
#126=EDGE_LOOP('',(#162));
#127=EDGE_LOOP('',(#163));
#128=EDGE_LOOP('',(#164));
#129=EDGE_LOOP('',(#165));
#130=EDGE_LOOP('',(#166));
#131=EDGE_LOOP('',(#167));
#132=EDGE_LOOP('',(#168));
#133=EDGE_LOOP('',(#169));
#134=EDGE_LOOP('',(#170));
#135=EDGE_LOOP('',(#171));
#136=EDGE_LOOP('',(#172));
#137=EDGE_LOOP('',(#173));
#138=EDGE_LOOP('',(#174));
#139=EDGE_LOOP('',(#175));
#140=EDGE_LOOP('',(#176));
#141=EDGE_LOOP('',(#177));
#142=EDGE_LOOP('',(#178));
#143=EDGE_LOOP('',(#179));
#144=EDGE_LOOP('',(#180));
#145=EDGE_LOOP('',(#181));
#146=EDGE_LOOP('',(#182));
#147=ORIENTED_EDGE('',*,*,#201,.T.);
#148=ORIENTED_EDGE('',*,*,#202,.T.);
#149=ORIENTED_EDGE('',*,*,#203,.F.);
#150=ORIENTED_EDGE('',*,*,#202,.F.);
#151=ORIENTED_EDGE('',*,*,#203,.T.);
#152=ORIENTED_EDGE('',*,*,#204,.F.);
#153=ORIENTED_EDGE('',*,*,#205,.T.);
#154=ORIENTED_EDGE('',*,*,#206,.T.);
#155=ORIENTED_EDGE('',*,*,#207,.F.);
#156=ORIENTED_EDGE('',*,*,#204,.T.);
#157=ORIENTED_EDGE('',*,*,#205,.F.);
#158=ORIENTED_EDGE('',*,*,#208,.T.);
#159=ORIENTED_EDGE('',*,*,#206,.F.);
#160=ORIENTED_EDGE('',*,*,#208,.F.);
#161=ORIENTED_EDGE('',*,*,#207,.T.);
#162=ORIENTED_EDGE('',*,*,#209,.T.);
#163=ORIENTED_EDGE('',*,*,#201,.F.);
#164=ORIENTED_EDGE('',*,*,#210,.F.);
#165=ORIENTED_EDGE('',*,*,#211,.T.);
#166=ORIENTED_EDGE('',*,*,#209,.F.);
#167=ORIENTED_EDGE('',*,*,#211,.F.);
#168=ORIENTED_EDGE('',*,*,#212,.T.);
#169=ORIENTED_EDGE('',*,*,#212,.F.);
#170=ORIENTED_EDGE('',*,*,#213,.T.);
#171=ORIENTED_EDGE('',*,*,#213,.F.);
#172=ORIENTED_EDGE('',*,*,#214,.T.);
#173=ORIENTED_EDGE('',*,*,#214,.F.);
#174=ORIENTED_EDGE('',*,*,#210,.T.);
#175=ORIENTED_EDGE('',*,*,#215,.F.);
#176=ORIENTED_EDGE('',*,*,#216,.T.);
#177=ORIENTED_EDGE('',*,*,#215,.T.);
#178=ORIENTED_EDGE('',*,*,#217,.T.);
#179=ORIENTED_EDGE('',*,*,#216,.F.);
#180=ORIENTED_EDGE('',*,*,#218,.F.);
#181=ORIENTED_EDGE('',*,*,#217,.F.);
#182=ORIENTED_EDGE('',*,*,#218,.T.);
#183=VERTEX_POINT('',#377);
#184=VERTEX_POINT('',#399);
#185=VERTEX_POINT('',#400);
#186=VERTEX_POINT('',#424);
#187=VERTEX_POINT('',#427);
#188=VERTEX_POINT('',#429);
#189=VERTEX_POINT('',#432);
#190=VERTEX_POINT('',#436);
#191=VERTEX_POINT('',#440);
#192=VERTEX_POINT('',#443);
#193=VERTEX_POINT('',#446);
#194=VERTEX_POINT('',#449);
#195=VERTEX_POINT('',#452);
#196=VERTEX_POINT('',#455);
#197=VERTEX_POINT('',#459);
#198=VERTEX_POINT('',#462);
#199=VERTEX_POINT('',#465);
#200=VERTEX_POINT('',#468);
#201=EDGE_CURVE('',#183,#183,#219,.T.);
#202=EDGE_CURVE('',#184,#185,#81,.T.);
#203=EDGE_CURVE('',#184,#185,#82,.T.);
#204=EDGE_CURVE('',#186,#186,#220,.T.);
#205=EDGE_CURVE('',#187,#187,#221,.T.);
#206=EDGE_CURVE('',#188,#188,#222,.T.);
#207=EDGE_CURVE('',#189,#189,#223,.T.);
#208=EDGE_CURVE('',#190,#190,#224,.T.);
#209=EDGE_CURVE('',#191,#191,#225,.T.);
#210=EDGE_CURVE('',#192,#192,#226,.T.);
#211=EDGE_CURVE('',#193,#193,#227,.T.);
#212=EDGE_CURVE('',#194,#194,#228,.T.);
#213=EDGE_CURVE('',#195,#195,#229,.T.);
#214=EDGE_CURVE('',#196,#196,#230,.T.);
#215=EDGE_CURVE('',#197,#197,#231,.T.);
#216=EDGE_CURVE('',#198,#198,#232,.T.);
#217=EDGE_CURVE('',#199,#199,#233,.T.);
#218=EDGE_CURVE('',#200,#200,#234,.T.);
#219=CIRCLE('',#259,8.37550020016017);
#220=CIRCLE('',#261,15.);
#221=CIRCLE('',#263,15.);
#222=CIRCLE('',#264,15.2835);
#223=CIRCLE('',#266,15.6334999934919);
#224=CIRCLE('',#269,15.2835);
#225=CIRCLE('',#272,8.29039133345743);
#226=CIRCLE('',#274,6.);
#227=CIRCLE('',#276,8.5);
#228=CIRCLE('',#278,8.5);
#229=CIRCLE('',#280,8.);
#230=CIRCLE('',#282,8.);
#231=CIRCLE('',#285,12.5);
#232=CIRCLE('',#287,12.5);
#233=CIRCLE('',#289,13.5302461725202);
#234=CIRCLE('',#291,15.63349999349);
#235=PRESENTATION_LAYER_ASSIGNMENT('1','Layer 1',(#256,#257,#258,#36));
#236=PRESENTATION_LAYER_ASSIGNMENT('2','Layer 2',(#35));
#237=STYLED_ITEM('',(#242),#256);
#238=STYLED_ITEM('',(#243),#257);
#239=STYLED_ITEM('',(#244),#258);
#240=STYLED_ITEM('',(#245),#35);
#241=STYLED_ITEM('',(#246),#36);
#242=PRESENTATION_STYLE_ASSIGNMENT((#247));
#243=PRESENTATION_STYLE_ASSIGNMENT((#248));
#244=PRESENTATION_STYLE_ASSIGNMENT((#249));
#245=PRESENTATION_STYLE_ASSIGNMENT((#25));
#246=PRESENTATION_STYLE_ASSIGNMENT((#26));
#247=CURVE_STYLE('',#252,POSITIVE_LENGTH_MEASURE(0.18),#250);
#248=CURVE_STYLE('',#253,POSITIVE_LENGTH_MEASURE(0.18),#250);
#249=CURVE_STYLE('',#254,POSITIVE_LENGTH_MEASURE(0.18),#250);
#250=COLOUR_RGB('Strong Stone',0.576470588235294,0.54508278019379,0.392156862745098);
#251=COLOUR_RGB('Medium Gray',0.490196078431373,0.490196078431373,0.490196078431373);
#252=DRAUGHTING_PRE_DEFINED_CURVE_FONT('continuous');
#253=DRAUGHTING_PRE_DEFINED_CURVE_FONT('continuous');
#254=DRAUGHTING_PRE_DEFINED_CURVE_FONT('continuous');
#255=AXIS2_PLACEMENT_3D('',#372,#294,#295);
#256=AXIS2_PLACEMENT_3D('PCS',#373,#296,#297);
#257=AXIS2_PLACEMENT_3D('MCS',#374,#298,#299);
#258=AXIS2_PLACEMENT_3D('CSW',#375,#300,#301);
#259=AXIS2_PLACEMENT_3D('',#376,#302,#303);
#260=AXIS2_PLACEMENT_3D('',#422,#304,#305);
#261=AXIS2_PLACEMENT_3D('',#423,#306,#307);
#262=AXIS2_PLACEMENT_3D('',#425,#308,#309);
#263=AXIS2_PLACEMENT_3D('',#426,#310,#311);
#264=AXIS2_PLACEMENT_3D('',#428,#312,#313);
#265=AXIS2_PLACEMENT_3D('',#430,#314,#315);
#266=AXIS2_PLACEMENT_3D('',#431,#316,#317);
#267=AXIS2_PLACEMENT_3D('',#433,#318,#319);
#268=AXIS2_PLACEMENT_3D('',#434,#320,#321);
#269=AXIS2_PLACEMENT_3D('',#435,#322,#323);
#270=AXIS2_PLACEMENT_3D('',#437,#324,#325);
#271=AXIS2_PLACEMENT_3D('',#438,#326,#327);
#272=AXIS2_PLACEMENT_3D('',#439,#328,#329);
#273=AXIS2_PLACEMENT_3D('',#441,#330,#331);
#274=AXIS2_PLACEMENT_3D('',#442,#332,#333);
#275=AXIS2_PLACEMENT_3D('',#444,#334,#335);
#276=AXIS2_PLACEMENT_3D('',#445,#336,#337);
#277=AXIS2_PLACEMENT_3D('',#447,#338,#339);
#278=AXIS2_PLACEMENT_3D('',#448,#340,#341);
#279=AXIS2_PLACEMENT_3D('',#450,#342,#343);
#280=AXIS2_PLACEMENT_3D('',#451,#344,#345);
#281=AXIS2_PLACEMENT_3D('',#453,#346,#347);
#282=AXIS2_PLACEMENT_3D('',#454,#348,#349);
#283=AXIS2_PLACEMENT_3D('',#456,#350,#351);
#284=AXIS2_PLACEMENT_3D('',#457,#352,#353);
#285=AXIS2_PLACEMENT_3D('',#458,#354,#355);
#286=AXIS2_PLACEMENT_3D('',#460,#356,#357);
#287=AXIS2_PLACEMENT_3D('',#461,#358,#359);
#288=AXIS2_PLACEMENT_3D('',#463,#360,#361);
#289=AXIS2_PLACEMENT_3D('',#464,#362,#363);
#290=AXIS2_PLACEMENT_3D('',#466,#364,#365);
#291=AXIS2_PLACEMENT_3D('',#467,#366,#367);
#292=AXIS2_PLACEMENT_3D('',#469,#368,#369);
#293=AXIS2_PLACEMENT_3D('',#470,#370,#371);
#294=DIRECTION('',(0.,0.,1.));
#295=DIRECTION('',(1.,0.,0.));
#296=DIRECTION('',(0.,0.,1.));
#297=DIRECTION('',(1.,0.,0.));
#298=DIRECTION('',(0.,0.,1.));
#299=DIRECTION('',(1.,0.,0.));
#300=DIRECTION('',(0.,0.,1.));
#301=DIRECTION('',(1.,0.,0.));
#302=DIRECTION('',(0.,0.,1.));
#303=DIRECTION('',(1.,0.,0.));
#304=DIRECTION('',(0.,0.,1.));
#305=DIRECTION('',(0.,1.,0.));
#306=DIRECTION('',(0.,0.,1.));
#307=DIRECTION('',(0.,1.,0.));
#308=DIRECTION('',(0.,0.,1.));
#309=DIRECTION('',(0.,1.,0.));
#310=DIRECTION('',(0.,0.,1.));
#311=DIRECTION('',(0.,1.,0.));
#312=DIRECTION('',(0.,0.,-1.));
#313=DIRECTION('',(0.,-1.,0.));
#314=DIRECTION('',(0.,0.,-1.));
#315=DIRECTION('',(0.,-1.,0.));
#316=DIRECTION('',(0.,0.,-1.));
#317=DIRECTION('',(1.,0.,0.));
#318=DIRECTION('',(0.,0.,1.));
#319=DIRECTION('',(-1.,0.,0.));
#320=DIRECTION('',(0.,0.,1.));
#321=DIRECTION('',(0.,1.,0.));
#322=DIRECTION('',(0.,0.,-1.));
#323=DIRECTION('',(0.,-1.,0.));
#324=DIRECTION('',(0.,0.,-1.));
#325=DIRECTION('',(0.,-1.,0.));
#326=DIRECTION('',(0.,0.,1.));
#327=DIRECTION('',(0.,1.,-9.34580163163442E-17));
#328=DIRECTION('',(0.,0.,1.));
#329=DIRECTION('',(1.,0.,0.));
#330=DIRECTION('',(0.,0.,1.));
#331=DIRECTION('',(-1.,0.,0.));
#332=DIRECTION('',(0.,0.,1.));
#333=DIRECTION('',(1.,0.,0.));
#334=DIRECTION('',(0.,0.,-1.));
#335=DIRECTION('',(1.,0.,0.));
#336=DIRECTION('',(0.,0.,1.));
#337=DIRECTION('',(1.,0.,0.));
#338=DIRECTION('',(0.,0.,1.));
#339=DIRECTION('',(-1.,0.,-7.87232250623805E-17));
#340=DIRECTION('',(0.,0.,1.));
#341=DIRECTION('',(1.,0.,0.));
#342=DIRECTION('',(0.,0.,1.));
#343=DIRECTION('',(-1.,0.,0.));
#344=DIRECTION('',(0.,0.,1.));
#345=DIRECTION('',(1.,0.,0.));
#346=DIRECTION('',(0.,0.,-1.));
#347=DIRECTION('',(1.,0.,-4.73765688526894E-17));
#348=DIRECTION('',(0.,0.,1.));
#349=DIRECTION('',(1.,0.,0.));
#350=DIRECTION('',(0.,0.,1.));
#351=DIRECTION('',(-1.,0.,0.));
#352=DIRECTION('',(0.,0.,-1.));
#353=DIRECTION('',(1.,0.,-9.6373526443156E-17));
#354=DIRECTION('',(0.,0.,-1.));
#355=DIRECTION('',(0.,1.,0.));
#356=DIRECTION('',(0.,0.,-1.));
#357=DIRECTION('',(0.,-1.,0.));
#358=DIRECTION('',(0.,0.,1.));
#359=DIRECTION('',(0.,-1.,0.));
#360=DIRECTION('',(0.,0.,-1.));
#361=DIRECTION('',(0.,-1.,0.));
#362=DIRECTION('',(0.,0.,1.));
#363=DIRECTION('',(1.,0.,0.));
#364=DIRECTION('',(0.,0.,-1.));
#365=DIRECTION('',(0.,1.,0.));
#366=DIRECTION('',(0.,0.,-1.));
#367=DIRECTION('',(-1.,0.,0.));
#368=DIRECTION('',(0.,0.,-1.));
#369=DIRECTION('',(-1.,0.,3.74844082792285E-16));
#370=DIRECTION('',(0.,0.,1.));
#371=DIRECTION('',(-1.,0.,0.));
#372=CARTESIAN_POINT('',(0.,0.,0.));
#373=CARTESIAN_POINT('',(0.,0.,0.));
#374=CARTESIAN_POINT('',(0.,0.,0.));
#375=CARTESIAN_POINT('',(1.255221509131E-14,-1.163376036131E-14,-100.000000288832));
#376=CARTESIAN_POINT('',(1.255221509131E-14,-1.163376036131E-14,-100.000000288832));
#377=CARTESIAN_POINT('',(8.37550020016019,-1.163376036131E-14,-100.000000288832));
#378=CARTESIAN_POINT('',(1.255221509131E-14,-14.75,-100.000000288832));
#379=CARTESIAN_POINT('',(-0.866740894715887,-14.74886521185,-100.000000288832));
#380=CARTESIAN_POINT('',(-2.57034439577399,-14.60037585226,-100.000000288832));
#381=CARTESIAN_POINT('',(-5.07154699623999,-13.93087284089,-100.000000288832));
#382=CARTESIAN_POINT('',(-7.41225030358799,-12.83892972374,-100.000000288832));
#383=CARTESIAN_POINT('',(-9.52945178940599,-11.35665649906,-100.000000288832));
#384=CARTESIAN_POINT('',(-11.35664599604,-9.529377496042,-100.000000288832));
#385=CARTESIAN_POINT('',(-12.83889744244,-7.412536974029,-100.000000288832));
#386=CARTESIAN_POINT('',(-13.9310124691,-5.070474607843,-100.000000288832));
#387=CARTESIAN_POINT('',(-14.59984962071,-2.57434727892,-100.000000288832));
#388=CARTESIAN_POINT('',(-14.82507518965,-1.165734175856E-14,-100.000000288832));
#389=CARTESIAN_POINT('',(-14.59984962071,2.57434727892,-100.000000288832));
#390=CARTESIAN_POINT('',(-13.9310124691,5.070474607843,-100.000000288832));
#391=CARTESIAN_POINT('',(-12.83889744244,7.412536974029,-100.000000288832));
#392=CARTESIAN_POINT('',(-11.35664599604,9.529377496042,-100.000000288832));
#393=CARTESIAN_POINT('',(-9.52945178940599,11.35665649906,-100.000000288832));
#394=CARTESIAN_POINT('',(-7.41225030358799,12.83892972374,-100.000000288832));
#395=CARTESIAN_POINT('',(-5.07154699623999,13.93087284089,-100.000000288832));
#396=CARTESIAN_POINT('',(-2.57034439577399,14.60037585226,-100.000000288832));
#397=CARTESIAN_POINT('',(-0.866740894715887,14.74886521185,-100.000000288832));
#398=CARTESIAN_POINT('',(1.255221509131E-14,14.75,-100.000000288832));
#399=CARTESIAN_POINT('',(1.255221509131E-14,-14.75,-100.000000288832));
#400=CARTESIAN_POINT('',(1.255221509131E-14,14.75,-100.000000288832));
#401=CARTESIAN_POINT('',(1.255221509131E-14,-14.75,-100.000000288832));
#402=CARTESIAN_POINT('',(0.866740894715913,-14.74886521185,-100.000000288832));
#403=CARTESIAN_POINT('',(2.57034439577401,-14.60037585226,-100.000000288832));
#404=CARTESIAN_POINT('',(5.07154699624001,-13.93087284089,-100.000000288832));
#405=CARTESIAN_POINT('',(7.41225030358801,-12.83892972374,-100.000000288832));
#406=CARTESIAN_POINT('',(9.52945178940601,-11.35665649906,-100.000000288832));
#407=CARTESIAN_POINT('',(11.35664599604,-9.529377496042,-100.000000288832));
#408=CARTESIAN_POINT('',(12.83889744244,-7.412536974029,-100.000000288832));
#409=CARTESIAN_POINT('',(13.9310124691,-5.070474607843,-100.000000288832));
#410=CARTESIAN_POINT('',(14.59984962071,-2.57434727892,-100.000000288832));
#411=CARTESIAN_POINT('',(14.82507518965,-1.165734175856E-14,-100.000000288832));
#412=CARTESIAN_POINT('',(14.59984962071,2.57434727892,-100.000000288832));
#413=CARTESIAN_POINT('',(13.9310124691,5.070474607843,-100.000000288832));
#414=CARTESIAN_POINT('',(12.83889744244,7.412536974029,-100.000000288832));
#415=CARTESIAN_POINT('',(11.35664599604,9.529377496042,-100.000000288832));
#416=CARTESIAN_POINT('',(9.52945178940601,11.35665649906,-100.000000288832));
#417=CARTESIAN_POINT('',(7.41225030358801,12.83892972374,-100.000000288832));
#418=CARTESIAN_POINT('',(5.07154699624001,13.93087284089,-100.000000288832));
#419=CARTESIAN_POINT('',(2.57034439577401,14.60037585226,-100.000000288832));
#420=CARTESIAN_POINT('',(0.866740894715913,14.74886521185,-100.000000288832));
#421=CARTESIAN_POINT('',(1.255221509131E-14,14.75,-100.000000288832));
#422=CARTESIAN_POINT('',(1.255221509131E-14,-1.163376036131E-14,-100.000000288832));
#423=CARTESIAN_POINT('',(1.255221509131E-14,-1.163376036131E-14,-100.000000288832));
#424=CARTESIAN_POINT('',(1.255221509131E-14,15.,-100.000000288832));
#425=CARTESIAN_POINT('',(1.255221509131E-14,-1.163376036131E-14,-100.000000288832));
#426=CARTESIAN_POINT('',(1.255221509131E-14,0.,-6.50000028883201));
#427=CARTESIAN_POINT('',(1.255221509131E-14,15.,-6.50000028883201));
#428=CARTESIAN_POINT('',(-3.5369999251511E-23,0.,-6.50000028883201));
#429=CARTESIAN_POINT('',(-3.5369999251511E-23,-15.2835,-6.50000028883201));
#430=CARTESIAN_POINT('',(1.255221509131E-14,0.,-6.50000028883201));
#431=CARTESIAN_POINT('',(-4.678549131342E-14,-1.50990331349E-14,0.));
#432=CARTESIAN_POINT('',(15.6334999934919,-1.50990331349E-14,0.));
#433=CARTESIAN_POINT('',(0.,0.,0.));
#434=CARTESIAN_POINT('',(1.255221509131E-14,-1.221544837938E-14,-104.750000288832));
#435=CARTESIAN_POINT('',(-3.5369999251511E-23,0.,-0.606218056976499));
#436=CARTESIAN_POINT('',(-3.5369999251511E-23,-15.2835,-0.606218056976499));
#437=CARTESIAN_POINT('',(-3.5369999251511E-23,0.,-2.88831999983863E-7));
#438=CARTESIAN_POINT('',(-4.678549131342E-14,-1.50990331349E-14,-0.3031090940116));
#439=CARTESIAN_POINT('',(1.255221509131E-14,-1.163376036131E-14,-99.130601398244));
#440=CARTESIAN_POINT('',(8.29039133345744,-1.163376036131E-14,-99.130601398244));
#441=CARTESIAN_POINT('',(1.255221509131E-14,-1.163376036131E-14,-99.500000288832));
#442=CARTESIAN_POINT('',(1.255221509131E-14,-1.163376036131E-14,-77.250000288832));
#443=CARTESIAN_POINT('',(6.00000000000001,-1.163376036131E-14,-77.250000288832));
#444=CARTESIAN_POINT('',(1.255221509131E-14,5.99999999999999,-77.250000288832));
#445=CARTESIAN_POINT('',(1.255221509131E-14,-1.163376036131E-14,-98.7279468961574));
#446=CARTESIAN_POINT('',(8.50000000000001,-1.163376036131E-14,-98.7279468961574));
#447=CARTESIAN_POINT('',(1.255221509131E-14,-1.163376036131E-14,-99.130601398244));
#448=CARTESIAN_POINT('',(1.255221509131E-14,-1.163376036131E-14,-95.000000288832));
#449=CARTESIAN_POINT('',(8.50000000000001,-1.163376036131E-14,-95.000000288832));
#450=CARTESIAN_POINT('',(1.255221509131E-14,-1.163376036131E-14,-100.000000288832));
#451=CARTESIAN_POINT('',(1.255221509131E-14,-1.163376036131E-14,-94.1339748850476));
#452=CARTESIAN_POINT('',(8.00000000000001,-1.163376036131E-14,-94.1339748850476));
#453=CARTESIAN_POINT('',(1.255221509131E-14,-1.163376036131E-14,-95.000000288832));
#454=CARTESIAN_POINT('',(1.255221509131E-14,-1.163376036131E-14,-79.250000288832));
#455=CARTESIAN_POINT('',(8.00000000000001,-1.163376036131E-14,-79.250000288832));
#456=CARTESIAN_POINT('',(1.255221509131E-14,-1.163376036131E-14,-100.000000288832));
#457=CARTESIAN_POINT('',(1.255221509131E-14,-1.163376036131E-14,-79.250000288832));
#458=CARTESIAN_POINT('',(-3.5369999251511E-23,0.,102.499999711168));
#459=CARTESIAN_POINT('',(-3.5369999251511E-23,12.5,102.499999711168));
#460=CARTESIAN_POINT('',(1.255221509131E-14,0.,102.499999711168));
#461=CARTESIAN_POINT('',(-3.5369999251511E-23,0.,94.322663267468));
#462=CARTESIAN_POINT('',(-3.5369999251511E-23,-12.5,94.322663267468));
#463=CARTESIAN_POINT('',(-3.5369999251511E-23,0.,93.499999711168));
#464=CARTESIAN_POINT('',(1.255221509131E-14,2.84217094304E-14,93.2924171853612));
#465=CARTESIAN_POINT('',(13.5302461725202,2.84217094304E-14,93.2924171853612));
#466=CARTESIAN_POINT('',(1.255221509131E-14,2.84217094304E-14,93.911331592768));
#467=CARTESIAN_POINT('',(0.,0.,-1.38777878078145E-14));
#468=CARTESIAN_POINT('',(-15.63349999349,0.,-1.38777878078145E-14));
#469=CARTESIAN_POINT('',(1.255221509131E-14,0.,51.249999896248));
#470=CARTESIAN_POINT('',(0.,0.,0.));
#471=MECHANICAL_DESIGN_GEOMETRIC_PRESENTATION_REPRESENTATION('',(#237,#238,
#239,#240,#241),#472);
#472=(
GEOMETRIC_REPRESENTATION_CONTEXT(3)
GLOBAL_UNCERTAINTY_ASSIGNED_CONTEXT((#473))
GLOBAL_UNIT_ASSIGNED_CONTEXT((#479,#475,#474))
REPRESENTATION_CONTEXT('BC040582116100','TOP_LEVEL_ASSEMBLY_PART')
);
#473=UNCERTAINTY_MEASURE_WITH_UNIT(LENGTH_MEASURE(2.E-5),#479,
'DISTANCE_ACCURACY_VALUE','Maximum Tolerance applied to model');
#474=(
NAMED_UNIT(*)
SI_UNIT($,.STERADIAN.)
SOLID_ANGLE_UNIT()
);
#475=(
CONVERSION_BASED_UNIT('DEGREE',#477)
NAMED_UNIT(#476)
PLANE_ANGLE_UNIT()
);
#476=DIMENSIONAL_EXPONENTS(0.,0.,0.,0.,0.,0.,0.);
#477=PLANE_ANGLE_MEASURE_WITH_UNIT(PLANE_ANGLE_MEASURE(0.0174532925),#478);
#478=(
NAMED_UNIT(*)
PLANE_ANGLE_UNIT()
SI_UNIT($,.RADIAN.)
);
#479=(
LENGTH_UNIT()
NAMED_UNIT(*)
SI_UNIT(.MILLI.,.METRE.)
);
ENDSEC;
END-ISO-10303-21;
