ISO-10303-21;
HEADER;
/* Generated by software containing ST-Developer
 * from STEP Tools, Inc. (www.steptools.com) 
 */
/* OPTION: using custom schema-name function */

FILE_DESCRIPTION(
/* description */ (''),
/* implementation_level */ '2;1');

FILE_NAME(
/* name */ 'BC03058211265.stp',
/* time_stamp */ '2017-09-14T10:19:50+06:00',
/* author */ (''),
/* organization */ (''),
/* preprocessor_version */ 'ST-DEVELOPER v16',
/* originating_system */ 'SIEMENS PLM Software NX 11.0',
/* authorisation */ '');

FILE_SCHEMA (('AUTOMOTIVE_DESIGN { 1 0 10303 214 3 1 1 1 }'));
ENDSEC;

DATA;
#10=CONSTRUCTIVE_GEOMETRY_REPRESENTATION_RELATIONSHIP(
'supplemental geometry','',#24,#11);
#11=CONSTRUCTIVE_GEOMETRY_REPRESENTATION('supplemental geometry',(#256,
#257,#258),#472);
#12=SHAPE_REPRESENTATION_RELATIONSHIP('None',
'relationship between BC03058211265-None and BC03058211265-None',#24,#13);
#13=ADVANCED_BREP_SHAPE_REPRESENTATION('BC03058211265-None',(#35,#36),#472);
#14=SHAPE_DEFINITION_REPRESENTATION(#15,#24);
#15=PRODUCT_DEFINITION_SHAPE('','',#16);
#16=PRODUCT_DEFINITION(' ','',#18,#17);
#17=PRODUCT_DEFINITION_CONTEXT('part definition',#23,'design');
#18=PRODUCT_DEFINITION_FORMATION_WITH_SPECIFIED_SOURCE(' ',' ',#20,
 .NOT_KNOWN.);
#19=PRODUCT_RELATED_PRODUCT_CATEGORY('part','',(#20));
#20=PRODUCT('BC03058211265','BC03058211265',' ',(#21));
#21=PRODUCT_CONTEXT(' ',#23,'mechanical');
#22=APPLICATION_PROTOCOL_DEFINITION('international standard',
'automotive_design',2010,#23);
#23=APPLICATION_CONTEXT(
'core data for automotive mechanical design processes');
#24=SHAPE_REPRESENTATION('BC03058211265-None',(#255),#472);
#25=SURFACE_STYLE_USAGE(.BOTH.,#27);
#26=SURFACE_STYLE_USAGE(.BOTH.,#28);
#27=SURFACE_SIDE_STYLE('',(#29));
#28=SURFACE_SIDE_STYLE('',(#30));
#29=SURFACE_STYLE_FILL_AREA(#31);
#30=SURFACE_STYLE_FILL_AREA(#32);
#31=FILL_AREA_STYLE('',(#33));
#32=FILL_AREA_STYLE('',(#34));
#33=FILL_AREA_STYLE_COLOUR('',#251);
#34=FILL_AREA_STYLE_COLOUR('',#251);
#35=MANIFOLD_SOLID_BREP('NOCUT',#37);
#36=MANIFOLD_SOLID_BREP('NOCUT',#38);
#37=CLOSED_SHELL('',(#55,#56,#57,#58,#59,#60,#61,#62,#63,#64,#65,#66,#67,
#68));
#38=CLOSED_SHELL('',(#69,#70,#71,#72,#73));
#39=FACE_OUTER_BOUND('',#141,.T.);
#40=FACE_OUTER_BOUND('',#152,.T.);
#41=FACE_OUTER_BOUND('',#153,.T.);
#42=FACE_OUTER_BOUND('',#160,.T.);
#43=TOROIDAL_SURFACE('',#272,6.75,0.799999999999999);
#44=CONICAL_SURFACE('',#269,11.73749991905,29.99999979166);
#45=CONICAL_SURFACE('',#276,6.04039133345742,27.5);
#46=CONICAL_SURFACE('',#280,6.25,30.0000000000001);
#47=CONICAL_SURFACE('',#283,6.,45.);
#48=CONICAL_SURFACE('',#290,9.314333338896,45.00000012781);
#49=CONICAL_SURFACE('',#292,11.02058335684,1.2616);
#50=CYLINDRICAL_SURFACE('',#264,11.5);
#51=CYLINDRICAL_SURFACE('',#270,11.5625);
#52=CYLINDRICAL_SURFACE('',#278,6.25);
#53=CYLINDRICAL_SURFACE('',#282,6.);
#54=CYLINDRICAL_SURFACE('',#288,8.5);
#55=ADVANCED_FACE('',(#97,#98),#74,.F.);
#56=ADVANCED_FACE('',(#99,#100),#75,.F.);
#57=ADVANCED_FACE('',(#101,#102),#50,.T.);
#58=ADVANCED_FACE('',(#103,#104),#76,.T.);
#59=ADVANCED_FACE('',(#105,#106),#44,.T.);
#60=ADVANCED_FACE('',(#107,#108),#51,.T.);
#61=ADVANCED_FACE('',(#109,#110),#43,.T.);
#62=ADVANCED_FACE('',(#39),#77,.T.);
#63=ADVANCED_FACE('',(#111,#112),#45,.F.);
#64=ADVANCED_FACE('',(#113,#114),#52,.F.);
#65=ADVANCED_FACE('',(#115,#116),#46,.F.);
#66=ADVANCED_FACE('',(#117,#118),#53,.F.);
#67=ADVANCED_FACE('',(#119,#120),#47,.F.);
#68=ADVANCED_FACE('',(#40),#78,.T.);
#69=ADVANCED_FACE('',(#41),#79,.F.);
#70=ADVANCED_FACE('',(#121,#122),#54,.T.);
#71=ADVANCED_FACE('',(#123,#124),#48,.T.);
#72=ADVANCED_FACE('',(#125,#126),#49,.T.);
#73=ADVANCED_FACE('',(#42),#80,.F.);
#74=PLANE('',#260);
#75=PLANE('',#262);
#76=PLANE('',#266);
#77=PLANE('',#274);
#78=PLANE('',#284);
#79=PLANE('',#286);
#80=PLANE('',#293);
#81=CIRCLE('',#259,6.12550020016016);
#82=CIRCLE('',#261,11.5);
#83=CIRCLE('',#263,11.5);
#84=CIRCLE('',#265,11.5625);
#85=CIRCLE('',#267,11.5625);
#86=CIRCLE('',#268,11.9124999963288);
#87=CIRCLE('',#271,6.04039133345742);
#88=CIRCLE('',#273,4.5);
#89=CIRCLE('',#275,6.25);
#90=CIRCLE('',#277,6.25);
#91=CIRCLE('',#279,6.);
#92=CIRCLE('',#281,6.);
#93=CIRCLE('',#285,8.5);
#94=CIRCLE('',#287,8.5);
#95=CIRCLE('',#289,10.2862965735756);
#96=CIRCLE('',#291,11.91249999632);
#97=FACE_BOUND('',#127,.T.);
#98=FACE_BOUND('',#128,.T.);
#99=FACE_BOUND('',#129,.T.);
#100=FACE_BOUND('',#130,.T.);
#101=FACE_BOUND('',#131,.T.);
#102=FACE_BOUND('',#132,.T.);
#103=FACE_BOUND('',#133,.T.);
#104=FACE_BOUND('',#134,.T.);
#105=FACE_BOUND('',#135,.T.);
#106=FACE_BOUND('',#136,.T.);
#107=FACE_BOUND('',#137,.T.);
#108=FACE_BOUND('',#138,.T.);
#109=FACE_BOUND('',#139,.T.);
#110=FACE_BOUND('',#140,.T.);
#111=FACE_BOUND('',#142,.T.);
#112=FACE_BOUND('',#143,.T.);
#113=FACE_BOUND('',#144,.T.);
#114=FACE_BOUND('',#145,.T.);
#115=FACE_BOUND('',#146,.T.);
#116=FACE_BOUND('',#147,.T.);
#117=FACE_BOUND('',#148,.T.);
#118=FACE_BOUND('',#149,.T.);
#119=FACE_BOUND('',#150,.T.);
#120=FACE_BOUND('',#151,.T.);
#121=FACE_BOUND('',#154,.T.);
#122=FACE_BOUND('',#155,.T.);
#123=FACE_BOUND('',#156,.T.);
#124=FACE_BOUND('',#157,.T.);
#125=FACE_BOUND('',#158,.T.);
#126=FACE_BOUND('',#159,.T.);
#127=EDGE_LOOP('',(#161,#162));
#128=EDGE_LOOP('',(#163));
#129=EDGE_LOOP('',(#164));
#130=EDGE_LOOP('',(#165,#166));
#131=EDGE_LOOP('',(#167));
#132=EDGE_LOOP('',(#168));
#133=EDGE_LOOP('',(#169));
#134=EDGE_LOOP('',(#170));
#135=EDGE_LOOP('',(#171));
#136=EDGE_LOOP('',(#172));
#137=EDGE_LOOP('',(#173));
#138=EDGE_LOOP('',(#174));
#139=EDGE_LOOP('',(#175));
#140=EDGE_LOOP('',(#176));
#141=EDGE_LOOP('',(#177));
#142=EDGE_LOOP('',(#178));
#143=EDGE_LOOP('',(#179));
#144=EDGE_LOOP('',(#180));
#145=EDGE_LOOP('',(#181));
#146=EDGE_LOOP('',(#182));
#147=EDGE_LOOP('',(#183));
#148=EDGE_LOOP('',(#184));
#149=EDGE_LOOP('',(#185));
#150=EDGE_LOOP('',(#186));
#151=EDGE_LOOP('',(#187));
#152=EDGE_LOOP('',(#188));
#153=EDGE_LOOP('',(#189));
#154=EDGE_LOOP('',(#190));
#155=EDGE_LOOP('',(#191));
#156=EDGE_LOOP('',(#192));
#157=EDGE_LOOP('',(#193));
#158=EDGE_LOOP('',(#194));
#159=EDGE_LOOP('',(#195));
#160=EDGE_LOOP('',(#196));
#161=ORIENTED_EDGE('',*,*,#215,.T.);
#162=ORIENTED_EDGE('',*,*,#216,.F.);
#163=ORIENTED_EDGE('',*,*,#217,.F.);
#164=ORIENTED_EDGE('',*,*,#218,.T.);
#165=ORIENTED_EDGE('',*,*,#215,.F.);
#166=ORIENTED_EDGE('',*,*,#216,.T.);
#167=ORIENTED_EDGE('',*,*,#218,.F.);
#168=ORIENTED_EDGE('',*,*,#219,.F.);
#169=ORIENTED_EDGE('',*,*,#220,.T.);
#170=ORIENTED_EDGE('',*,*,#219,.T.);
#171=ORIENTED_EDGE('',*,*,#221,.F.);
#172=ORIENTED_EDGE('',*,*,#222,.T.);
#173=ORIENTED_EDGE('',*,*,#221,.T.);
#174=ORIENTED_EDGE('',*,*,#220,.F.);
#175=ORIENTED_EDGE('',*,*,#223,.T.);
#176=ORIENTED_EDGE('',*,*,#217,.T.);
#177=ORIENTED_EDGE('',*,*,#224,.F.);
#178=ORIENTED_EDGE('',*,*,#225,.T.);
#179=ORIENTED_EDGE('',*,*,#223,.F.);
#180=ORIENTED_EDGE('',*,*,#226,.T.);
#181=ORIENTED_EDGE('',*,*,#225,.F.);
#182=ORIENTED_EDGE('',*,*,#227,.T.);
#183=ORIENTED_EDGE('',*,*,#226,.F.);
#184=ORIENTED_EDGE('',*,*,#228,.T.);
#185=ORIENTED_EDGE('',*,*,#227,.F.);
#186=ORIENTED_EDGE('',*,*,#224,.T.);
#187=ORIENTED_EDGE('',*,*,#228,.F.);
#188=ORIENTED_EDGE('',*,*,#222,.F.);
#189=ORIENTED_EDGE('',*,*,#229,.F.);
#190=ORIENTED_EDGE('',*,*,#230,.T.);
#191=ORIENTED_EDGE('',*,*,#229,.T.);
#192=ORIENTED_EDGE('',*,*,#231,.T.);
#193=ORIENTED_EDGE('',*,*,#230,.F.);
#194=ORIENTED_EDGE('',*,*,#232,.F.);
#195=ORIENTED_EDGE('',*,*,#231,.F.);
#196=ORIENTED_EDGE('',*,*,#232,.T.);
#197=VERTEX_POINT('',#397);
#198=VERTEX_POINT('',#398);
#199=VERTEX_POINT('',#421);
#200=VERTEX_POINT('',#424);
#201=VERTEX_POINT('',#427);
#202=VERTEX_POINT('',#430);
#203=VERTEX_POINT('',#433);
#204=VERTEX_POINT('',#435);
#205=VERTEX_POINT('',#439);
#206=VERTEX_POINT('',#442);
#207=VERTEX_POINT('',#445);
#208=VERTEX_POINT('',#448);
#209=VERTEX_POINT('',#451);
#210=VERTEX_POINT('',#454);
#211=VERTEX_POINT('',#459);
#212=VERTEX_POINT('',#462);
#213=VERTEX_POINT('',#465);
#214=VERTEX_POINT('',#468);
#215=EDGE_CURVE('',#197,#198,#233,.T.);
#216=EDGE_CURVE('',#197,#198,#234,.T.);
#217=EDGE_CURVE('',#199,#199,#81,.T.);
#218=EDGE_CURVE('',#200,#200,#82,.T.);
#219=EDGE_CURVE('',#201,#201,#83,.T.);
#220=EDGE_CURVE('',#202,#202,#84,.T.);
#221=EDGE_CURVE('',#203,#203,#85,.T.);
#222=EDGE_CURVE('',#204,#204,#86,.T.);
#223=EDGE_CURVE('',#205,#205,#87,.T.);
#224=EDGE_CURVE('',#206,#206,#88,.T.);
#225=EDGE_CURVE('',#207,#207,#89,.T.);
#226=EDGE_CURVE('',#208,#208,#90,.T.);
#227=EDGE_CURVE('',#209,#209,#91,.T.);
#228=EDGE_CURVE('',#210,#210,#92,.T.);
#229=EDGE_CURVE('',#211,#211,#93,.T.);
#230=EDGE_CURVE('',#212,#212,#94,.T.);
#231=EDGE_CURVE('',#213,#213,#95,.T.);
#232=EDGE_CURVE('',#214,#214,#96,.T.);
#233=B_SPLINE_CURVE_WITH_KNOTS('',3,(#376,#377,#378,#379,#380,#381,#382,
#383,#384,#385,#386,#387,#388,#389,#390,#391,#392,#393,#394,#395,#396),
 .UNSPECIFIED.,.F.,.F.,(4,1,1,1,1,1,1,1,1,1,1,1,1,1,1,1,1,1,4),(0.,0.0555555555556,
0.1111111111111,0.1666666666667,0.2222222222222,0.2777777777778,0.3333333333333,
0.3888888888889,0.4444444444444,0.5,0.5555555555556,0.6111111111111,0.6666666666667,
0.7222222222222,0.7777777777778,0.8333333333333,0.8888888888889,0.94444444444444,
1.),.UNSPECIFIED.);
#234=B_SPLINE_CURVE_WITH_KNOTS('',3,(#399,#400,#401,#402,#403,#404,#405,
#406,#407,#408,#409,#410,#411,#412,#413,#414,#415,#416,#417,#418,#419),
 .UNSPECIFIED.,.F.,.F.,(4,1,1,1,1,1,1,1,1,1,1,1,1,1,1,1,1,1,4),(0.,0.0555555555556,
0.1111111111111,0.1666666666667,0.2222222222222,0.2777777777778,0.3333333333333,
0.3888888888889,0.4444444444444,0.5,0.5555555555556,0.6111111111111,0.6666666666667,
0.7222222222222,0.7777777777778,0.8333333333333,0.8888888888889,0.94444444444444,
1.),.UNSPECIFIED.);
#235=PRESENTATION_LAYER_ASSIGNMENT('1','Layer 1',(#256,#257,#258,#36));
#236=PRESENTATION_LAYER_ASSIGNMENT('2','Layer 2',(#35));
#237=STYLED_ITEM('',(#242),#256);
#238=STYLED_ITEM('',(#243),#257);
#239=STYLED_ITEM('',(#244),#258);
#240=STYLED_ITEM('',(#245),#35);
#241=STYLED_ITEM('',(#246),#36);
#242=PRESENTATION_STYLE_ASSIGNMENT((#247));
#243=PRESENTATION_STYLE_ASSIGNMENT((#248));
#244=PRESENTATION_STYLE_ASSIGNMENT((#249));
#245=PRESENTATION_STYLE_ASSIGNMENT((#25));
#246=PRESENTATION_STYLE_ASSIGNMENT((#26));
#247=CURVE_STYLE('',#252,POSITIVE_LENGTH_MEASURE(0.18),#250);
#248=CURVE_STYLE('',#253,POSITIVE_LENGTH_MEASURE(0.18),#250);
#249=CURVE_STYLE('',#254,POSITIVE_LENGTH_MEASURE(0.18),#250);
#250=COLOUR_RGB('Strong Stone',0.576470588235294,0.54508278019379,0.392156862745098);
#251=COLOUR_RGB('Medium Gray',0.490196078431373,0.490196078431373,0.490196078431373);
#252=DRAUGHTING_PRE_DEFINED_CURVE_FONT('continuous');
#253=DRAUGHTING_PRE_DEFINED_CURVE_FONT('continuous');
#254=DRAUGHTING_PRE_DEFINED_CURVE_FONT('continuous');
#255=AXIS2_PLACEMENT_3D('',#372,#294,#295);
#256=AXIS2_PLACEMENT_3D('PCS',#373,#296,#297);
#257=AXIS2_PLACEMENT_3D('MCS',#374,#298,#299);
#258=AXIS2_PLACEMENT_3D('CSW',#375,#300,#301);
#259=AXIS2_PLACEMENT_3D('',#420,#302,#303);
#260=AXIS2_PLACEMENT_3D('',#422,#304,#305);
#261=AXIS2_PLACEMENT_3D('',#423,#306,#307);
#262=AXIS2_PLACEMENT_3D('',#425,#308,#309);
#263=AXIS2_PLACEMENT_3D('',#426,#310,#311);
#264=AXIS2_PLACEMENT_3D('',#428,#312,#313);
#265=AXIS2_PLACEMENT_3D('',#429,#314,#315);
#266=AXIS2_PLACEMENT_3D('',#431,#316,#317);
#267=AXIS2_PLACEMENT_3D('',#432,#318,#319);
#268=AXIS2_PLACEMENT_3D('',#434,#320,#321);
#269=AXIS2_PLACEMENT_3D('',#436,#322,#323);
#270=AXIS2_PLACEMENT_3D('',#437,#324,#325);
#271=AXIS2_PLACEMENT_3D('',#438,#326,#327);
#272=AXIS2_PLACEMENT_3D('',#440,#328,#329);
#273=AXIS2_PLACEMENT_3D('',#441,#330,#331);
#274=AXIS2_PLACEMENT_3D('',#443,#332,#333);
#275=AXIS2_PLACEMENT_3D('',#444,#334,#335);
#276=AXIS2_PLACEMENT_3D('',#446,#336,#337);
#277=AXIS2_PLACEMENT_3D('',#447,#338,#339);
#278=AXIS2_PLACEMENT_3D('',#449,#340,#341);
#279=AXIS2_PLACEMENT_3D('',#450,#342,#343);
#280=AXIS2_PLACEMENT_3D('',#452,#344,#345);
#281=AXIS2_PLACEMENT_3D('',#453,#346,#347);
#282=AXIS2_PLACEMENT_3D('',#455,#348,#349);
#283=AXIS2_PLACEMENT_3D('',#456,#350,#351);
#284=AXIS2_PLACEMENT_3D('',#457,#352,#353);
#285=AXIS2_PLACEMENT_3D('',#458,#354,#355);
#286=AXIS2_PLACEMENT_3D('',#460,#356,#357);
#287=AXIS2_PLACEMENT_3D('',#461,#358,#359);
#288=AXIS2_PLACEMENT_3D('',#463,#360,#361);
#289=AXIS2_PLACEMENT_3D('',#464,#362,#363);
#290=AXIS2_PLACEMENT_3D('',#466,#364,#365);
#291=AXIS2_PLACEMENT_3D('',#467,#366,#367);
#292=AXIS2_PLACEMENT_3D('',#469,#368,#369);
#293=AXIS2_PLACEMENT_3D('',#470,#370,#371);
#294=DIRECTION('',(0.,0.,1.));
#295=DIRECTION('',(1.,0.,0.));
#296=DIRECTION('',(0.,0.,1.));
#297=DIRECTION('',(1.,0.,0.));
#298=DIRECTION('',(0.,0.,1.));
#299=DIRECTION('',(1.,0.,0.));
#300=DIRECTION('',(0.,0.,1.));
#301=DIRECTION('',(1.,0.,0.));
#302=DIRECTION('',(0.,0.,-1.));
#303=DIRECTION('',(-1.,0.,0.));
#304=DIRECTION('',(0.,0.,1.));
#305=DIRECTION('',(0.,1.,0.));
#306=DIRECTION('',(0.,0.,-1.));
#307=DIRECTION('',(0.,1.,0.));
#308=DIRECTION('',(0.,0.,1.));
#309=DIRECTION('',(0.,1.,0.));
#310=DIRECTION('',(0.,0.,1.));
#311=DIRECTION('',(0.,-1.,0.));
#312=DIRECTION('',(0.,0.,1.));
#313=DIRECTION('',(0.,1.,0.));
#314=DIRECTION('',(0.,0.,-1.));
#315=DIRECTION('',(0.,1.,0.));
#316=DIRECTION('',(0.,0.,-1.));
#317=DIRECTION('',(0.,-1.,0.));
#318=DIRECTION('',(0.,0.,-1.));
#319=DIRECTION('',(0.,1.,0.));
#320=DIRECTION('',(0.,0.,-1.));
#321=DIRECTION('',(1.,0.,0.));
#322=DIRECTION('',(0.,0.,1.));
#323=DIRECTION('',(0.,1.,-7.08583443302373E-17));
#324=DIRECTION('',(0.,0.,-1.));
#325=DIRECTION('',(0.,-1.,0.));
#326=DIRECTION('',(0.,0.,1.));
#327=DIRECTION('',(1.,0.,0.));
#328=DIRECTION('',(0.,0.,1.));
#329=DIRECTION('',(-1.,0.,0.));
#330=DIRECTION('',(0.,0.,1.));
#331=DIRECTION('',(1.,0.,0.));
#332=DIRECTION('',(0.,0.,-1.));
#333=DIRECTION('',(1.,0.,0.));
#334=DIRECTION('',(0.,0.,1.));
#335=DIRECTION('',(1.,0.,0.));
#336=DIRECTION('',(0.,0.,1.));
#337=DIRECTION('',(-1.,0.,0.));
#338=DIRECTION('',(0.,0.,1.));
#339=DIRECTION('',(1.,0.,0.));
#340=DIRECTION('',(0.,0.,1.));
#341=DIRECTION('',(-1.,0.,0.));
#342=DIRECTION('',(0.,0.,1.));
#343=DIRECTION('',(1.,0.,0.));
#344=DIRECTION('',(0.,0.,-1.));
#345=DIRECTION('',(1.,0.,-2.37796117316477E-17));
#346=DIRECTION('',(0.,0.,1.));
#347=DIRECTION('',(1.,0.,0.));
#348=DIRECTION('',(0.,0.,1.));
#349=DIRECTION('',(-1.,0.,0.));
#350=DIRECTION('',(0.,0.,-1.));
#351=DIRECTION('',(1.,0.,8.2770106209629E-17));
#352=DIRECTION('',(0.,0.,1.));
#353=DIRECTION('',(-1.,0.,0.));
#354=DIRECTION('',(0.,0.,-1.));
#355=DIRECTION('',(0.,-1.,0.));
#356=DIRECTION('',(0.,0.,-1.));
#357=DIRECTION('',(0.,-1.,0.));
#358=DIRECTION('',(0.,0.,1.));
#359=DIRECTION('',(0.,1.,0.));
#360=DIRECTION('',(0.,0.,-1.));
#361=DIRECTION('',(0.,-1.,0.));
#362=DIRECTION('',(0.,0.,1.));
#363=DIRECTION('',(1.,0.,0.));
#364=DIRECTION('',(0.,0.,-1.));
#365=DIRECTION('',(0.,1.,0.));
#366=DIRECTION('',(0.,0.,-1.));
#367=DIRECTION('',(-2.354285115382E-13,-1.,0.));
#368=DIRECTION('',(0.,0.,-1.));
#369=DIRECTION('',(-1.,0.,2.09994505577368E-16));
#370=DIRECTION('',(0.,0.,1.));
#371=DIRECTION('',(-1.,0.,0.));
#372=CARTESIAN_POINT('',(0.,0.,0.));
#373=CARTESIAN_POINT('',(0.,0.,0.));
#374=CARTESIAN_POINT('',(0.,0.,0.));
#375=CARTESIAN_POINT('',(0.,0.,-65.0000001668962));
#376=CARTESIAN_POINT('',(0.,-11.25,-65.0000001668962));
#377=CARTESIAN_POINT('',(-0.6610735637664,-11.24913448362,-65.0000001668962));
#378=CARTESIAN_POINT('',(-1.960432166268,-11.13587988732,-65.0000001668962));
#379=CARTESIAN_POINT('',(-3.868129064929,-10.62524199729,-65.0000001668962));
#380=CARTESIAN_POINT('',(-5.6534112485,-9.792404026584,-65.0000001668962));
#381=CARTESIAN_POINT('',(-7.268225941073,-8.661856651826,-65.0000001668962));
#382=CARTESIAN_POINT('',(-8.661848641051,-7.268169276642,-65.0000001668962));
#383=CARTESIAN_POINT('',(-9.792379405254,-5.653629895446,-65.0000001668962));
#384=CARTESIAN_POINT('',(-10.62534849338,-3.867311141575,-65.0000001668962));
#385=CARTESIAN_POINT('',(-11.13547852427,-1.963485212736,-65.0000001668962));
#386=CARTESIAN_POINT('',(-11.30726073787,0.,-65.0000001668962));
#387=CARTESIAN_POINT('',(-11.13547852427,1.963485212736,-65.0000001668962));
#388=CARTESIAN_POINT('',(-10.62534849338,3.867311141575,-65.0000001668962));
#389=CARTESIAN_POINT('',(-9.792379405254,5.653629895446,-65.0000001668962));
#390=CARTESIAN_POINT('',(-8.661848641051,7.268169276642,-65.0000001668962));
#391=CARTESIAN_POINT('',(-7.268225941073,8.661856651826,-65.0000001668962));
#392=CARTESIAN_POINT('',(-5.6534112485,9.792404026584,-65.0000001668962));
#393=CARTESIAN_POINT('',(-3.868129064929,10.62524199729,-65.0000001668962));
#394=CARTESIAN_POINT('',(-1.960432166268,11.13587988732,-65.0000001668962));
#395=CARTESIAN_POINT('',(-0.6610735637663,11.24913448362,-65.0000001668962));
#396=CARTESIAN_POINT('',(0.,11.25,-65.0000001668962));
#397=CARTESIAN_POINT('',(0.,-11.25,-65.0000001668962));
#398=CARTESIAN_POINT('',(0.,11.25,-65.0000001668962));
#399=CARTESIAN_POINT('',(0.,-11.25,-65.0000001668962));
#400=CARTESIAN_POINT('',(0.6610735637664,-11.24913448362,-65.0000001668962));
#401=CARTESIAN_POINT('',(1.960432166268,-11.13587988732,-65.0000001668962));
#402=CARTESIAN_POINT('',(3.868129064929,-10.62524199729,-65.0000001668962));
#403=CARTESIAN_POINT('',(5.6534112485,-9.792404026584,-65.0000001668962));
#404=CARTESIAN_POINT('',(7.268225941073,-8.661856651826,-65.0000001668962));
#405=CARTESIAN_POINT('',(8.661848641051,-7.268169276642,-65.0000001668962));
#406=CARTESIAN_POINT('',(9.792379405254,-5.653629895446,-65.0000001668962));
#407=CARTESIAN_POINT('',(10.62534849338,-3.867311141575,-65.0000001668962));
#408=CARTESIAN_POINT('',(11.13547852427,-1.963485212736,-65.0000001668962));
#409=CARTESIAN_POINT('',(11.30726073787,0.,-65.0000001668962));
#410=CARTESIAN_POINT('',(11.13547852427,1.963485212736,-65.0000001668962));
#411=CARTESIAN_POINT('',(10.62534849338,3.867311141575,-65.0000001668962));
#412=CARTESIAN_POINT('',(9.792379405254,5.653629895446,-65.0000001668962));
#413=CARTESIAN_POINT('',(8.661848641051,7.268169276642,-65.0000001668962));
#414=CARTESIAN_POINT('',(7.268225941073,8.661856651826,-65.0000001668962));
#415=CARTESIAN_POINT('',(5.6534112485,9.792404026584,-65.0000001668962));
#416=CARTESIAN_POINT('',(3.868129064929,10.62524199729,-65.0000001668962));
#417=CARTESIAN_POINT('',(1.960432166268,11.13587988732,-65.0000001668962));
#418=CARTESIAN_POINT('',(0.6610735637663,11.24913448362,-65.0000001668962));
#419=CARTESIAN_POINT('',(0.,11.25,-65.0000001668962));
#420=CARTESIAN_POINT('',(0.,0.,-65.0000001668962));
#421=CARTESIAN_POINT('',(-6.12550020016016,0.,-65.0000001668962));
#422=CARTESIAN_POINT('',(0.,0.,-65.0000001668962));
#423=CARTESIAN_POINT('',(0.,0.,-65.0000001668962));
#424=CARTESIAN_POINT('',(0.,11.5,-65.0000001668962));
#425=CARTESIAN_POINT('',(0.,0.,-65.0000001668962));
#426=CARTESIAN_POINT('',(0.,0.,-5.00000016689615));
#427=CARTESIAN_POINT('',(0.,-11.5,-5.00000016689615));
#428=CARTESIAN_POINT('',(0.,0.,-68.0000001668962));
#429=CARTESIAN_POINT('',(0.,0.,-5.00000016689615));
#430=CARTESIAN_POINT('',(0.,11.5625,-5.00000016689615));
#431=CARTESIAN_POINT('',(0.,0.,-5.00000016689615));
#432=CARTESIAN_POINT('',(0.,0.,-0.606217938096454));
#433=CARTESIAN_POINT('',(0.,11.5625,-0.606217938096454));
#434=CARTESIAN_POINT('',(0.,0.,0.));
#435=CARTESIAN_POINT('',(11.9124999963288,0.,0.));
#436=CARTESIAN_POINT('',(-2.393368983457E-14,-2.75335310107E-14,-0.303109027720752));
#437=CARTESIAN_POINT('',(0.,0.,-1.66896149678131E-7));
#438=CARTESIAN_POINT('',(0.,0.,-64.1306012763081));
#439=CARTESIAN_POINT('',(6.04039133345742,0.,-64.1306012763081));
#440=CARTESIAN_POINT('',(0.,0.,-64.5000001668962));
#441=CARTESIAN_POINT('',(0.,0.,-43.2500001668961));
#442=CARTESIAN_POINT('',(4.5,0.,-43.2500001668961));
#443=CARTESIAN_POINT('',(0.,4.5,-43.2500001668961));
#444=CARTESIAN_POINT('',(0.,0.,-63.7279467742216));
#445=CARTESIAN_POINT('',(6.25,0.,-63.7279467742216));
#446=CARTESIAN_POINT('',(0.,0.,-64.1306012763081));
#447=CARTESIAN_POINT('',(0.,0.,-59.0000001668962));
#448=CARTESIAN_POINT('',(6.25,0.,-59.0000001668962));
#449=CARTESIAN_POINT('',(0.,0.,-65.0000001668962));
#450=CARTESIAN_POINT('',(0.,0.,-58.5669874650039));
#451=CARTESIAN_POINT('',(6.,0.,-58.5669874650039));
#452=CARTESIAN_POINT('',(0.,0.,-59.0000001668962));
#453=CARTESIAN_POINT('',(0.,0.,-44.7500001668962));
#454=CARTESIAN_POINT('',(6.,0.,-44.7500001668962));
#455=CARTESIAN_POINT('',(0.,0.,-65.0000001668962));
#456=CARTESIAN_POINT('',(0.,0.,-44.7500001668962));
#457=CARTESIAN_POINT('',(0.,0.,0.));
#458=CARTESIAN_POINT('',(0.,0.,80.9999998331038));
#459=CARTESIAN_POINT('',(0.,-8.5,80.9999998331038));
#460=CARTESIAN_POINT('',(0.,0.,80.9999998331038));
#461=CARTESIAN_POINT('',(0.,0.,75.6286665437239));
#462=CARTESIAN_POINT('',(0.,8.5,75.6286665437239));
#463=CARTESIAN_POINT('',(0.,0.,73.9999998331039));
#464=CARTESIAN_POINT('',(0.,0.,73.8423700237907));
#465=CARTESIAN_POINT('',(-10.2862965735756,0.,73.8423700237907));
#466=CARTESIAN_POINT('',(0.,0.,74.8143332541339));
#467=CARTESIAN_POINT('',(0.,0.,0.));
#468=CARTESIAN_POINT('',(-2.80454214283243E-12,-11.91249999632,0.));
#469=CARTESIAN_POINT('',(0.,0.,40.4999999396538));
#470=CARTESIAN_POINT('',(0.,0.,0.));
#471=MECHANICAL_DESIGN_GEOMETRIC_PRESENTATION_REPRESENTATION('',(#237,#238,
#239,#240,#241),#472);
#472=(
GEOMETRIC_REPRESENTATION_CONTEXT(3)
GLOBAL_UNCERTAINTY_ASSIGNED_CONTEXT((#473))
GLOBAL_UNIT_ASSIGNED_CONTEXT((#479,#475,#474))
REPRESENTATION_CONTEXT('BC03058211265','TOP_LEVEL_ASSEMBLY_PART')
);
#473=UNCERTAINTY_MEASURE_WITH_UNIT(LENGTH_MEASURE(2.E-5),#479,
'DISTANCE_ACCURACY_VALUE','Maximum Tolerance applied to model');
#474=(
NAMED_UNIT(*)
SI_UNIT($,.STERADIAN.)
SOLID_ANGLE_UNIT()
);
#475=(
CONVERSION_BASED_UNIT('DEGREE',#477)
NAMED_UNIT(#476)
PLANE_ANGLE_UNIT()
);
#476=DIMENSIONAL_EXPONENTS(0.,0.,0.,0.,0.,0.,0.);
#477=PLANE_ANGLE_MEASURE_WITH_UNIT(PLANE_ANGLE_MEASURE(0.0174532925),#478);
#478=(
NAMED_UNIT(*)
PLANE_ANGLE_UNIT()
SI_UNIT($,.RADIAN.)
);
#479=(
LENGTH_UNIT()
NAMED_UNIT(*)
SI_UNIT(.MILLI.,.METRE.)
);
ENDSEC;
END-ISO-10303-21;
