ISO-10303-21;
HEADER;
/* Generated by software containing ST-Developer
 * from STEP Tools, Inc. (www.steptools.com) 
 */
/* OPTION: using custom schema-name function */

FILE_DESCRIPTION(
/* description */ (''),
/* implementation_level */ '2;1');

FILE_NAME(
/* name */ 'BC03058211220.stp',
/* time_stamp */ '2017-09-14T10:19:50+06:00',
/* author */ (''),
/* organization */ (''),
/* preprocessor_version */ 'ST-DEVELOPER v16',
/* originating_system */ 'SIEMENS PLM Software NX 11.0',
/* authorisation */ '');

FILE_SCHEMA (('AUTOMOTIVE_DESIGN { 1 0 10303 214 3 1 1 1 }'));
ENDSEC;

DATA;
#10=CONSTRUCTIVE_GEOMETRY_REPRESENTATION_RELATIONSHIP(
'supplemental geometry','',#24,#11);
#11=CONSTRUCTIVE_GEOMETRY_REPRESENTATION('supplemental geometry',(#254,
#255,#256),#484);
#12=SHAPE_REPRESENTATION_RELATIONSHIP('None',
'relationship between BC03058211220-None and BC03058211220-None',#24,#13);
#13=ADVANCED_BREP_SHAPE_REPRESENTATION('BC03058211220-None',(#37,#38),#484);
#14=SHAPE_DEFINITION_REPRESENTATION(#15,#24);
#15=PRODUCT_DEFINITION_SHAPE('','',#16);
#16=PRODUCT_DEFINITION(' ','',#18,#17);
#17=PRODUCT_DEFINITION_CONTEXT('part definition',#23,'design');
#18=PRODUCT_DEFINITION_FORMATION_WITH_SPECIFIED_SOURCE(' ',' ',#20,
 .NOT_KNOWN.);
#19=PRODUCT_RELATED_PRODUCT_CATEGORY('part','',(#20));
#20=PRODUCT('BC03058211220','BC03058211220',' ',(#21));
#21=PRODUCT_CONTEXT(' ',#23,'mechanical');
#22=APPLICATION_PROTOCOL_DEFINITION('international standard',
'automotive_design',2010,#23);
#23=APPLICATION_CONTEXT(
'core data for automotive mechanical design processes');
#24=SHAPE_REPRESENTATION('BC03058211220-None',(#253),#484);
#25=FACE_OUTER_BOUND('',#151,.T.);
#26=FACE_OUTER_BOUND('',#158,.T.);
#27=SURFACE_STYLE_USAGE(.BOTH.,#29);
#28=SURFACE_STYLE_USAGE(.BOTH.,#30);
#29=SURFACE_SIDE_STYLE('',(#31));
#30=SURFACE_SIDE_STYLE('',(#32));
#31=SURFACE_STYLE_FILL_AREA(#33);
#32=SURFACE_STYLE_FILL_AREA(#34);
#33=FILL_AREA_STYLE('',(#35));
#34=FILL_AREA_STYLE('',(#36));
#35=FILL_AREA_STYLE_COLOUR('',#249);
#36=FILL_AREA_STYLE_COLOUR('',#249);
#37=MANIFOLD_SOLID_BREP('NOCUT',#39);
#38=MANIFOLD_SOLID_BREP('NOCUT',#40);
#39=CLOSED_SHELL('',(#52,#53,#54,#55,#56,#57,#58,#59,#60,#61));
#40=CLOSED_SHELL('',(#62,#63,#64,#65,#66,#67,#68,#69));
#41=CONICAL_SURFACE('',#269,6.25,30.0000000000001);
#42=CONICAL_SURFACE('',#275,11.73749991905,29.99999979166);
#43=CONICAL_SURFACE('',#278,11.02058335684,1.2616);
#44=CONICAL_SURFACE('',#280,9.314333338896,45.00000012781);
#45=CONICAL_SURFACE('',#289,6.,45.);
#46=CYLINDRICAL_SURFACE('',#261,6.);
#47=CYLINDRICAL_SURFACE('',#268,6.25);
#48=CYLINDRICAL_SURFACE('',#272,11.5);
#49=CYLINDRICAL_SURFACE('',#274,11.5625);
#50=CYLINDRICAL_SURFACE('',#282,8.5);
#51=CYLINDRICAL_SURFACE('',#287,6.);
#52=ADVANCED_FACE('',(#93,#94),#70,.F.);
#53=ADVANCED_FACE('',(#95,#96),#46,.F.);
#54=ADVANCED_FACE('',(#97,#98),#71,.F.);
#55=ADVANCED_FACE('',(#99,#100),#72,.T.);
#56=ADVANCED_FACE('',(#101,#102),#47,.F.);
#57=ADVANCED_FACE('',(#103,#104),#41,.F.);
#58=ADVANCED_FACE('',(#105,#106),#73,.T.);
#59=ADVANCED_FACE('',(#107,#108),#48,.T.);
#60=ADVANCED_FACE('',(#109,#110),#49,.T.);
#61=ADVANCED_FACE('',(#111,#112),#42,.T.);
#62=ADVANCED_FACE('',(#113,#114),#43,.T.);
#63=ADVANCED_FACE('',(#115,#116),#44,.T.);
#64=ADVANCED_FACE('',(#117,#118),#50,.T.);
#65=ADVANCED_FACE('',(#25),#74,.F.);
#66=ADVANCED_FACE('',(#119,#120),#75,.F.);
#67=ADVANCED_FACE('',(#121,#122),#51,.F.);
#68=ADVANCED_FACE('',(#123,#124),#45,.F.);
#69=ADVANCED_FACE('',(#26),#76,.T.);
#70=PLANE('',#258);
#71=PLANE('',#263);
#72=PLANE('',#266);
#73=PLANE('',#271);
#74=PLANE('',#283);
#75=PLANE('',#285);
#76=PLANE('',#290);
#77=CIRCLE('',#257,6.25);
#78=CIRCLE('',#259,6.);
#79=CIRCLE('',#260,6.);
#80=CIRCLE('',#262,11.5);
#81=CIRCLE('',#264,11.5625);
#82=CIRCLE('',#265,11.5);
#83=CIRCLE('',#267,6.25);
#84=CIRCLE('',#270,11.9124999963288);
#85=CIRCLE('',#273,11.5625);
#86=CIRCLE('',#276,11.91249999632);
#87=CIRCLE('',#277,10.2862965735756);
#88=CIRCLE('',#279,8.5);
#89=CIRCLE('',#281,8.5);
#90=CIRCLE('',#284,6.);
#91=CIRCLE('',#286,6.);
#92=CIRCLE('',#288,4.5);
#93=FACE_BOUND('',#125,.T.);
#94=FACE_BOUND('',#126,.T.);
#95=FACE_BOUND('',#127,.T.);
#96=FACE_BOUND('',#128,.T.);
#97=FACE_BOUND('',#129,.T.);
#98=FACE_BOUND('',#130,.T.);
#99=FACE_BOUND('',#131,.T.);
#100=FACE_BOUND('',#132,.T.);
#101=FACE_BOUND('',#133,.T.);
#102=FACE_BOUND('',#134,.T.);
#103=FACE_BOUND('',#135,.T.);
#104=FACE_BOUND('',#136,.T.);
#105=FACE_BOUND('',#137,.T.);
#106=FACE_BOUND('',#138,.T.);
#107=FACE_BOUND('',#139,.T.);
#108=FACE_BOUND('',#140,.T.);
#109=FACE_BOUND('',#141,.T.);
#110=FACE_BOUND('',#142,.T.);
#111=FACE_BOUND('',#143,.T.);
#112=FACE_BOUND('',#144,.T.);
#113=FACE_BOUND('',#145,.T.);
#114=FACE_BOUND('',#146,.T.);
#115=FACE_BOUND('',#147,.T.);
#116=FACE_BOUND('',#148,.T.);
#117=FACE_BOUND('',#149,.T.);
#118=FACE_BOUND('',#150,.T.);
#119=FACE_BOUND('',#152,.T.);
#120=FACE_BOUND('',#153,.T.);
#121=FACE_BOUND('',#154,.T.);
#122=FACE_BOUND('',#155,.T.);
#123=FACE_BOUND('',#156,.T.);
#124=FACE_BOUND('',#157,.T.);
#125=EDGE_LOOP('',(#159,#160));
#126=EDGE_LOOP('',(#161));
#127=EDGE_LOOP('',(#162));
#128=EDGE_LOOP('',(#163));
#129=EDGE_LOOP('',(#164,#165));
#130=EDGE_LOOP('',(#166));
#131=EDGE_LOOP('',(#167));
#132=EDGE_LOOP('',(#168));
#133=EDGE_LOOP('',(#169));
#134=EDGE_LOOP('',(#170));
#135=EDGE_LOOP('',(#171));
#136=EDGE_LOOP('',(#172));
#137=EDGE_LOOP('',(#173));
#138=EDGE_LOOP('',(#174));
#139=EDGE_LOOP('',(#175));
#140=EDGE_LOOP('',(#176));
#141=EDGE_LOOP('',(#177));
#142=EDGE_LOOP('',(#178));
#143=EDGE_LOOP('',(#179));
#144=EDGE_LOOP('',(#180));
#145=EDGE_LOOP('',(#181));
#146=EDGE_LOOP('',(#182));
#147=EDGE_LOOP('',(#183));
#148=EDGE_LOOP('',(#184));
#149=EDGE_LOOP('',(#185));
#150=EDGE_LOOP('',(#186));
#151=EDGE_LOOP('',(#187));
#152=EDGE_LOOP('',(#188));
#153=EDGE_LOOP('',(#189));
#154=EDGE_LOOP('',(#190));
#155=EDGE_LOOP('',(#191));
#156=EDGE_LOOP('',(#192));
#157=EDGE_LOOP('',(#193));
#158=EDGE_LOOP('',(#194));
#159=ORIENTED_EDGE('',*,*,#213,.F.);
#160=ORIENTED_EDGE('',*,*,#214,.T.);
#161=ORIENTED_EDGE('',*,*,#215,.T.);
#162=ORIENTED_EDGE('',*,*,#216,.T.);
#163=ORIENTED_EDGE('',*,*,#217,.F.);
#164=ORIENTED_EDGE('',*,*,#214,.F.);
#165=ORIENTED_EDGE('',*,*,#213,.T.);
#166=ORIENTED_EDGE('',*,*,#218,.F.);
#167=ORIENTED_EDGE('',*,*,#219,.T.);
#168=ORIENTED_EDGE('',*,*,#220,.T.);
#169=ORIENTED_EDGE('',*,*,#221,.T.);
#170=ORIENTED_EDGE('',*,*,#215,.F.);
#171=ORIENTED_EDGE('',*,*,#217,.T.);
#172=ORIENTED_EDGE('',*,*,#221,.F.);
#173=ORIENTED_EDGE('',*,*,#222,.F.);
#174=ORIENTED_EDGE('',*,*,#216,.F.);
#175=ORIENTED_EDGE('',*,*,#218,.T.);
#176=ORIENTED_EDGE('',*,*,#220,.F.);
#177=ORIENTED_EDGE('',*,*,#219,.F.);
#178=ORIENTED_EDGE('',*,*,#223,.T.);
#179=ORIENTED_EDGE('',*,*,#223,.F.);
#180=ORIENTED_EDGE('',*,*,#222,.T.);
#181=ORIENTED_EDGE('',*,*,#224,.F.);
#182=ORIENTED_EDGE('',*,*,#225,.F.);
#183=ORIENTED_EDGE('',*,*,#225,.T.);
#184=ORIENTED_EDGE('',*,*,#226,.F.);
#185=ORIENTED_EDGE('',*,*,#226,.T.);
#186=ORIENTED_EDGE('',*,*,#227,.T.);
#187=ORIENTED_EDGE('',*,*,#227,.F.);
#188=ORIENTED_EDGE('',*,*,#228,.T.);
#189=ORIENTED_EDGE('',*,*,#224,.T.);
#190=ORIENTED_EDGE('',*,*,#228,.F.);
#191=ORIENTED_EDGE('',*,*,#229,.T.);
#192=ORIENTED_EDGE('',*,*,#229,.F.);
#193=ORIENTED_EDGE('',*,*,#230,.T.);
#194=ORIENTED_EDGE('',*,*,#230,.F.);
#195=VERTEX_POINT('',#401);
#196=VERTEX_POINT('',#402);
#197=VERTEX_POINT('',#434);
#198=VERTEX_POINT('',#437);
#199=VERTEX_POINT('',#439);
#200=VERTEX_POINT('',#442);
#201=VERTEX_POINT('',#445);
#202=VERTEX_POINT('',#447);
#203=VERTEX_POINT('',#450);
#204=VERTEX_POINT('',#454);
#205=VERTEX_POINT('',#458);
#206=VERTEX_POINT('',#462);
#207=VERTEX_POINT('',#464);
#208=VERTEX_POINT('',#467);
#209=VERTEX_POINT('',#470);
#210=VERTEX_POINT('',#474);
#211=VERTEX_POINT('',#477);
#212=VERTEX_POINT('',#480);
#213=EDGE_CURVE('',#195,#196,#231,.T.);
#214=EDGE_CURVE('',#195,#196,#232,.T.);
#215=EDGE_CURVE('',#197,#197,#77,.T.);
#216=EDGE_CURVE('',#198,#198,#78,.T.);
#217=EDGE_CURVE('',#199,#199,#79,.T.);
#218=EDGE_CURVE('',#200,#200,#80,.T.);
#219=EDGE_CURVE('',#201,#201,#81,.T.);
#220=EDGE_CURVE('',#202,#202,#82,.T.);
#221=EDGE_CURVE('',#203,#203,#83,.T.);
#222=EDGE_CURVE('',#204,#204,#84,.T.);
#223=EDGE_CURVE('',#205,#205,#85,.T.);
#224=EDGE_CURVE('',#206,#206,#86,.T.);
#225=EDGE_CURVE('',#207,#207,#87,.T.);
#226=EDGE_CURVE('',#208,#208,#88,.T.);
#227=EDGE_CURVE('',#209,#209,#89,.T.);
#228=EDGE_CURVE('',#210,#210,#90,.T.);
#229=EDGE_CURVE('',#211,#211,#91,.T.);
#230=EDGE_CURVE('',#212,#212,#92,.T.);
#231=B_SPLINE_CURVE_WITH_KNOTS('',3,(#371,#372,#373,#374,#375,#376,#377,
#378,#379,#380,#381,#382,#383,#384,#385,#386,#387,#388,#389,#390,#391,#392,
#393,#394,#395,#396,#397,#398,#399,#400),.UNSPECIFIED.,.F.,.F.,(4,1,1,1,
1,1,1,1,1,1,1,1,1,1,1,1,1,1,1,1,1,1,1,1,1,1,1,4),(0.,0.037037037037,0.0740740740741,
0.1111111111111,0.1481481481481,0.1851851851852,0.2222222222222,0.2592592592593,
0.2962962962963,0.3333333333333,0.3703703703704,0.4074074074074,0.4444444444444,
0.4814814814815,0.5185185185185,0.5555555555556,0.5925925925926,0.6296296296296,
0.6666666666667,0.7037037037037,0.7407407407407,0.7777777777778,0.8148148148148,
0.8518518518519,0.8888888888889,0.92592592592593,0.96296296296296,1.),
 .UNSPECIFIED.);
#232=B_SPLINE_CURVE_WITH_KNOTS('',3,(#403,#404,#405,#406,#407,#408,#409,
#410,#411,#412,#413,#414,#415,#416,#417,#418,#419,#420,#421,#422,#423,#424,
#425,#426,#427,#428,#429,#430,#431,#432),.UNSPECIFIED.,.F.,.F.,(4,1,1,1,
1,1,1,1,1,1,1,1,1,1,1,1,1,1,1,1,1,1,1,1,1,1,1,4),(0.,0.037037037037,0.0740740740741,
0.1111111111111,0.1481481481481,0.1851851851852,0.2222222222222,0.2592592592593,
0.2962962962963,0.3333333333333,0.3703703703704,0.4074074074074,0.4444444444444,
0.4814814814815,0.5185185185185,0.5555555555556,0.5925925925926,0.6296296296296,
0.6666666666667,0.7037037037037,0.7407407407407,0.7777777777778,0.8148148148148,
0.8518518518519,0.8888888888889,0.92592592592593,0.96296296296296,1.),
 .UNSPECIFIED.);
#233=PRESENTATION_LAYER_ASSIGNMENT('1','Layer 1',(#254,#255,#256,#38));
#234=PRESENTATION_LAYER_ASSIGNMENT('2','Layer 2',(#37));
#235=STYLED_ITEM('',(#240),#254);
#236=STYLED_ITEM('',(#241),#255);
#237=STYLED_ITEM('',(#242),#256);
#238=STYLED_ITEM('',(#243),#37);
#239=STYLED_ITEM('',(#244),#38);
#240=PRESENTATION_STYLE_ASSIGNMENT((#245));
#241=PRESENTATION_STYLE_ASSIGNMENT((#246));
#242=PRESENTATION_STYLE_ASSIGNMENT((#247));
#243=PRESENTATION_STYLE_ASSIGNMENT((#27));
#244=PRESENTATION_STYLE_ASSIGNMENT((#28));
#245=CURVE_STYLE('',#250,POSITIVE_LENGTH_MEASURE(0.18),#248);
#246=CURVE_STYLE('',#251,POSITIVE_LENGTH_MEASURE(0.18),#248);
#247=CURVE_STYLE('',#252,POSITIVE_LENGTH_MEASURE(0.18),#248);
#248=COLOUR_RGB('Strong Stone',0.576470588235294,0.54508278019379,0.392156862745098);
#249=COLOUR_RGB('Medium Gray',0.490196078431373,0.490196078431373,0.490196078431373);
#250=DRAUGHTING_PRE_DEFINED_CURVE_FONT('continuous');
#251=DRAUGHTING_PRE_DEFINED_CURVE_FONT('continuous');
#252=DRAUGHTING_PRE_DEFINED_CURVE_FONT('continuous');
#253=AXIS2_PLACEMENT_3D('',#367,#291,#292);
#254=AXIS2_PLACEMENT_3D('PCS',#368,#293,#294);
#255=AXIS2_PLACEMENT_3D('MCS',#369,#295,#296);
#256=AXIS2_PLACEMENT_3D('CSW',#370,#297,#298);
#257=AXIS2_PLACEMENT_3D('',#433,#299,#300);
#258=AXIS2_PLACEMENT_3D('',#435,#301,#302);
#259=AXIS2_PLACEMENT_3D('',#436,#303,#304);
#260=AXIS2_PLACEMENT_3D('',#438,#305,#306);
#261=AXIS2_PLACEMENT_3D('',#440,#307,#308);
#262=AXIS2_PLACEMENT_3D('',#441,#309,#310);
#263=AXIS2_PLACEMENT_3D('',#443,#311,#312);
#264=AXIS2_PLACEMENT_3D('',#444,#313,#314);
#265=AXIS2_PLACEMENT_3D('',#446,#315,#316);
#266=AXIS2_PLACEMENT_3D('',#448,#317,#318);
#267=AXIS2_PLACEMENT_3D('',#449,#319,#320);
#268=AXIS2_PLACEMENT_3D('',#451,#321,#322);
#269=AXIS2_PLACEMENT_3D('',#452,#323,#324);
#270=AXIS2_PLACEMENT_3D('',#453,#325,#326);
#271=AXIS2_PLACEMENT_3D('',#455,#327,#328);
#272=AXIS2_PLACEMENT_3D('',#456,#329,#330);
#273=AXIS2_PLACEMENT_3D('',#457,#331,#332);
#274=AXIS2_PLACEMENT_3D('',#459,#333,#334);
#275=AXIS2_PLACEMENT_3D('',#460,#335,#336);
#276=AXIS2_PLACEMENT_3D('',#461,#337,#338);
#277=AXIS2_PLACEMENT_3D('',#463,#339,#340);
#278=AXIS2_PLACEMENT_3D('',#465,#341,#342);
#279=AXIS2_PLACEMENT_3D('',#466,#343,#344);
#280=AXIS2_PLACEMENT_3D('',#468,#345,#346);
#281=AXIS2_PLACEMENT_3D('',#469,#347,#348);
#282=AXIS2_PLACEMENT_3D('',#471,#349,#350);
#283=AXIS2_PLACEMENT_3D('',#472,#351,#352);
#284=AXIS2_PLACEMENT_3D('',#473,#353,#354);
#285=AXIS2_PLACEMENT_3D('',#475,#355,#356);
#286=AXIS2_PLACEMENT_3D('',#476,#357,#358);
#287=AXIS2_PLACEMENT_3D('',#478,#359,#360);
#288=AXIS2_PLACEMENT_3D('',#479,#361,#362);
#289=AXIS2_PLACEMENT_3D('',#481,#363,#364);
#290=AXIS2_PLACEMENT_3D('',#482,#365,#366);
#291=DIRECTION('',(0.,0.,1.));
#292=DIRECTION('',(1.,0.,0.));
#293=DIRECTION('',(0.,0.,1.));
#294=DIRECTION('',(1.,0.,0.));
#295=DIRECTION('',(0.,0.,1.));
#296=DIRECTION('',(1.,0.,0.));
#297=DIRECTION('',(0.,0.,1.));
#298=DIRECTION('',(1.,0.,0.));
#299=DIRECTION('',(0.,0.,1.));
#300=DIRECTION('',(1.,0.,0.));
#301=DIRECTION('',(0.,0.,1.));
#302=DIRECTION('',(0.,1.,0.));
#303=DIRECTION('',(0.,0.,1.));
#304=DIRECTION('',(1.,0.,0.));
#305=DIRECTION('',(0.,0.,1.));
#306=DIRECTION('',(1.,0.,0.));
#307=DIRECTION('',(0.,0.,1.));
#308=DIRECTION('',(-1.,0.,0.));
#309=DIRECTION('',(0.,0.,1.));
#310=DIRECTION('',(0.,1.,0.));
#311=DIRECTION('',(0.,0.,1.));
#312=DIRECTION('',(0.,1.,0.));
#313=DIRECTION('',(0.,0.,-1.));
#314=DIRECTION('',(0.,-1.,0.));
#315=DIRECTION('',(0.,0.,1.));
#316=DIRECTION('',(0.,1.,0.));
#317=DIRECTION('',(0.,0.,-1.));
#318=DIRECTION('',(0.,-1.,0.));
#319=DIRECTION('',(0.,0.,1.));
#320=DIRECTION('',(1.,0.,0.));
#321=DIRECTION('',(0.,0.,1.));
#322=DIRECTION('',(-1.,0.,0.));
#323=DIRECTION('',(0.,0.,-1.));
#324=DIRECTION('',(1.,0.,6.24214807955753E-17));
#325=DIRECTION('',(0.,0.,-1.));
#326=DIRECTION('',(1.,0.,0.));
#327=DIRECTION('',(0.,0.,1.));
#328=DIRECTION('',(-1.,0.,0.));
#329=DIRECTION('',(0.,0.,1.));
#330=DIRECTION('',(0.,1.,0.));
#331=DIRECTION('',(0.,0.,-1.));
#332=DIRECTION('',(0.,-1.,0.));
#333=DIRECTION('',(0.,0.,-1.));
#334=DIRECTION('',(0.,-1.,0.));
#335=DIRECTION('',(0.,0.,1.));
#336=DIRECTION('',(0.,1.,-8.77907279104498E-17));
#337=DIRECTION('',(0.,0.,-1.));
#338=DIRECTION('',(-1.,0.,0.));
#339=DIRECTION('',(0.,0.,1.));
#340=DIRECTION('',(1.,0.,0.));
#341=DIRECTION('',(0.,0.,-1.));
#342=DIRECTION('',(-1.,0.,6.29983516732105E-16));
#343=DIRECTION('',(0.,0.,1.));
#344=DIRECTION('',(0.,1.,0.));
#345=DIRECTION('',(0.,0.,-1.));
#346=DIRECTION('',(0.,1.,0.));
#347=DIRECTION('',(0.,0.,-1.));
#348=DIRECTION('',(0.,-1.,0.));
#349=DIRECTION('',(0.,0.,-1.));
#350=DIRECTION('',(0.,-1.,0.));
#351=DIRECTION('',(0.,0.,-1.));
#352=DIRECTION('',(0.,-1.,0.));
#353=DIRECTION('',(0.,0.,1.));
#354=DIRECTION('',(1.,0.,0.));
#355=DIRECTION('',(0.,0.,1.));
#356=DIRECTION('',(-1.,0.,0.));
#357=DIRECTION('',(0.,0.,1.));
#358=DIRECTION('',(1.,0.,0.));
#359=DIRECTION('',(0.,0.,1.));
#360=DIRECTION('',(-1.,0.,0.));
#361=DIRECTION('',(0.,0.,1.));
#362=DIRECTION('',(1.,0.,0.));
#363=DIRECTION('',(0.,0.,-1.));
#364=DIRECTION('',(1.,0.,-4.77975808645449E-17));
#365=DIRECTION('',(0.,0.,-1.));
#366=DIRECTION('',(1.,0.,0.));
#367=CARTESIAN_POINT('',(0.,0.,0.));
#368=CARTESIAN_POINT('',(0.,0.,0.));
#369=CARTESIAN_POINT('',(0.,0.,0.));
#370=CARTESIAN_POINT('',(0.,0.,-20.0000001668961));
#371=CARTESIAN_POINT('',(0.,-11.25,-20.0000001668961));
#372=CARTESIAN_POINT('',(0.4382920982972,-11.24982855073,-20.0000001668961));
#373=CARTESIAN_POINT('',(1.308085857844,-11.19925269523,-20.0000001668961));
#374=CARTESIAN_POINT('',(2.600533053552,-10.97146188817,-20.0000001668961));
#375=CARTESIAN_POINT('',(3.856353203062,-10.59542851623,-20.0000001668961));
#376=CARTESIAN_POINT('',(5.060413808684,-10.07607594998,-20.0000001668961));
#377=CARTESIAN_POINT('',(6.195936225733,-9.420470905692,-20.0000001668961));
#378=CARTESIAN_POINT('',(7.247697308163,-8.637467697628,-20.0000001668961));
#379=CARTESIAN_POINT('',(8.201438195455,-7.737658214326,-20.0000001668961));
#380=CARTESIAN_POINT('',(9.044270716197,-6.733210001209,-20.0000001668961));
#381=CARTESIAN_POINT('',(9.764794450722,-5.637706720777,-20.0000001668961));
#382=CARTESIAN_POINT('',(10.35326623636,-4.465963115684,-20.0000001668961));
#383=CARTESIAN_POINT('',(10.80172781825,-3.233825024131,-20.0000001668961));
#384=CARTESIAN_POINT('',(11.10411457195,-1.957954995791,-20.0000001668961));
#385=CARTESIAN_POINT('',(11.25633722227,-0.655606985222,-20.0000001668961));
#386=CARTESIAN_POINT('',(11.25633722227,0.655606985222,-20.0000001668961));
#387=CARTESIAN_POINT('',(11.10411457195,1.957954995791,-20.0000001668961));
#388=CARTESIAN_POINT('',(10.80172781825,3.233825024131,-20.0000001668961));
#389=CARTESIAN_POINT('',(10.35326623636,4.465963115684,-20.0000001668961));
#390=CARTESIAN_POINT('',(9.764794450722,5.637706720777,-20.0000001668961));
#391=CARTESIAN_POINT('',(9.044270716197,6.733210001209,-20.0000001668961));
#392=CARTESIAN_POINT('',(8.201438195455,7.737658214326,-20.0000001668961));
#393=CARTESIAN_POINT('',(7.247697308163,8.637467697628,-20.0000001668961));
#394=CARTESIAN_POINT('',(6.195936225733,9.420470905692,-20.0000001668961));
#395=CARTESIAN_POINT('',(5.060413808684,10.07607594998,-20.0000001668961));
#396=CARTESIAN_POINT('',(3.856353203062,10.59542851623,-20.0000001668961));
#397=CARTESIAN_POINT('',(2.600533053552,10.97146188817,-20.0000001668961));
#398=CARTESIAN_POINT('',(1.308085857844,11.19925269523,-20.0000001668961));
#399=CARTESIAN_POINT('',(0.4382920982972,11.24982855073,-20.0000001668961));
#400=CARTESIAN_POINT('',(0.,11.25,-20.0000001668961));
#401=CARTESIAN_POINT('',(0.,-11.25,-20.0000001668961));
#402=CARTESIAN_POINT('',(0.,11.25,-20.0000001668961));
#403=CARTESIAN_POINT('',(0.,-11.25,-20.0000001668961));
#404=CARTESIAN_POINT('',(-0.4382920982972,-11.24982855073,-20.0000001668961));
#405=CARTESIAN_POINT('',(-1.308085857844,-11.19925269523,-20.0000001668961));
#406=CARTESIAN_POINT('',(-2.600533053552,-10.97146188817,-20.0000001668961));
#407=CARTESIAN_POINT('',(-3.856353203062,-10.59542851623,-20.0000001668961));
#408=CARTESIAN_POINT('',(-5.060413808684,-10.07607594998,-20.0000001668961));
#409=CARTESIAN_POINT('',(-6.195936225733,-9.420470905692,-20.0000001668961));
#410=CARTESIAN_POINT('',(-7.247697308163,-8.637467697628,-20.0000001668961));
#411=CARTESIAN_POINT('',(-8.201438195455,-7.737658214326,-20.0000001668961));
#412=CARTESIAN_POINT('',(-9.044270716197,-6.733210001209,-20.0000001668961));
#413=CARTESIAN_POINT('',(-9.764794450722,-5.637706720777,-20.0000001668961));
#414=CARTESIAN_POINT('',(-10.35326623636,-4.465963115684,-20.0000001668961));
#415=CARTESIAN_POINT('',(-10.80172781825,-3.233825024131,-20.0000001668961));
#416=CARTESIAN_POINT('',(-11.10411457195,-1.957954995791,-20.0000001668961));
#417=CARTESIAN_POINT('',(-11.25633722227,-0.655606985222,-20.0000001668961));
#418=CARTESIAN_POINT('',(-11.25633722227,0.655606985222,-20.0000001668961));
#419=CARTESIAN_POINT('',(-11.10411457195,1.957954995791,-20.0000001668961));
#420=CARTESIAN_POINT('',(-10.80172781825,3.233825024131,-20.0000001668961));
#421=CARTESIAN_POINT('',(-10.35326623636,4.465963115684,-20.0000001668961));
#422=CARTESIAN_POINT('',(-9.764794450722,5.637706720777,-20.0000001668961));
#423=CARTESIAN_POINT('',(-9.044270716197,6.733210001209,-20.0000001668961));
#424=CARTESIAN_POINT('',(-8.201438195455,7.737658214326,-20.0000001668961));
#425=CARTESIAN_POINT('',(-7.247697308163,8.637467697628,-20.0000001668961));
#426=CARTESIAN_POINT('',(-6.195936225733,9.420470905692,-20.0000001668961));
#427=CARTESIAN_POINT('',(-5.060413808684,10.07607594998,-20.0000001668961));
#428=CARTESIAN_POINT('',(-3.856353203062,10.59542851623,-20.0000001668961));
#429=CARTESIAN_POINT('',(-2.600533053552,10.97146188817,-20.0000001668961));
#430=CARTESIAN_POINT('',(-1.308085857844,11.19925269523,-20.0000001668961));
#431=CARTESIAN_POINT('',(-0.4382920982972,11.24982855073,-20.0000001668961));
#432=CARTESIAN_POINT('',(0.,11.25,-20.0000001668961));
#433=CARTESIAN_POINT('',(0.,0.,-20.0000001668961));
#434=CARTESIAN_POINT('',(6.25,0.,-20.0000001668961));
#435=CARTESIAN_POINT('',(0.,0.,-20.0000001668961));
#436=CARTESIAN_POINT('',(0.,0.,0.));
#437=CARTESIAN_POINT('',(6.,0.,0.));
#438=CARTESIAN_POINT('',(0.,0.,-13.5669874650039));
#439=CARTESIAN_POINT('',(6.,0.,-13.5669874650039));
#440=CARTESIAN_POINT('',(0.,0.,-20.0000001668961));
#441=CARTESIAN_POINT('',(0.,0.,-20.0000001668961));
#442=CARTESIAN_POINT('',(0.,11.5,-20.0000001668961));
#443=CARTESIAN_POINT('',(0.,0.,-20.0000001668961));
#444=CARTESIAN_POINT('',(0.,0.,-5.00000016689614));
#445=CARTESIAN_POINT('',(0.,-11.5625,-5.00000016689614));
#446=CARTESIAN_POINT('',(0.,0.,-5.00000016689614));
#447=CARTESIAN_POINT('',(0.,11.5,-5.00000016689614));
#448=CARTESIAN_POINT('',(0.,0.,-5.00000016689614));
#449=CARTESIAN_POINT('',(0.,0.,-14.0000001668961));
#450=CARTESIAN_POINT('',(6.25,0.,-14.0000001668961));
#451=CARTESIAN_POINT('',(0.,0.,-20.0000001668961));
#452=CARTESIAN_POINT('',(0.,0.,-14.0000001668961));
#453=CARTESIAN_POINT('',(0.,0.,0.));
#454=CARTESIAN_POINT('',(11.9124999963288,0.,0.));
#455=CARTESIAN_POINT('',(0.,0.,0.));
#456=CARTESIAN_POINT('',(0.,0.,-20.7500001668961));
#457=CARTESIAN_POINT('',(0.,0.,-0.606217938096443));
#458=CARTESIAN_POINT('',(0.,-11.5625,-0.606217938096443));
#459=CARTESIAN_POINT('',(0.,0.,-1.66896142739237E-7));
#460=CARTESIAN_POINT('',(0.,0.,-0.303109027720742));
#461=CARTESIAN_POINT('',(0.,0.,0.));
#462=CARTESIAN_POINT('',(-11.91249999632,0.,0.));
#463=CARTESIAN_POINT('',(0.,0.,73.8423700237907));
#464=CARTESIAN_POINT('',(10.2862965735756,0.,73.8423700237907));
#465=CARTESIAN_POINT('',(0.,0.,40.4999999396539));
#466=CARTESIAN_POINT('',(0.,0.,75.6286665437239));
#467=CARTESIAN_POINT('',(0.,8.5,75.6286665437239));
#468=CARTESIAN_POINT('',(0.,0.,74.8143332541339));
#469=CARTESIAN_POINT('',(0.,0.,80.9999998331039));
#470=CARTESIAN_POINT('',(0.,-8.5,80.9999998331039));
#471=CARTESIAN_POINT('',(0.,0.,73.9999998331039));
#472=CARTESIAN_POINT('',(0.,0.,80.9999998331039));
#473=CARTESIAN_POINT('',(0.,0.,0.));
#474=CARTESIAN_POINT('',(6.,0.,0.));
#475=CARTESIAN_POINT('',(0.,0.,0.));
#476=CARTESIAN_POINT('',(0.,0.,0.249999833103857));
#477=CARTESIAN_POINT('',(6.,0.,0.249999833103857));
#478=CARTESIAN_POINT('',(0.,0.,-20.0000001668961));
#479=CARTESIAN_POINT('',(0.,0.,1.74999983310386));
#480=CARTESIAN_POINT('',(4.5,0.,1.74999983310386));
#481=CARTESIAN_POINT('',(0.,0.,0.249999833103857));
#482=CARTESIAN_POINT('',(0.,4.5,1.74999983310386));
#483=MECHANICAL_DESIGN_GEOMETRIC_PRESENTATION_REPRESENTATION('',(#235,#236,
#237,#238,#239),#484);
#484=(
GEOMETRIC_REPRESENTATION_CONTEXT(3)
GLOBAL_UNCERTAINTY_ASSIGNED_CONTEXT((#485))
GLOBAL_UNIT_ASSIGNED_CONTEXT((#491,#487,#486))
REPRESENTATION_CONTEXT('BC03058211220','TOP_LEVEL_ASSEMBLY_PART')
);
#485=UNCERTAINTY_MEASURE_WITH_UNIT(LENGTH_MEASURE(2.E-5),#491,
'DISTANCE_ACCURACY_VALUE','Maximum Tolerance applied to model');
#486=(
NAMED_UNIT(*)
SI_UNIT($,.STERADIAN.)
SOLID_ANGLE_UNIT()
);
#487=(
CONVERSION_BASED_UNIT('DEGREE',#489)
NAMED_UNIT(#488)
PLANE_ANGLE_UNIT()
);
#488=DIMENSIONAL_EXPONENTS(0.,0.,0.,0.,0.,0.,0.);
#489=PLANE_ANGLE_MEASURE_WITH_UNIT(PLANE_ANGLE_MEASURE(0.0174532925),#490);
#490=(
NAMED_UNIT(*)
PLANE_ANGLE_UNIT()
SI_UNIT($,.RADIAN.)
);
#491=(
LENGTH_UNIT()
NAMED_UNIT(*)
SI_UNIT(.MILLI.,.METRE.)
);
ENDSEC;
END-ISO-10303-21;
