ISO-10303-21;
HEADER;
/* Generated by software containing ST-Developer
 * from STEP Tools, Inc. (www.steptools.com) 
 */
/* OPTION: using custom schema-name function */

FILE_DESCRIPTION(
/* description */ (''),
/* implementation_level */ '2;1');

FILE_NAME(
/* name */ '335.14-1208.0-042-110-E.stp',
/* time_stamp */ '2018-02-19T13:39:14+05:00',
/* author */ (''),
/* organization */ (''),
/* preprocessor_version */ 'ST-DEVELOPER v16',
/* originating_system */ 'SIEMENS PLM Software NX 11.0',
/* authorisation */ '');

FILE_SCHEMA (('AUTOMOTIVE_DESIGN { 1 0 10303 214 3 1 1 1 }'));
ENDSEC;

DATA;
#10=CONSTRUCTIVE_GEOMETRY_REPRESENTATION_RELATIONSHIP(
'supplemental geometry','',#24,#11);
#11=CONSTRUCTIVE_GEOMETRY_REPRESENTATION('supplemental geometry',(#349),
#591);
#12=SHAPE_REPRESENTATION_RELATIONSHIP('None',
'relationship between 335.14-1208.0-042-110-E-None and 335.14-1208.0-0
42-110-E-None',#24,#13);
#13=ADVANCED_BREP_SHAPE_REPRESENTATION('335.14-1208.0-042-110-E-None',(#35,
#36),#591);
#14=SHAPE_DEFINITION_REPRESENTATION(#15,#24);
#15=PRODUCT_DEFINITION_SHAPE('','',#16);
#16=PRODUCT_DEFINITION(' ','',#18,#17);
#17=PRODUCT_DEFINITION_CONTEXT('part definition',#23,'design');
#18=PRODUCT_DEFINITION_FORMATION_WITH_SPECIFIED_SOURCE(' ',' ',#20,
 .NOT_KNOWN.);
#19=PRODUCT_RELATED_PRODUCT_CATEGORY('part','',(#20));
#20=PRODUCT('335.14-1208.0-042-110-E','335.14-1208.0-042-110-E',' ',(#21));
#21=PRODUCT_CONTEXT(' ',#23,'mechanical');
#22=APPLICATION_PROTOCOL_DEFINITION('international standard',
'automotive_design',2010,#23);
#23=APPLICATION_CONTEXT(
'core data for automotive mechanical design processes');
#24=SHAPE_REPRESENTATION('335.14-1208.0-042-110-E-None',(#348),#591);
#25=SURFACE_STYLE_USAGE(.BOTH.,#27);
#26=SURFACE_STYLE_USAGE(.BOTH.,#28);
#27=SURFACE_SIDE_STYLE('',(#29));
#28=SURFACE_SIDE_STYLE('',(#30));
#29=SURFACE_STYLE_FILL_AREA(#31);
#30=SURFACE_STYLE_FILL_AREA(#32);
#31=FILL_AREA_STYLE('',(#33));
#32=FILL_AREA_STYLE('',(#34));
#33=FILL_AREA_STYLE_COLOUR('',#346);
#34=FILL_AREA_STYLE_COLOUR('',#346);
#35=MANIFOLD_SOLID_BREP('NOCUT',#37);
#36=MANIFOLD_SOLID_BREP('NOCUT',#38);
#37=CLOSED_SHELL('',(#107,#108,#109,#110,#111,#112,#113,#114,#115,#116,
#117,#118,#119,#120,#121,#122,#123,#124));
#38=CLOSED_SHELL('',(#125,#126,#127,#128));
#39=LINE('',#549,#54);
#40=LINE('',#551,#55);
#41=LINE('',#553,#56);
#42=LINE('',#555,#57);
#43=LINE('',#557,#58);
#44=LINE('',#559,#59);
#45=LINE('',#561,#60);
#46=LINE('',#563,#61);
#47=LINE('',#565,#62);
#48=LINE('',#567,#63);
#49=LINE('',#569,#64);
#50=LINE('',#570,#65);
#51=LINE('',#572,#66);
#52=LINE('',#573,#67);
#53=LINE('',#576,#68);
#54=VECTOR('',#443,1.);
#55=VECTOR('',#444,1.);
#56=VECTOR('',#447,1.);
#57=VECTOR('',#448,1.);
#58=VECTOR('',#451,1.);
#59=VECTOR('',#452,1.);
#60=VECTOR('',#455,1.);
#61=VECTOR('',#456,1.);
#62=VECTOR('',#459,1.);
#63=VECTOR('',#460,1.);
#64=VECTOR('',#463,1.);
#65=VECTOR('',#464,1.);
#66=VECTOR('',#465,1.);
#67=VECTOR('',#466,1.);
#68=VECTOR('',#471,1.);
#69=(
BOUNDED_CURVE()
B_SPLINE_CURVE(3,(#522,#523,#524,#525),.UNSPECIFIED.,.F.,.F.)
B_SPLINE_CURVE_WITH_KNOTS((4,4),(0.,1.),.UNSPECIFIED.)
CURVE()
GEOMETRIC_REPRESENTATION_ITEM()
RATIONAL_B_SPLINE_CURVE((1.,0.99850407624205,0.99850407624205,1.))
REPRESENTATION_ITEM('')
);
#70=(
BOUNDED_CURVE()
B_SPLINE_CURVE(3,(#533,#534,#535,#536),.UNSPECIFIED.,.F.,.F.)
B_SPLINE_CURVE_WITH_KNOTS((4,4),(0.,1.),.UNSPECIFIED.)
CURVE()
GEOMETRIC_REPRESENTATION_ITEM()
RATIONAL_B_SPLINE_CURVE((1.,0.99850407624205,0.99850407624205,1.))
REPRESENTATION_ITEM('')
);
#71=(
BOUNDED_CURVE()
B_SPLINE_CURVE(3,(#544,#545,#546,#547),.UNSPECIFIED.,.F.,.F.)
B_SPLINE_CURVE_WITH_KNOTS((4,4),(0.,1.),.UNSPECIFIED.)
CURVE()
GEOMETRIC_REPRESENTATION_ITEM()
RATIONAL_B_SPLINE_CURVE((1.,0.99850407624205,0.99850407624205,1.))
REPRESENTATION_ITEM('')
);
#72=ELLIPSE('',#365,8.0000000000002,4.);
#73=ELLIPSE('',#368,8.0000000000002,4.);
#74=ELLIPSE('',#371,8.0000000000002,4.);
#75=PLANE('',#361);
#76=PLANE('',#363);
#77=PLANE('',#374);
#78=PLANE('',#375);
#79=PLANE('',#376);
#80=PLANE('',#377);
#81=PLANE('',#378);
#82=PLANE('',#379);
#83=PLANE('',#380);
#84=PLANE('',#381);
#85=PLANE('',#382);
#86=PLANE('',#383);
#87=PLANE('',#385);
#88=PLANE('',#390);
#89=FACE_OUTER_BOUND('',#160,.T.);
#90=FACE_OUTER_BOUND('',#165,.T.);
#91=FACE_OUTER_BOUND('',#166,.T.);
#92=FACE_OUTER_BOUND('',#167,.T.);
#93=FACE_OUTER_BOUND('',#168,.T.);
#94=FACE_OUTER_BOUND('',#169,.T.);
#95=FACE_OUTER_BOUND('',#170,.T.);
#96=FACE_OUTER_BOUND('',#171,.T.);
#97=FACE_OUTER_BOUND('',#172,.T.);
#98=FACE_OUTER_BOUND('',#173,.T.);
#99=FACE_OUTER_BOUND('',#174,.T.);
#100=FACE_OUTER_BOUND('',#175,.T.);
#101=FACE_OUTER_BOUND('',#180,.T.);
#102=TOROIDAL_SURFACE('',#360,10.,6.);
#103=CYLINDRICAL_SURFACE('',#355,6.);
#104=CYLINDRICAL_SURFACE('',#359,4.);
#105=CYLINDRICAL_SURFACE('',#373,4.);
#106=CYLINDRICAL_SURFACE('',#389,6.);
#107=ADVANCED_FACE('',(#132,#133),#129,.T.);
#108=ADVANCED_FACE('',(#134,#135),#103,.T.);
#109=ADVANCED_FACE('',(#136,#137),#130,.T.);
#110=ADVANCED_FACE('',(#138,#139),#104,.T.);
#111=ADVANCED_FACE('',(#140,#141),#102,.F.);
#112=ADVANCED_FACE('',(#89),#75,.T.);
#113=ADVANCED_FACE('',(#142,#143),#76,.F.);
#114=ADVANCED_FACE('',(#144,#145),#105,.T.);
#115=ADVANCED_FACE('',(#90),#77,.F.);
#116=ADVANCED_FACE('',(#91),#78,.F.);
#117=ADVANCED_FACE('',(#92),#79,.F.);
#118=ADVANCED_FACE('',(#93),#80,.F.);
#119=ADVANCED_FACE('',(#94),#81,.F.);
#120=ADVANCED_FACE('',(#95),#82,.F.);
#121=ADVANCED_FACE('',(#96),#83,.F.);
#122=ADVANCED_FACE('',(#97),#84,.F.);
#123=ADVANCED_FACE('',(#98),#85,.F.);
#124=ADVANCED_FACE('',(#99),#86,.F.);
#125=ADVANCED_FACE('',(#100),#87,.F.);
#126=ADVANCED_FACE('',(#146,#147),#131,.T.);
#127=ADVANCED_FACE('',(#148,#149),#106,.T.);
#128=ADVANCED_FACE('',(#101),#88,.F.);
#129=CONICAL_SURFACE('',#352,0.446744913297926,20.);
#130=CONICAL_SURFACE('',#357,6.,30.0000000000002);
#131=CONICAL_SURFACE('',#387,4.5,45.000000000001);
#132=FACE_BOUND('',#150,.T.);
#133=FACE_BOUND('',#151,.T.);
#134=FACE_BOUND('',#152,.T.);
#135=FACE_BOUND('',#153,.T.);
#136=FACE_BOUND('',#154,.T.);
#137=FACE_BOUND('',#155,.T.);
#138=FACE_BOUND('',#156,.T.);
#139=FACE_BOUND('',#157,.T.);
#140=FACE_BOUND('',#158,.T.);
#141=FACE_BOUND('',#159,.T.);
#142=FACE_BOUND('',#161,.T.);
#143=FACE_BOUND('',#162,.T.);
#144=FACE_BOUND('',#163,.T.);
#145=FACE_BOUND('',#164,.T.);
#146=FACE_BOUND('',#176,.T.);
#147=FACE_BOUND('',#177,.T.);
#148=FACE_BOUND('',#178,.T.);
#149=FACE_BOUND('',#179,.T.);
#150=EDGE_LOOP('',(#181));
#151=EDGE_LOOP('',(#182));
#152=EDGE_LOOP('',(#183));
#153=EDGE_LOOP('',(#184));
#154=EDGE_LOOP('',(#185));
#155=EDGE_LOOP('',(#186));
#156=EDGE_LOOP('',(#187));
#157=EDGE_LOOP('',(#188));
#158=EDGE_LOOP('',(#189));
#159=EDGE_LOOP('',(#190));
#160=EDGE_LOOP('',(#191));
#161=EDGE_LOOP('',(#192));
#162=EDGE_LOOP('',(#193));
#163=EDGE_LOOP('',(#194,#195,#196,#197,#198,#199,#200,#201,#202,#203,#204,
#205));
#164=EDGE_LOOP('',(#206));
#165=EDGE_LOOP('',(#207,#208,#209));
#166=EDGE_LOOP('',(#210,#211,#212));
#167=EDGE_LOOP('',(#213,#214,#215));
#168=EDGE_LOOP('',(#216,#217,#218,#219));
#169=EDGE_LOOP('',(#220,#221,#222,#223));
#170=EDGE_LOOP('',(#224,#225,#226,#227,#228,#229,#230,#231,#232));
#171=EDGE_LOOP('',(#233,#234,#235,#236));
#172=EDGE_LOOP('',(#237,#238,#239,#240));
#173=EDGE_LOOP('',(#241,#242,#243,#244));
#174=EDGE_LOOP('',(#245,#246,#247,#248));
#175=EDGE_LOOP('',(#249));
#176=EDGE_LOOP('',(#250));
#177=EDGE_LOOP('',(#251));
#178=EDGE_LOOP('',(#252));
#179=EDGE_LOOP('',(#253));
#180=EDGE_LOOP('',(#254));
#181=ORIENTED_EDGE('',*,*,#283,.F.);
#182=ORIENTED_EDGE('',*,*,#284,.T.);
#183=ORIENTED_EDGE('',*,*,#285,.F.);
#184=ORIENTED_EDGE('',*,*,#286,.T.);
#185=ORIENTED_EDGE('',*,*,#285,.T.);
#186=ORIENTED_EDGE('',*,*,#287,.F.);
#187=ORIENTED_EDGE('',*,*,#283,.T.);
#188=ORIENTED_EDGE('',*,*,#288,.T.);
#189=ORIENTED_EDGE('',*,*,#287,.T.);
#190=ORIENTED_EDGE('',*,*,#288,.F.);
#191=ORIENTED_EDGE('',*,*,#286,.F.);
#192=ORIENTED_EDGE('',*,*,#284,.F.);
#193=ORIENTED_EDGE('',*,*,#289,.F.);
#194=ORIENTED_EDGE('',*,*,#290,.F.);
#195=ORIENTED_EDGE('',*,*,#291,.T.);
#196=ORIENTED_EDGE('',*,*,#292,.T.);
#197=ORIENTED_EDGE('',*,*,#293,.T.);
#198=ORIENTED_EDGE('',*,*,#294,.F.);
#199=ORIENTED_EDGE('',*,*,#295,.T.);
#200=ORIENTED_EDGE('',*,*,#296,.T.);
#201=ORIENTED_EDGE('',*,*,#297,.T.);
#202=ORIENTED_EDGE('',*,*,#298,.F.);
#203=ORIENTED_EDGE('',*,*,#299,.T.);
#204=ORIENTED_EDGE('',*,*,#300,.T.);
#205=ORIENTED_EDGE('',*,*,#301,.T.);
#206=ORIENTED_EDGE('',*,*,#289,.T.);
#207=ORIENTED_EDGE('',*,*,#294,.T.);
#208=ORIENTED_EDGE('',*,*,#302,.T.);
#209=ORIENTED_EDGE('',*,*,#303,.T.);
#210=ORIENTED_EDGE('',*,*,#298,.T.);
#211=ORIENTED_EDGE('',*,*,#304,.T.);
#212=ORIENTED_EDGE('',*,*,#305,.T.);
#213=ORIENTED_EDGE('',*,*,#306,.T.);
#214=ORIENTED_EDGE('',*,*,#307,.T.);
#215=ORIENTED_EDGE('',*,*,#290,.T.);
#216=ORIENTED_EDGE('',*,*,#308,.F.);
#217=ORIENTED_EDGE('',*,*,#309,.T.);
#218=ORIENTED_EDGE('',*,*,#306,.F.);
#219=ORIENTED_EDGE('',*,*,#301,.F.);
#220=ORIENTED_EDGE('',*,*,#305,.F.);
#221=ORIENTED_EDGE('',*,*,#310,.F.);
#222=ORIENTED_EDGE('',*,*,#311,.T.);
#223=ORIENTED_EDGE('',*,*,#299,.F.);
#224=ORIENTED_EDGE('',*,*,#311,.F.);
#225=ORIENTED_EDGE('',*,*,#312,.T.);
#226=ORIENTED_EDGE('',*,*,#296,.F.);
#227=ORIENTED_EDGE('',*,*,#313,.F.);
#228=ORIENTED_EDGE('',*,*,#314,.T.);
#229=ORIENTED_EDGE('',*,*,#292,.F.);
#230=ORIENTED_EDGE('',*,*,#315,.F.);
#231=ORIENTED_EDGE('',*,*,#308,.T.);
#232=ORIENTED_EDGE('',*,*,#300,.F.);
#233=ORIENTED_EDGE('',*,*,#312,.F.);
#234=ORIENTED_EDGE('',*,*,#310,.T.);
#235=ORIENTED_EDGE('',*,*,#304,.F.);
#236=ORIENTED_EDGE('',*,*,#297,.F.);
#237=ORIENTED_EDGE('',*,*,#303,.F.);
#238=ORIENTED_EDGE('',*,*,#316,.F.);
#239=ORIENTED_EDGE('',*,*,#313,.T.);
#240=ORIENTED_EDGE('',*,*,#295,.F.);
#241=ORIENTED_EDGE('',*,*,#314,.F.);
#242=ORIENTED_EDGE('',*,*,#316,.T.);
#243=ORIENTED_EDGE('',*,*,#302,.F.);
#244=ORIENTED_EDGE('',*,*,#293,.F.);
#245=ORIENTED_EDGE('',*,*,#309,.F.);
#246=ORIENTED_EDGE('',*,*,#315,.T.);
#247=ORIENTED_EDGE('',*,*,#291,.F.);
#248=ORIENTED_EDGE('',*,*,#307,.F.);
#249=ORIENTED_EDGE('',*,*,#317,.F.);
#250=ORIENTED_EDGE('',*,*,#318,.F.);
#251=ORIENTED_EDGE('',*,*,#317,.T.);
#252=ORIENTED_EDGE('',*,*,#319,.T.);
#253=ORIENTED_EDGE('',*,*,#318,.T.);
#254=ORIENTED_EDGE('',*,*,#319,.F.);
#255=VERTEX_POINT('',#495);
#256=VERTEX_POINT('',#497);
#257=VERTEX_POINT('',#500);
#258=VERTEX_POINT('',#502);
#259=VERTEX_POINT('',#505);
#260=VERTEX_POINT('',#508);
#261=VERTEX_POINT('',#513);
#262=VERTEX_POINT('',#516);
#263=VERTEX_POINT('',#517);
#264=VERTEX_POINT('',#519);
#265=VERTEX_POINT('',#521);
#266=VERTEX_POINT('',#526);
#267=VERTEX_POINT('',#528);
#268=VERTEX_POINT('',#530);
#269=VERTEX_POINT('',#532);
#270=VERTEX_POINT('',#537);
#271=VERTEX_POINT('',#539);
#272=VERTEX_POINT('',#541);
#273=VERTEX_POINT('',#543);
#274=VERTEX_POINT('',#550);
#275=VERTEX_POINT('',#554);
#276=VERTEX_POINT('',#558);
#277=VERTEX_POINT('',#562);
#278=VERTEX_POINT('',#566);
#279=VERTEX_POINT('',#571);
#280=VERTEX_POINT('',#581);
#281=VERTEX_POINT('',#584);
#282=VERTEX_POINT('',#587);
#283=EDGE_CURVE('',#255,#255,#320,.T.);
#284=EDGE_CURVE('',#256,#256,#321,.T.);
#285=EDGE_CURVE('',#257,#257,#322,.T.);
#286=EDGE_CURVE('',#258,#258,#323,.T.);
#287=EDGE_CURVE('',#259,#259,#324,.T.);
#288=EDGE_CURVE('',#260,#260,#325,.T.);
#289=EDGE_CURVE('',#261,#261,#326,.T.);
#290=EDGE_CURVE('',#262,#263,#327,.T.);
#291=EDGE_CURVE('',#262,#264,#72,.T.);
#292=EDGE_CURVE('',#264,#265,#328,.T.);
#293=EDGE_CURVE('',#265,#266,#69,.T.);
#294=EDGE_CURVE('',#267,#266,#329,.T.);
#295=EDGE_CURVE('',#267,#268,#73,.T.);
#296=EDGE_CURVE('',#268,#269,#330,.T.);
#297=EDGE_CURVE('',#269,#270,#70,.T.);
#298=EDGE_CURVE('',#271,#270,#331,.T.);
#299=EDGE_CURVE('',#271,#272,#74,.T.);
#300=EDGE_CURVE('',#272,#273,#332,.T.);
#301=EDGE_CURVE('',#273,#263,#71,.T.);
#302=EDGE_CURVE('',#266,#274,#39,.T.);
#303=EDGE_CURVE('',#274,#267,#40,.T.);
#304=EDGE_CURVE('',#270,#275,#41,.T.);
#305=EDGE_CURVE('',#275,#271,#42,.T.);
#306=EDGE_CURVE('',#263,#276,#43,.T.);
#307=EDGE_CURVE('',#276,#262,#44,.T.);
#308=EDGE_CURVE('',#277,#273,#45,.T.);
#309=EDGE_CURVE('',#277,#276,#46,.T.);
#310=EDGE_CURVE('',#278,#275,#47,.T.);
#311=EDGE_CURVE('',#278,#272,#48,.T.);
#312=EDGE_CURVE('',#278,#269,#49,.T.);
#313=EDGE_CURVE('',#279,#268,#50,.T.);
#314=EDGE_CURVE('',#279,#265,#51,.T.);
#315=EDGE_CURVE('',#277,#264,#52,.T.);
#316=EDGE_CURVE('',#279,#274,#53,.T.);
#317=EDGE_CURVE('',#280,#280,#333,.T.);
#318=EDGE_CURVE('',#281,#281,#334,.T.);
#319=EDGE_CURVE('',#282,#282,#335,.T.);
#320=CIRCLE('',#350,4.);
#321=CIRCLE('',#351,3.98935822227528);
#322=CIRCLE('',#353,6.);
#323=CIRCLE('',#354,6.);
#324=CIRCLE('',#356,4.80384757729337);
#325=CIRCLE('',#358,4.);
#326=CIRCLE('',#362,4.);
#327=CIRCLE('',#364,4.);
#328=CIRCLE('',#366,4.);
#329=CIRCLE('',#367,4.);
#330=CIRCLE('',#369,4.);
#331=CIRCLE('',#370,4.);
#332=CIRCLE('',#372,4.);
#333=CIRCLE('',#384,4.5);
#334=CIRCLE('',#386,6.);
#335=CIRCLE('',#388,6.);
#336=PRESENTATION_LAYER_ASSIGNMENT('1','Layer 1',(#349,#36));
#337=PRESENTATION_LAYER_ASSIGNMENT('2','Layer 2',(#35));
#338=STYLED_ITEM('',(#341),#349);
#339=STYLED_ITEM('',(#342),#35);
#340=STYLED_ITEM('',(#343),#36);
#341=PRESENTATION_STYLE_ASSIGNMENT((#344));
#342=PRESENTATION_STYLE_ASSIGNMENT((#25));
#343=PRESENTATION_STYLE_ASSIGNMENT((#26));
#344=CURVE_STYLE('',#347,POSITIVE_LENGTH_MEASURE(0.13),#345);
#345=COLOUR_RGB('Strong Stone',0.576470588235294,0.54508278019379,0.392156862745098);
#346=COLOUR_RGB('Medium Gray',0.490196078431373,0.490196078431373,0.490196078431373);
#347=DRAUGHTING_PRE_DEFINED_CURVE_FONT('continuous');
#348=AXIS2_PLACEMENT_3D('',#492,#391,#392);
#349=AXIS2_PLACEMENT_3D('',#493,#393,#394);
#350=AXIS2_PLACEMENT_3D('',#494,#395,#396);
#351=AXIS2_PLACEMENT_3D('',#496,#397,#398);
#352=AXIS2_PLACEMENT_3D('',#498,#399,#400);
#353=AXIS2_PLACEMENT_3D('',#499,#401,#402);
#354=AXIS2_PLACEMENT_3D('',#501,#403,#404);
#355=AXIS2_PLACEMENT_3D('',#503,#405,#406);
#356=AXIS2_PLACEMENT_3D('',#504,#407,#408);
#357=AXIS2_PLACEMENT_3D('',#506,#409,#410);
#358=AXIS2_PLACEMENT_3D('',#507,#411,#412);
#359=AXIS2_PLACEMENT_3D('',#509,#413,#414);
#360=AXIS2_PLACEMENT_3D('',#510,#415,#416);
#361=AXIS2_PLACEMENT_3D('',#511,#417,#418);
#362=AXIS2_PLACEMENT_3D('',#512,#419,#420);
#363=AXIS2_PLACEMENT_3D('',#514,#421,#422);
#364=AXIS2_PLACEMENT_3D('',#515,#423,#424);
#365=AXIS2_PLACEMENT_3D('',#518,#425,#426);
#366=AXIS2_PLACEMENT_3D('',#520,#427,#428);
#367=AXIS2_PLACEMENT_3D('',#527,#429,#430);
#368=AXIS2_PLACEMENT_3D('',#529,#431,#432);
#369=AXIS2_PLACEMENT_3D('',#531,#433,#434);
#370=AXIS2_PLACEMENT_3D('',#538,#435,#436);
#371=AXIS2_PLACEMENT_3D('',#540,#437,#438);
#372=AXIS2_PLACEMENT_3D('',#542,#439,#440);
#373=AXIS2_PLACEMENT_3D('',#548,#441,#442);
#374=AXIS2_PLACEMENT_3D('',#552,#445,#446);
#375=AXIS2_PLACEMENT_3D('',#556,#449,#450);
#376=AXIS2_PLACEMENT_3D('',#560,#453,#454);
#377=AXIS2_PLACEMENT_3D('',#564,#457,#458);
#378=AXIS2_PLACEMENT_3D('',#568,#461,#462);
#379=AXIS2_PLACEMENT_3D('',#574,#467,#468);
#380=AXIS2_PLACEMENT_3D('',#575,#469,#470);
#381=AXIS2_PLACEMENT_3D('',#577,#472,#473);
#382=AXIS2_PLACEMENT_3D('',#578,#474,#475);
#383=AXIS2_PLACEMENT_3D('',#579,#476,#477);
#384=AXIS2_PLACEMENT_3D('',#580,#478,#479);
#385=AXIS2_PLACEMENT_3D('',#582,#480,#481);
#386=AXIS2_PLACEMENT_3D('',#583,#482,#483);
#387=AXIS2_PLACEMENT_3D('',#585,#484,#485);
#388=AXIS2_PLACEMENT_3D('',#586,#486,#487);
#389=AXIS2_PLACEMENT_3D('',#588,#488,#489);
#390=AXIS2_PLACEMENT_3D('',#589,#490,#491);
#391=DIRECTION('',(0.,0.,1.));
#392=DIRECTION('',(1.,0.,0.));
#393=DIRECTION('',(0.,0.,1.));
#394=DIRECTION('',(1.,0.,0.));
#395=DIRECTION('',(0.,-1.33440267382832E-16,1.));
#396=DIRECTION('',(0.,-1.,0.));
#397=DIRECTION('',(0.,0.,1.));
#398=DIRECTION('',(-1.,0.,0.));
#399=DIRECTION('',(0.,-1.33440267382832E-16,1.));
#400=DIRECTION('',(0.,1.,1.3328758016905E-16));
#401=DIRECTION('',(0.,0.,-1.));
#402=DIRECTION('',(1.,0.,0.));
#403=DIRECTION('',(0.,0.,-1.));
#404=DIRECTION('',(1.,0.,0.));
#405=DIRECTION('',(0.,0.,-1.));
#406=DIRECTION('',(-1.,0.,0.));
#407=DIRECTION('',(0.,0.,-1.));
#408=DIRECTION('',(1.,0.,0.));
#409=DIRECTION('',(0.,0.,1.));
#410=DIRECTION('',(1.,0.,-8.92117601172941E-17));
#411=DIRECTION('',(0.,0.,-1.));
#412=DIRECTION('',(1.,0.,0.));
#413=DIRECTION('',(0.,0.,-1.));
#414=DIRECTION('',(-1.,0.,0.));
#415=DIRECTION('',(0.,0.,-1.));
#416=DIRECTION('',(-1.,0.,0.));
#417=DIRECTION('',(0.,0.,1.));
#418=DIRECTION('',(-1.,0.,0.));
#419=DIRECTION('',(0.,0.,-1.));
#420=DIRECTION('',(1.,0.,0.));
#421=DIRECTION('',(0.,0.,-1.));
#422=DIRECTION('',(1.,0.,0.));
#423=DIRECTION('',(0.,0.,-1.));
#424=DIRECTION('',(1.,0.,0.));
#425=DIRECTION('',(0.433012701892216,-0.75000000000001,0.499999999999988));
#426=DIRECTION('',(0.24999999999999,-0.433012701892211,-0.866025403784445));
#427=DIRECTION('',(0.,0.,1.));
#428=DIRECTION('',(1.,0.,0.));
#429=DIRECTION('',(0.,0.,-1.));
#430=DIRECTION('',(1.,0.,0.));
#431=DIRECTION('',(0.433012701892227,0.750000000000004,0.499999999999988));
#432=DIRECTION('',(0.249999999999996,0.433012701892207,-0.866025403784446));
#433=DIRECTION('',(0.,0.,1.));
#434=DIRECTION('',(1.,0.,0.));
#435=DIRECTION('',(0.,0.,-1.));
#436=DIRECTION('',(1.,0.,0.));
#437=DIRECTION('',(-0.866025403784446,0.,0.499999999999988));
#438=DIRECTION('',(-0.499999999999988,0.,-0.866025403784446));
#439=DIRECTION('',(0.,0.,1.));
#440=DIRECTION('',(1.,0.,0.));
#441=DIRECTION('',(0.,0.,-1.));
#442=DIRECTION('',(-1.,0.,0.));
#443=DIRECTION('',(-0.866025403784443,-0.499999999999992,0.));
#444=DIRECTION('',(-0.866025403784436,0.500000000000004,0.));
#445=DIRECTION('',(0.,0.,1.));
#446=DIRECTION('',(1.,0.,0.));
#447=DIRECTION('',(0.866025403784436,-0.500000000000004,0.));
#448=DIRECTION('',(0.,-1.,0.));
#449=DIRECTION('',(0.,0.,1.));
#450=DIRECTION('',(1.,0.,0.));
#451=DIRECTION('',(0.,1.,0.));
#452=DIRECTION('',(0.866025403784443,0.499999999999992,0.));
#453=DIRECTION('',(0.,0.,1.));
#454=DIRECTION('',(1.,0.,0.));
#455=DIRECTION('',(0.,-1.,0.));
#456=DIRECTION('',(0.480384461415268,-0.277350098112597,-0.832050294337846));
#457=DIRECTION('',(0.866025403784436,0.,0.500000000000004));
#458=DIRECTION('',(0.500000000000004,0.,-0.866025403784436));
#459=DIRECTION('',(-0.480384461415248,-0.277350098112629,-0.832050294337847));
#460=DIRECTION('',(0.,-1.,0.));
#461=DIRECTION('',(-0.866025403784446,0.,0.499999999999988));
#462=DIRECTION('',(0.499999999999988,0.,0.866025403784446));
#463=DIRECTION('',(-0.866025403784436,0.500000000000004,0.));
#464=DIRECTION('',(-0.866025403784436,0.500000000000004,0.));
#465=DIRECTION('',(0.866025403784443,0.499999999999992,0.));
#466=DIRECTION('',(0.866025403784443,0.499999999999992,0.));
#467=DIRECTION('',(-9.79100466913938E-15,0.,1.));
#468=DIRECTION('',(1.,0.,9.7907792984131E-15));
#469=DIRECTION('',(-0.433012701892222,-0.749999999999996,0.500000000000004));
#470=DIRECTION('',(-6.76542155630955E-17,0.554700196225234,0.83205029433784));
#471=DIRECTION('',(-1.66708094062245E-14,0.554700196225224,-0.832050294337847));
#472=DIRECTION('',(0.433012701892226,0.750000000000004,0.499999999999987));
#473=DIRECTION('',(-6.76135579816273E-17,0.554700196225217,-0.832050294337852));
#474=DIRECTION('',(-0.433012701892211,0.750000000000003,0.500000000000003));
#475=DIRECTION('',(2.16352543519482E-16,0.55470019622523,-0.832050294337843));
#476=DIRECTION('',(0.433012701892216,-0.75000000000001,0.499999999999988));
#477=DIRECTION('',(-2.1618991319361E-16,0.554700196225215,0.832050294337853));
#478=DIRECTION('',(0.,0.,-1.));
#479=DIRECTION('',(1.,0.,0.));
#480=DIRECTION('',(0.,0.,-1.));
#481=DIRECTION('',(-1.,0.,0.));
#482=DIRECTION('',(0.,0.,-1.));
#483=DIRECTION('',(1.,0.,0.));
#484=DIRECTION('',(0.,0.,-1.));
#485=DIRECTION('',(-1.,0.,4.14468525868013E-17));
#486=DIRECTION('',(0.,0.,1.));
#487=DIRECTION('',(1.,0.,0.));
#488=DIRECTION('',(0.,0.,-1.));
#489=DIRECTION('',(-1.,0.,0.));
#490=DIRECTION('',(0.,0.,1.));
#491=DIRECTION('',(-1.,0.,0.));
#492=CARTESIAN_POINT('',(0.,0.,0.));
#493=CARTESIAN_POINT('',(0.,0.,0.));
#494=CARTESIAN_POINT('',(0.,2.66880534765662E-15,-43.));
#495=CARTESIAN_POINT('',(0.,-4.,-43.));
#496=CARTESIAN_POINT('',(-1.49256378077032E-15,3.97151437221424E-15,-43.0292380440015));
#497=CARTESIAN_POINT('',(-3.98935822227528,3.97151437221424E-15,-43.0292380440015));
#498=CARTESIAN_POINT('',(0.,3.97151437221424E-15,-52.7624881162762));
#499=CARTESIAN_POINT('',(0.,0.,-17.9282032302755));
#500=CARTESIAN_POINT('',(6.,0.,-17.9282032302755));
#501=CARTESIAN_POINT('',(0.,0.,0.));
#502=CARTESIAN_POINT('',(6.,0.,0.));
#503=CARTESIAN_POINT('',(0.,0.,-955.));
#504=CARTESIAN_POINT('',(0.,0.,-19.9999999999999));
#505=CARTESIAN_POINT('',(4.80384757729337,0.,-19.9999999999999));
#506=CARTESIAN_POINT('',(0.,0.,-17.9282032302755));
#507=CARTESIAN_POINT('',(0.,0.,-23.0000000000001));
#508=CARTESIAN_POINT('',(4.,0.,-23.0000000000001));
#509=CARTESIAN_POINT('',(0.,0.,-955.));
#510=CARTESIAN_POINT('',(0.,0.,-23.));
#511=CARTESIAN_POINT('',(0.,0.,0.));
#512=CARTESIAN_POINT('',(0.,0.,-43.0292380440015));
#513=CARTESIAN_POINT('',(4.,0.,-43.0292380440015));
#514=CARTESIAN_POINT('',(0.,0.,-43.0292380440015));
#515=CARTESIAN_POINT('',(0.,0.,-60.5));
#516=CARTESIAN_POINT('',(3.91088820921209,0.839615039792531,-60.5));
#517=CARTESIAN_POINT('',(1.22831615074618,-3.80673606043499,-60.5));
#518=CARTESIAN_POINT('',(0.,0.,-58.37249401915));
#519=CARTESIAN_POINT('',(3.76364763499872,1.35460565463477,-59.6));
#520=CARTESIAN_POINT('',(0.,0.,-59.6));
#521=CARTESIAN_POINT('',(3.05494672652319,2.58211163548466,-59.6));
#522=CARTESIAN_POINT('',(3.05494672652319,2.58211163548466,-59.6));
#523=CARTESIAN_POINT('',(2.93952023182225,2.7186749766256,-59.904807288392));
#524=CARTESIAN_POINT('',(2.81520938291758,2.84720370752698,-60.205256737862));
#525=CARTESIAN_POINT('',(2.68257205846593,2.96712102064238,-60.5));
#526=CARTESIAN_POINT('',(2.68257205846593,2.96712102064238,-60.5));
#527=CARTESIAN_POINT('',(0.,0.,-60.5));
#528=CARTESIAN_POINT('',(-2.68257205846587,2.96712102064242,-60.5));
#529=CARTESIAN_POINT('',(0.,0.,-58.37249401915));
#530=CARTESIAN_POINT('',(-3.05494672652314,2.58211163548472,-59.6));
#531=CARTESIAN_POINT('',(0.,0.,-59.6));
#532=CARTESIAN_POINT('',(-3.7636476349987,1.35460565463485,-59.6));
#533=CARTESIAN_POINT('',(-3.7636476349987,1.35460565463485,-59.6));
#534=CARTESIAN_POINT('',(-3.82420171030196,1.18636170738358,-59.904807288392));
#535=CARTESIAN_POINT('',(-3.87335543192639,1.01444098881543,-60.205256737862));
#536=CARTESIAN_POINT('',(-3.91088820921208,0.839615039792605,-60.5));
#537=CARTESIAN_POINT('',(-3.91088820921208,0.839615039792605,-60.5));
#538=CARTESIAN_POINT('',(0.,0.,-60.5));
#539=CARTESIAN_POINT('',(-1.22831615074619,-3.80673606043498,-60.5));
#540=CARTESIAN_POINT('',(0.,0.,-58.37249401915));
#541=CARTESIAN_POINT('',(-0.708700908475562,-3.93671729011951,-59.6));
#542=CARTESIAN_POINT('',(0.,0.,-59.6));
#543=CARTESIAN_POINT('',(0.70870090847554,-3.93671729011952,-59.6));
#544=CARTESIAN_POINT('',(0.70870090847554,-3.93671729011952,-59.6));
#545=CARTESIAN_POINT('',(0.884681478479742,-3.90503668400918,-59.904807288392));
#546=CARTESIAN_POINT('',(1.05814604900885,-3.86164469634241,-60.205256737862));
#547=CARTESIAN_POINT('',(1.22831615074618,-3.80673606043499,-60.5));
#548=CARTESIAN_POINT('',(0.,0.,-955.));
#549=CARTESIAN_POINT('',(-0.614158075373078,1.06375299042491,-60.5));
#550=CARTESIAN_POINT('',(0.028545426676075,1.44964335350504,-60.505238473096));
#551=CARTESIAN_POINT('',(0.61415807537308,1.06375299042488,-60.5));
#552=CARTESIAN_POINT('',(0.,2.70392741173763E-15,-60.5));
#553=CARTESIAN_POINT('',(-0.614158075373096,-1.0637529904249,-60.5));
#554=CARTESIAN_POINT('',(-1.23027868490999,-0.720874491499281,-60.520773464573));
#555=CARTESIAN_POINT('',(-1.22831615074615,2.70392741173763E-15,-60.5));
#556=CARTESIAN_POINT('',(0.,2.70392741173763E-15,-60.5));
#557=CARTESIAN_POINT('',(1.22831615074618,2.70392741173763E-15,-60.5));
#558=CARTESIAN_POINT('',(1.22997496778062,-0.720364290264361,-60.519745260868));
#559=CARTESIAN_POINT('',(0.614158075373068,-1.06375299042489,-60.5));
#560=CARTESIAN_POINT('',(0.,2.70392741173763E-15,-60.5));
#561=CARTESIAN_POINT('',(0.708700908475528,-0.8,-59.6));
#562=CARTESIAN_POINT('',(0.70870090847552,-0.409168660283285,-59.6));
#563=CARTESIAN_POINT('',(1.26706497050179,-0.731540301799941,-60.56711492455));
#564=CARTESIAN_POINT('',(0.708700908475528,-0.8,-59.6));
#565=CARTESIAN_POINT('',(-1.26706497050177,-0.731540301799965,-60.56711492455));
#566=CARTESIAN_POINT('',(-0.70870090847553,-0.409168660283278,-59.6));
#567=CARTESIAN_POINT('',(-0.708700908475532,-0.8,-59.6));
#568=CARTESIAN_POINT('',(-1.25718366420566,-0.8,-60.55));
#569=CARTESIAN_POINT('',(-3.81845206937551,1.3862470095751,-59.6));
#570=CARTESIAN_POINT('',(-3.10975116089998,2.61375299042494,-59.6));
#571=CARTESIAN_POINT('',(1.45283091113058E-14,0.818337320566552,-59.6));
#572=CARTESIAN_POINT('',(3.10975116090001,2.61375299042489,-59.6));
#573=CARTESIAN_POINT('',(3.81845206937553,1.38624700957504,-59.6));
#574=CARTESIAN_POINT('',(-0.708700908475532,-0.8,-59.6));
#575=CARTESIAN_POINT('',(-1.04717077726532,-0.213752990424913,-59.6));
#576=CARTESIAN_POINT('',(-4.98732999343332E-15,1.46308060359989,-60.56711492455));
#577=CARTESIAN_POINT('',(-0.0642284909247136,1.48875299042491,-60.55));
#578=CARTESIAN_POINT('',(0.338469868789796,1.01375299042491,-59.6));
#579=CARTESIAN_POINT('',(1.32141215513038,-0.688752990424921,-60.55));
#580=CARTESIAN_POINT('',(0.,0.,45.));
#581=CARTESIAN_POINT('',(4.5,0.,45.));
#582=CARTESIAN_POINT('',(0.,-4.5,45.));
#583=CARTESIAN_POINT('',(0.,0.,43.5));
#584=CARTESIAN_POINT('',(6.,0.,43.5));
#585=CARTESIAN_POINT('',(0.,0.,45.));
#586=CARTESIAN_POINT('',(0.,0.,0.));
#587=CARTESIAN_POINT('',(6.,0.,0.));
#588=CARTESIAN_POINT('',(0.,0.,-955.));
#589=CARTESIAN_POINT('',(0.,0.,0.));
#590=MECHANICAL_DESIGN_GEOMETRIC_PRESENTATION_REPRESENTATION('',(#338,#339,
#340),#591);
#591=(
GEOMETRIC_REPRESENTATION_CONTEXT(3)
GLOBAL_UNCERTAINTY_ASSIGNED_CONTEXT((#592))
GLOBAL_UNIT_ASSIGNED_CONTEXT((#598,#594,#593))
REPRESENTATION_CONTEXT('335.14-1208','TOP_LEVEL_ASSEMBLY_PART')
);
#592=UNCERTAINTY_MEASURE_WITH_UNIT(LENGTH_MEASURE(0.084263814786869),#598,
'DISTANCE_ACCURACY_VALUE','Maximum Tolerance applied to model');
#593=(
NAMED_UNIT(*)
SI_UNIT($,.STERADIAN.)
SOLID_ANGLE_UNIT()
);
#594=(
CONVERSION_BASED_UNIT('DEGREE',#596)
NAMED_UNIT(#595)
PLANE_ANGLE_UNIT()
);
#595=DIMENSIONAL_EXPONENTS(0.,0.,0.,0.,0.,0.,0.);
#596=PLANE_ANGLE_MEASURE_WITH_UNIT(PLANE_ANGLE_MEASURE(0.0174532925),#597);
#597=(
NAMED_UNIT(*)
PLANE_ANGLE_UNIT()
SI_UNIT($,.RADIAN.)
);
#598=(
LENGTH_UNIT()
NAMED_UNIT(*)
SI_UNIT(.MILLI.,.METRE.)
);
ENDSEC;
END-ISO-10303-21;
