ISO-10303-21;
HEADER;
/* Generated by software containing ST-Developer
 * from STEP Tools, Inc. (www.steptools.com) 
 */
/* OPTION: using custom schema-name function */

FILE_DESCRIPTION(
/* description */ (''),
/* implementation_level */ '2;1');

FILE_NAME(
/* name */ '335.14-1206.0-021-080-E.stp',
/* time_stamp */ '2018-02-19T13:39:14+05:00',
/* author */ (''),
/* organization */ (''),
/* preprocessor_version */ 'ST-DEVELOPER v16',
/* originating_system */ 'SIEMENS PLM Software NX 11.0',
/* authorisation */ '');

FILE_SCHEMA (('AUTOMOTIVE_DESIGN { 1 0 10303 214 3 1 1 1 }'));
ENDSEC;

DATA;
#10=CONSTRUCTIVE_GEOMETRY_REPRESENTATION_RELATIONSHIP(
'supplemental geometry','',#24,#11);
#11=CONSTRUCTIVE_GEOMETRY_REPRESENTATION('supplemental geometry',(#349),
#591);
#12=SHAPE_REPRESENTATION_RELATIONSHIP('None',
'relationship between 335.14-1206.0-021-080-E-None and 335.14-1206.0-0
21-080-E-None',#24,#13);
#13=ADVANCED_BREP_SHAPE_REPRESENTATION('335.14-1206.0-021-080-E-None',(#35,
#36),#591);
#14=SHAPE_DEFINITION_REPRESENTATION(#15,#24);
#15=PRODUCT_DEFINITION_SHAPE('','',#16);
#16=PRODUCT_DEFINITION(' ','',#18,#17);
#17=PRODUCT_DEFINITION_CONTEXT('part definition',#23,'design');
#18=PRODUCT_DEFINITION_FORMATION_WITH_SPECIFIED_SOURCE(' ',' ',#20,
 .NOT_KNOWN.);
#19=PRODUCT_RELATED_PRODUCT_CATEGORY('part','',(#20));
#20=PRODUCT('335.14-1206.0-021-080-E','335.14-1206.0-021-080-E',' ',(#21));
#21=PRODUCT_CONTEXT(' ',#23,'mechanical');
#22=APPLICATION_PROTOCOL_DEFINITION('international standard',
'automotive_design',2010,#23);
#23=APPLICATION_CONTEXT(
'core data for automotive mechanical design processes');
#24=SHAPE_REPRESENTATION('335.14-1206.0-021-080-E-None',(#348),#591);
#25=SURFACE_STYLE_USAGE(.BOTH.,#27);
#26=SURFACE_STYLE_USAGE(.BOTH.,#28);
#27=SURFACE_SIDE_STYLE('',(#29));
#28=SURFACE_SIDE_STYLE('',(#30));
#29=SURFACE_STYLE_FILL_AREA(#31);
#30=SURFACE_STYLE_FILL_AREA(#32);
#31=FILL_AREA_STYLE('',(#33));
#32=FILL_AREA_STYLE('',(#34));
#33=FILL_AREA_STYLE_COLOUR('',#346);
#34=FILL_AREA_STYLE_COLOUR('',#346);
#35=MANIFOLD_SOLID_BREP('NOCUT',#37);
#36=MANIFOLD_SOLID_BREP('NOCUT',#38);
#37=CLOSED_SHELL('',(#106,#107,#108,#109,#110,#111,#112,#113,#114,#115,
#116,#117,#118,#119,#120,#121,#122,#123));
#38=CLOSED_SHELL('',(#124,#125,#126,#127));
#39=LINE('',#549,#54);
#40=LINE('',#551,#55);
#41=LINE('',#553,#56);
#42=LINE('',#555,#57);
#43=LINE('',#557,#58);
#44=LINE('',#559,#59);
#45=LINE('',#561,#60);
#46=LINE('',#563,#61);
#47=LINE('',#565,#62);
#48=LINE('',#567,#63);
#49=LINE('',#569,#64);
#50=LINE('',#571,#65);
#51=LINE('',#573,#66);
#52=LINE('',#575,#67);
#53=LINE('',#576,#68);
#54=VECTOR('',#434,1.);
#55=VECTOR('',#435,1.);
#56=VECTOR('',#438,1.);
#57=VECTOR('',#439,1.);
#58=VECTOR('',#442,1.);
#59=VECTOR('',#443,1.);
#60=VECTOR('',#446,1.);
#61=VECTOR('',#447,1.);
#62=VECTOR('',#450,1.);
#63=VECTOR('',#451,1.);
#64=VECTOR('',#454,1.);
#65=VECTOR('',#455,1.);
#66=VECTOR('',#458,1.);
#67=VECTOR('',#461,1.);
#68=VECTOR('',#462,1.);
#69=(
BOUNDED_CURVE()
B_SPLINE_CURVE(3,(#509,#510,#511,#512),.UNSPECIFIED.,.F.,.F.)
B_SPLINE_CURVE_WITH_KNOTS((4,4),(0.,1.),.UNSPECIFIED.)
CURVE()
GEOMETRIC_REPRESENTATION_ITEM()
RATIONAL_B_SPLINE_CURVE((1.,0.998634990750286,0.998634990750286,1.))
REPRESENTATION_ITEM('')
);
#70=(
BOUNDED_CURVE()
B_SPLINE_CURVE(3,(#516,#517,#518,#519),.UNSPECIFIED.,.F.,.F.)
B_SPLINE_CURVE_WITH_KNOTS((4,4),(0.,1.),.UNSPECIFIED.)
CURVE()
GEOMETRIC_REPRESENTATION_ITEM()
RATIONAL_B_SPLINE_CURVE((1.,0.998634990750286,0.998634990750286,1.))
REPRESENTATION_ITEM('')
);
#71=(
BOUNDED_CURVE()
B_SPLINE_CURVE(3,(#523,#524,#525,#526),.UNSPECIFIED.,.F.,.F.)
B_SPLINE_CURVE_WITH_KNOTS((4,4),(0.,1.),.UNSPECIFIED.)
CURVE()
GEOMETRIC_REPRESENTATION_ITEM()
RATIONAL_B_SPLINE_CURVE((1.,0.998634990750286,0.998634990750286,1.))
REPRESENTATION_ITEM('')
);
#72=(
BOUNDED_CURVE()
B_SPLINE_CURVE(3,(#530,#531,#532,#533),.UNSPECIFIED.,.F.,.F.)
B_SPLINE_CURVE_WITH_KNOTS((4,4),(0.,1.),.UNSPECIFIED.)
CURVE()
GEOMETRIC_REPRESENTATION_ITEM()
RATIONAL_B_SPLINE_CURVE((1.,0.998634990750286,0.998634990750286,1.))
REPRESENTATION_ITEM('')
);
#73=(
BOUNDED_CURVE()
B_SPLINE_CURVE(3,(#537,#538,#539,#540),.UNSPECIFIED.,.F.,.F.)
B_SPLINE_CURVE_WITH_KNOTS((4,4),(0.,1.),.UNSPECIFIED.)
CURVE()
GEOMETRIC_REPRESENTATION_ITEM()
RATIONAL_B_SPLINE_CURVE((1.,0.998634990750286,0.998634990750286,1.))
REPRESENTATION_ITEM('')
);
#74=(
BOUNDED_CURVE()
B_SPLINE_CURVE(3,(#544,#545,#546,#547),.UNSPECIFIED.,.F.,.F.)
B_SPLINE_CURVE_WITH_KNOTS((4,4),(0.,1.),.UNSPECIFIED.)
CURVE()
GEOMETRIC_REPRESENTATION_ITEM()
RATIONAL_B_SPLINE_CURVE((1.,0.998634990750286,0.998634990750286,1.))
REPRESENTATION_ITEM('')
);
#75=PLANE('',#361);
#76=PLANE('',#363);
#77=PLANE('',#371);
#78=PLANE('',#372);
#79=PLANE('',#373);
#80=PLANE('',#374);
#81=PLANE('',#375);
#82=PLANE('',#376);
#83=PLANE('',#377);
#84=PLANE('',#378);
#85=PLANE('',#379);
#86=PLANE('',#380);
#87=PLANE('',#382);
#88=PLANE('',#387);
#89=FACE_OUTER_BOUND('',#160,.T.);
#90=FACE_OUTER_BOUND('',#165,.T.);
#91=FACE_OUTER_BOUND('',#166,.T.);
#92=FACE_OUTER_BOUND('',#167,.T.);
#93=FACE_OUTER_BOUND('',#168,.T.);
#94=FACE_OUTER_BOUND('',#169,.T.);
#95=FACE_OUTER_BOUND('',#170,.T.);
#96=FACE_OUTER_BOUND('',#171,.T.);
#97=FACE_OUTER_BOUND('',#172,.T.);
#98=FACE_OUTER_BOUND('',#173,.T.);
#99=FACE_OUTER_BOUND('',#174,.T.);
#100=FACE_OUTER_BOUND('',#175,.T.);
#101=FACE_OUTER_BOUND('',#180,.T.);
#102=TOROIDAL_SURFACE('',#359,8.99999999999999,6.);
#103=CONICAL_SURFACE('',#355,4.49999999999999,19.9999999999996);
#104=CONICAL_SURFACE('',#357,5.99999999999999,30.0000000000002);
#105=CONICAL_SURFACE('',#384,4.5,45.);
#106=ADVANCED_FACE('',(#132,#133),#128,.T.);
#107=ADVANCED_FACE('',(#134,#135),#103,.T.);
#108=ADVANCED_FACE('',(#136,#137),#104,.T.);
#109=ADVANCED_FACE('',(#138,#139),#102,.F.);
#110=ADVANCED_FACE('',(#140,#141),#129,.T.);
#111=ADVANCED_FACE('',(#89),#75,.T.);
#112=ADVANCED_FACE('',(#142,#143),#76,.T.);
#113=ADVANCED_FACE('',(#144,#145),#130,.T.);
#114=ADVANCED_FACE('',(#90),#77,.T.);
#115=ADVANCED_FACE('',(#91),#78,.T.);
#116=ADVANCED_FACE('',(#92),#79,.T.);
#117=ADVANCED_FACE('',(#93),#80,.F.);
#118=ADVANCED_FACE('',(#94),#81,.F.);
#119=ADVANCED_FACE('',(#95),#82,.F.);
#120=ADVANCED_FACE('',(#96),#83,.F.);
#121=ADVANCED_FACE('',(#97),#84,.F.);
#122=ADVANCED_FACE('',(#98),#85,.F.);
#123=ADVANCED_FACE('',(#99),#86,.F.);
#124=ADVANCED_FACE('',(#100),#87,.T.);
#125=ADVANCED_FACE('',(#146,#147),#105,.T.);
#126=ADVANCED_FACE('',(#148,#149),#131,.T.);
#127=ADVANCED_FACE('',(#101),#88,.F.);
#128=CYLINDRICAL_SURFACE('',#352,6.);
#129=CYLINDRICAL_SURFACE('',#360,2.99999999999999);
#130=CYLINDRICAL_SURFACE('',#370,3.);
#131=CYLINDRICAL_SURFACE('',#386,6.);
#132=FACE_BOUND('',#150,.T.);
#133=FACE_BOUND('',#151,.T.);
#134=FACE_BOUND('',#152,.T.);
#135=FACE_BOUND('',#153,.T.);
#136=FACE_BOUND('',#154,.T.);
#137=FACE_BOUND('',#155,.T.);
#138=FACE_BOUND('',#156,.T.);
#139=FACE_BOUND('',#157,.T.);
#140=FACE_BOUND('',#158,.T.);
#141=FACE_BOUND('',#159,.T.);
#142=FACE_BOUND('',#161,.T.);
#143=FACE_BOUND('',#162,.T.);
#144=FACE_BOUND('',#163,.T.);
#145=FACE_BOUND('',#164,.T.);
#146=FACE_BOUND('',#176,.T.);
#147=FACE_BOUND('',#177,.T.);
#148=FACE_BOUND('',#178,.T.);
#149=FACE_BOUND('',#179,.T.);
#150=EDGE_LOOP('',(#181));
#151=EDGE_LOOP('',(#182));
#152=EDGE_LOOP('',(#183));
#153=EDGE_LOOP('',(#184));
#154=EDGE_LOOP('',(#185));
#155=EDGE_LOOP('',(#186));
#156=EDGE_LOOP('',(#187));
#157=EDGE_LOOP('',(#188));
#158=EDGE_LOOP('',(#189));
#159=EDGE_LOOP('',(#190));
#160=EDGE_LOOP('',(#191));
#161=EDGE_LOOP('',(#192));
#162=EDGE_LOOP('',(#193));
#163=EDGE_LOOP('',(#194));
#164=EDGE_LOOP('',(#195,#196,#197,#198,#199,#200,#201,#202,#203,#204,#205,
#206));
#165=EDGE_LOOP('',(#207,#208,#209));
#166=EDGE_LOOP('',(#210,#211,#212));
#167=EDGE_LOOP('',(#213,#214,#215));
#168=EDGE_LOOP('',(#216,#217,#218,#219));
#169=EDGE_LOOP('',(#220,#221,#222,#223));
#170=EDGE_LOOP('',(#224,#225,#226,#227));
#171=EDGE_LOOP('',(#228,#229,#230,#231));
#172=EDGE_LOOP('',(#232,#233,#234,#235,#236,#237,#238,#239,#240));
#173=EDGE_LOOP('',(#241,#242,#243,#244));
#174=EDGE_LOOP('',(#245,#246,#247,#248));
#175=EDGE_LOOP('',(#249));
#176=EDGE_LOOP('',(#250));
#177=EDGE_LOOP('',(#251));
#178=EDGE_LOOP('',(#252));
#179=EDGE_LOOP('',(#253));
#180=EDGE_LOOP('',(#254));
#181=ORIENTED_EDGE('',*,*,#283,.T.);
#182=ORIENTED_EDGE('',*,*,#284,.T.);
#183=ORIENTED_EDGE('',*,*,#285,.F.);
#184=ORIENTED_EDGE('',*,*,#286,.F.);
#185=ORIENTED_EDGE('',*,*,#283,.F.);
#186=ORIENTED_EDGE('',*,*,#287,.T.);
#187=ORIENTED_EDGE('',*,*,#288,.T.);
#188=ORIENTED_EDGE('',*,*,#287,.F.);
#189=ORIENTED_EDGE('',*,*,#288,.F.);
#190=ORIENTED_EDGE('',*,*,#286,.T.);
#191=ORIENTED_EDGE('',*,*,#284,.F.);
#192=ORIENTED_EDGE('',*,*,#285,.T.);
#193=ORIENTED_EDGE('',*,*,#289,.T.);
#194=ORIENTED_EDGE('',*,*,#289,.F.);
#195=ORIENTED_EDGE('',*,*,#290,.F.);
#196=ORIENTED_EDGE('',*,*,#291,.F.);
#197=ORIENTED_EDGE('',*,*,#292,.T.);
#198=ORIENTED_EDGE('',*,*,#293,.F.);
#199=ORIENTED_EDGE('',*,*,#294,.F.);
#200=ORIENTED_EDGE('',*,*,#295,.F.);
#201=ORIENTED_EDGE('',*,*,#296,.T.);
#202=ORIENTED_EDGE('',*,*,#297,.F.);
#203=ORIENTED_EDGE('',*,*,#298,.F.);
#204=ORIENTED_EDGE('',*,*,#299,.F.);
#205=ORIENTED_EDGE('',*,*,#300,.T.);
#206=ORIENTED_EDGE('',*,*,#301,.F.);
#207=ORIENTED_EDGE('',*,*,#302,.F.);
#208=ORIENTED_EDGE('',*,*,#303,.F.);
#209=ORIENTED_EDGE('',*,*,#300,.F.);
#210=ORIENTED_EDGE('',*,*,#304,.F.);
#211=ORIENTED_EDGE('',*,*,#305,.F.);
#212=ORIENTED_EDGE('',*,*,#292,.F.);
#213=ORIENTED_EDGE('',*,*,#306,.F.);
#214=ORIENTED_EDGE('',*,*,#296,.F.);
#215=ORIENTED_EDGE('',*,*,#307,.F.);
#216=ORIENTED_EDGE('',*,*,#308,.T.);
#217=ORIENTED_EDGE('',*,*,#304,.T.);
#218=ORIENTED_EDGE('',*,*,#291,.T.);
#219=ORIENTED_EDGE('',*,*,#309,.F.);
#220=ORIENTED_EDGE('',*,*,#303,.T.);
#221=ORIENTED_EDGE('',*,*,#310,.T.);
#222=ORIENTED_EDGE('',*,*,#311,.T.);
#223=ORIENTED_EDGE('',*,*,#301,.T.);
#224=ORIENTED_EDGE('',*,*,#312,.F.);
#225=ORIENTED_EDGE('',*,*,#313,.T.);
#226=ORIENTED_EDGE('',*,*,#307,.T.);
#227=ORIENTED_EDGE('',*,*,#295,.T.);
#228=ORIENTED_EDGE('',*,*,#305,.T.);
#229=ORIENTED_EDGE('',*,*,#308,.F.);
#230=ORIENTED_EDGE('',*,*,#314,.T.);
#231=ORIENTED_EDGE('',*,*,#293,.T.);
#232=ORIENTED_EDGE('',*,*,#311,.F.);
#233=ORIENTED_EDGE('',*,*,#315,.T.);
#234=ORIENTED_EDGE('',*,*,#298,.T.);
#235=ORIENTED_EDGE('',*,*,#316,.F.);
#236=ORIENTED_EDGE('',*,*,#312,.T.);
#237=ORIENTED_EDGE('',*,*,#294,.T.);
#238=ORIENTED_EDGE('',*,*,#314,.F.);
#239=ORIENTED_EDGE('',*,*,#309,.T.);
#240=ORIENTED_EDGE('',*,*,#290,.T.);
#241=ORIENTED_EDGE('',*,*,#315,.F.);
#242=ORIENTED_EDGE('',*,*,#310,.F.);
#243=ORIENTED_EDGE('',*,*,#302,.T.);
#244=ORIENTED_EDGE('',*,*,#299,.T.);
#245=ORIENTED_EDGE('',*,*,#316,.T.);
#246=ORIENTED_EDGE('',*,*,#297,.T.);
#247=ORIENTED_EDGE('',*,*,#306,.T.);
#248=ORIENTED_EDGE('',*,*,#313,.F.);
#249=ORIENTED_EDGE('',*,*,#317,.T.);
#250=ORIENTED_EDGE('',*,*,#318,.T.);
#251=ORIENTED_EDGE('',*,*,#317,.F.);
#252=ORIENTED_EDGE('',*,*,#319,.T.);
#253=ORIENTED_EDGE('',*,*,#318,.F.);
#254=ORIENTED_EDGE('',*,*,#319,.F.);
#255=VERTEX_POINT('',#486);
#256=VERTEX_POINT('',#488);
#257=VERTEX_POINT('',#491);
#258=VERTEX_POINT('',#493);
#259=VERTEX_POINT('',#496);
#260=VERTEX_POINT('',#499);
#261=VERTEX_POINT('',#504);
#262=VERTEX_POINT('',#507);
#263=VERTEX_POINT('',#508);
#264=VERTEX_POINT('',#513);
#265=VERTEX_POINT('',#515);
#266=VERTEX_POINT('',#520);
#267=VERTEX_POINT('',#522);
#268=VERTEX_POINT('',#527);
#269=VERTEX_POINT('',#529);
#270=VERTEX_POINT('',#534);
#271=VERTEX_POINT('',#536);
#272=VERTEX_POINT('',#541);
#273=VERTEX_POINT('',#543);
#274=VERTEX_POINT('',#550);
#275=VERTEX_POINT('',#554);
#276=VERTEX_POINT('',#558);
#277=VERTEX_POINT('',#562);
#278=VERTEX_POINT('',#566);
#279=VERTEX_POINT('',#570);
#280=VERTEX_POINT('',#581);
#281=VERTEX_POINT('',#584);
#282=VERTEX_POINT('',#587);
#283=EDGE_CURVE('',#255,#255,#320,.T.);
#284=EDGE_CURVE('',#256,#256,#321,.T.);
#285=EDGE_CURVE('',#257,#257,#322,.T.);
#286=EDGE_CURVE('',#258,#258,#323,.T.);
#287=EDGE_CURVE('',#259,#259,#324,.T.);
#288=EDGE_CURVE('',#260,#260,#325,.T.);
#289=EDGE_CURVE('',#261,#261,#326,.T.);
#290=EDGE_CURVE('',#262,#263,#327,.T.);
#291=EDGE_CURVE('',#264,#262,#69,.T.);
#292=EDGE_CURVE('',#264,#265,#328,.T.);
#293=EDGE_CURVE('',#266,#265,#70,.T.);
#294=EDGE_CURVE('',#267,#266,#329,.T.);
#295=EDGE_CURVE('',#268,#267,#71,.T.);
#296=EDGE_CURVE('',#268,#269,#330,.T.);
#297=EDGE_CURVE('',#270,#269,#72,.T.);
#298=EDGE_CURVE('',#271,#270,#331,.T.);
#299=EDGE_CURVE('',#272,#271,#73,.T.);
#300=EDGE_CURVE('',#272,#273,#332,.T.);
#301=EDGE_CURVE('',#263,#273,#74,.T.);
#302=EDGE_CURVE('',#274,#272,#39,.T.);
#303=EDGE_CURVE('',#273,#274,#40,.T.);
#304=EDGE_CURVE('',#275,#264,#41,.T.);
#305=EDGE_CURVE('',#265,#275,#42,.T.);
#306=EDGE_CURVE('',#269,#276,#43,.T.);
#307=EDGE_CURVE('',#276,#268,#44,.T.);
#308=EDGE_CURVE('',#277,#275,#45,.T.);
#309=EDGE_CURVE('',#277,#262,#46,.T.);
#310=EDGE_CURVE('',#274,#278,#47,.T.);
#311=EDGE_CURVE('',#278,#263,#48,.T.);
#312=EDGE_CURVE('',#279,#267,#49,.T.);
#313=EDGE_CURVE('',#279,#276,#50,.T.);
#314=EDGE_CURVE('',#277,#266,#51,.T.);
#315=EDGE_CURVE('',#278,#271,#52,.T.);
#316=EDGE_CURVE('',#279,#270,#53,.T.);
#317=EDGE_CURVE('',#280,#280,#333,.T.);
#318=EDGE_CURVE('',#281,#281,#334,.T.);
#319=EDGE_CURVE('',#282,#282,#335,.T.);
#320=CIRCLE('',#350,5.99999999999999);
#321=CIRCLE('',#351,6.);
#322=CIRCLE('',#353,2.99893582222751);
#323=CIRCLE('',#354,2.99999999999999);
#324=CIRCLE('',#356,3.80384757729336);
#325=CIRCLE('',#358,2.99999999999999);
#326=CIRCLE('',#362,3.);
#327=CIRCLE('',#364,3.);
#328=CIRCLE('',#365,3.);
#329=CIRCLE('',#366,3.);
#330=CIRCLE('',#367,3.);
#331=CIRCLE('',#368,3.);
#332=CIRCLE('',#369,3.);
#333=CIRCLE('',#381,4.5);
#334=CIRCLE('',#383,6.);
#335=CIRCLE('',#385,6.);
#336=PRESENTATION_LAYER_ASSIGNMENT('1','Layer 1',(#349,#36));
#337=PRESENTATION_LAYER_ASSIGNMENT('2','Layer 2',(#35));
#338=STYLED_ITEM('',(#341),#349);
#339=STYLED_ITEM('',(#342),#35);
#340=STYLED_ITEM('',(#343),#36);
#341=PRESENTATION_STYLE_ASSIGNMENT((#344));
#342=PRESENTATION_STYLE_ASSIGNMENT((#25));
#343=PRESENTATION_STYLE_ASSIGNMENT((#26));
#344=CURVE_STYLE('',#347,POSITIVE_LENGTH_MEASURE(0.13),#345);
#345=COLOUR_RGB('Strong Stone',0.576470588235294,0.54508278019379,0.392156862745098);
#346=COLOUR_RGB('Medium Gray',0.490196078431373,0.490196078431373,0.490196078431373);
#347=DRAUGHTING_PRE_DEFINED_CURVE_FONT('continuous');
#348=AXIS2_PLACEMENT_3D('',#483,#388,#389);
#349=AXIS2_PLACEMENT_3D('',#484,#390,#391);
#350=AXIS2_PLACEMENT_3D('',#485,#392,#393);
#351=AXIS2_PLACEMENT_3D('',#487,#394,#395);
#352=AXIS2_PLACEMENT_3D('',#489,#396,#397);
#353=AXIS2_PLACEMENT_3D('',#490,#398,#399);
#354=AXIS2_PLACEMENT_3D('',#492,#400,#401);
#355=AXIS2_PLACEMENT_3D('',#494,#402,#403);
#356=AXIS2_PLACEMENT_3D('',#495,#404,#405);
#357=AXIS2_PLACEMENT_3D('',#497,#406,#407);
#358=AXIS2_PLACEMENT_3D('',#498,#408,#409);
#359=AXIS2_PLACEMENT_3D('',#500,#410,#411);
#360=AXIS2_PLACEMENT_3D('',#501,#412,#413);
#361=AXIS2_PLACEMENT_3D('',#502,#414,#415);
#362=AXIS2_PLACEMENT_3D('',#503,#416,#417);
#363=AXIS2_PLACEMENT_3D('',#505,#418,#419);
#364=AXIS2_PLACEMENT_3D('',#506,#420,#421);
#365=AXIS2_PLACEMENT_3D('',#514,#422,#423);
#366=AXIS2_PLACEMENT_3D('',#521,#424,#425);
#367=AXIS2_PLACEMENT_3D('',#528,#426,#427);
#368=AXIS2_PLACEMENT_3D('',#535,#428,#429);
#369=AXIS2_PLACEMENT_3D('',#542,#430,#431);
#370=AXIS2_PLACEMENT_3D('',#548,#432,#433);
#371=AXIS2_PLACEMENT_3D('',#552,#436,#437);
#372=AXIS2_PLACEMENT_3D('',#556,#440,#441);
#373=AXIS2_PLACEMENT_3D('',#560,#444,#445);
#374=AXIS2_PLACEMENT_3D('',#564,#448,#449);
#375=AXIS2_PLACEMENT_3D('',#568,#452,#453);
#376=AXIS2_PLACEMENT_3D('',#572,#456,#457);
#377=AXIS2_PLACEMENT_3D('',#574,#459,#460);
#378=AXIS2_PLACEMENT_3D('',#577,#463,#464);
#379=AXIS2_PLACEMENT_3D('',#578,#465,#466);
#380=AXIS2_PLACEMENT_3D('',#579,#467,#468);
#381=AXIS2_PLACEMENT_3D('',#580,#469,#470);
#382=AXIS2_PLACEMENT_3D('',#582,#471,#472);
#383=AXIS2_PLACEMENT_3D('',#583,#473,#474);
#384=AXIS2_PLACEMENT_3D('',#585,#475,#476);
#385=AXIS2_PLACEMENT_3D('',#586,#477,#478);
#386=AXIS2_PLACEMENT_3D('',#588,#479,#480);
#387=AXIS2_PLACEMENT_3D('',#589,#481,#482);
#388=DIRECTION('',(0.,0.,1.));
#389=DIRECTION('',(1.,0.,0.));
#390=DIRECTION('',(0.,0.,1.));
#391=DIRECTION('',(1.,0.,0.));
#392=DIRECTION('',(0.,0.,1.));
#393=DIRECTION('',(1.,0.,0.));
#394=DIRECTION('',(0.,0.,-1.));
#395=DIRECTION('',(1.,0.,0.));
#396=DIRECTION('',(0.,0.,1.));
#397=DIRECTION('',(-1.,0.,0.));
#398=DIRECTION('',(0.,-1.23165366794353E-16,-1.));
#399=DIRECTION('',(0.,-1.,0.));
#400=DIRECTION('',(0.,0.,1.));
#401=DIRECTION('',(1.,0.,0.));
#402=DIRECTION('',(0.,0.,1.));
#403=DIRECTION('',(-1.,0.,5.64948801174617E-17));
#404=DIRECTION('',(0.,0.,1.));
#405=DIRECTION('',(1.,0.,0.));
#406=DIRECTION('',(0.,0.,1.));
#407=DIRECTION('',(-1.,0.,8.92117601172941E-17));
#408=DIRECTION('',(0.,0.,1.));
#409=DIRECTION('',(1.,0.,0.));
#410=DIRECTION('',(0.,0.,1.));
#411=DIRECTION('',(-1.,0.,0.));
#412=DIRECTION('',(0.,0.,1.));
#413=DIRECTION('',(-1.,0.,0.));
#414=DIRECTION('',(0.,0.,1.));
#415=DIRECTION('',(-1.,0.,0.));
#416=DIRECTION('',(0.,1.23165366794353E-16,1.));
#417=DIRECTION('',(0.,1.,0.));
#418=DIRECTION('',(0.,1.23165366794353E-16,1.));
#419=DIRECTION('',(0.,1.,-1.21430643318377E-16));
#420=DIRECTION('',(0.,0.,-1.));
#421=DIRECTION('',(1.,0.,0.));
#422=DIRECTION('',(0.,1.23165366794353E-16,1.));
#423=DIRECTION('',(0.,1.,0.));
#424=DIRECTION('',(0.,0.,-1.));
#425=DIRECTION('',(1.,-4.44089209850063E-15,0.));
#426=DIRECTION('',(0.,1.23165366794353E-16,1.));
#427=DIRECTION('',(0.,1.,0.));
#428=DIRECTION('',(0.,0.,-1.));
#429=DIRECTION('',(1.,0.,0.));
#430=DIRECTION('',(0.,1.23165366794353E-16,1.));
#431=DIRECTION('',(0.,1.,0.));
#432=DIRECTION('',(0.,1.23165366794353E-16,1.));
#433=DIRECTION('',(0.,-1.,0.));
#434=DIRECTION('',(-0.866025403784443,0.499999999999992,-9.36320615035685E-17));
#435=DIRECTION('',(-7.1109557673559E-17,1.,-1.23165366794353E-16));
#436=DIRECTION('',(0.,-1.23165366794353E-16,-1.));
#437=DIRECTION('',(0.,1.,-1.2490009027033E-16));
#438=DIRECTION('',(-7.11095576735591E-17,-1.,1.23165366794353E-16));
#439=DIRECTION('',(-0.866025403784436,-0.500000000000004,9.363206150357E-17));
#440=DIRECTION('',(0.,-1.23165366794353E-16,-1.));
#441=DIRECTION('',(0.,1.,-1.2490009027033E-16));
#442=DIRECTION('',(0.866025403784443,-0.499999999999992,9.36320615035685E-17));
#443=DIRECTION('',(0.866025403784436,0.500000000000004,-9.363206150357E-17));
#444=DIRECTION('',(0.,-1.23165366794353E-16,-1.));
#445=DIRECTION('',(0.,1.,-1.2490009027033E-16));
#446=DIRECTION('',(0.480384461415263,-0.277350098112613,-0.832050294337843));
#447=DIRECTION('',(0.,-1.,0.));
#448=DIRECTION('',(0.866025403784438,0.,0.500000000000001));
#449=DIRECTION('',(-0.500000000000001,0.,0.866025403784438));
#450=DIRECTION('',(0.480384461415262,0.277350098112618,0.832050294337842));
#451=DIRECTION('',(0.,-1.,0.));
#452=DIRECTION('',(-0.866025403784438,0.,0.500000000000001));
#453=DIRECTION('',(-0.500000000000001,0.,-0.866025403784438));
#454=DIRECTION('',(0.866025403784436,0.500000000000004,0.));
#455=DIRECTION('',(-4.69182497105601E-15,0.55470019622523,-0.832050294337843));
#456=DIRECTION('',(-0.433012701892223,0.749999999999997,0.500000000000001));
#457=DIRECTION('',(-3.84593615634921E-16,-0.554700196225232,0.832050294337842));
#458=DIRECTION('',(0.866025403784436,0.500000000000004,0.));
#459=DIRECTION('',(0.433012701892223,-0.749999999999998,0.500000000000001));
#460=DIRECTION('',(-2.68882138776405E-16,-0.554700196225231,-0.832050294337842));
#461=DIRECTION('',(-0.866025403784443,0.499999999999992,0.));
#462=DIRECTION('',(-0.866025403784443,0.499999999999992,0.));
#463=DIRECTION('',(0.,0.,1.));
#464=DIRECTION('',(-1.,0.,0.));
#465=DIRECTION('',(-0.433012701892212,-0.750000000000003,0.500000000000001));
#466=DIRECTION('',(-1.20129600711394E-16,-0.554700196225228,-0.832050294337844));
#467=DIRECTION('',(0.433012701892212,0.750000000000004,0.500000000000001));
#468=DIRECTION('',(9.61484039087301E-17,-0.554700196225228,0.832050294337845));
#469=DIRECTION('',(0.,0.,1.));
#470=DIRECTION('',(1.,0.,0.));
#471=DIRECTION('',(0.,0.,1.));
#472=DIRECTION('',(-1.,0.,0.));
#473=DIRECTION('',(0.,0.,1.));
#474=DIRECTION('',(1.,0.,0.));
#475=DIRECTION('',(0.,0.,-1.));
#476=DIRECTION('',(1.,0.,4.14468525868028E-17));
#477=DIRECTION('',(0.,0.,1.));
#478=DIRECTION('',(1.,0.,0.));
#479=DIRECTION('',(0.,0.,1.));
#480=DIRECTION('',(-1.,0.,0.));
#481=DIRECTION('',(0.,0.,1.));
#482=DIRECTION('',(-1.,0.,0.));
#483=CARTESIAN_POINT('',(0.,0.,0.));
#484=CARTESIAN_POINT('',(0.,0.,0.));
#485=CARTESIAN_POINT('',(0.,0.,-7.19615242270671));
#486=CARTESIAN_POINT('',(5.99999999999999,0.,-7.19615242270671));
#487=CARTESIAN_POINT('',(0.,0.,0.));
#488=CARTESIAN_POINT('',(6.,0.,0.));
#489=CARTESIAN_POINT('',(0.,0.,45.));
#490=CARTESIAN_POINT('',(0.,-1.34437876694429E-16,-17.0029238044002));
#491=CARTESIAN_POINT('',(0.,-2.99893582222751,-17.0029238044002));
#492=CARTESIAN_POINT('',(0.,0.,-17.));
#493=CARTESIAN_POINT('',(2.99999999999999,0.,-17.));
#494=CARTESIAN_POINT('',(0.,0.,-12.878783870818));
#495=CARTESIAN_POINT('',(0.,0.,-11.));
#496=CARTESIAN_POINT('',(3.80384757729336,0.,-11.));
#497=CARTESIAN_POINT('',(0.,0.,-7.19615242270671));
#498=CARTESIAN_POINT('',(0.,0.,-14.));
#499=CARTESIAN_POINT('',(2.99999999999999,0.,-14.));
#500=CARTESIAN_POINT('',(0.,0.,-14.));
#501=CARTESIAN_POINT('',(0.,0.,45.));
#502=CARTESIAN_POINT('',(0.,0.,0.));
#503=CARTESIAN_POINT('',(0.,-7.63661285269129E-15,-17.0029238044002));
#504=CARTESIAN_POINT('',(0.,2.99999999999999,-17.0029238044002));
#505=CARTESIAN_POINT('',(0.,-7.63661285269129E-15,-17.0029238044002));
#506=CARTESIAN_POINT('',(0.,-9.34517220552156E-15,-30.875));
#507=CARTESIAN_POINT('',(0.838604719043177,-2.88040659025745,-30.875));
#508=CARTESIAN_POINT('',(-0.838604719043192,-2.88040659025745,-30.875));
#509=CARTESIAN_POINT('',(1.19944863728669,-2.74978598558345,-31.5));
#510=CARTESIAN_POINT('',(1.08203815803715,-2.8010000946368,-31.2966390845988));
#511=CARTESIAN_POINT('',(0.9615924424401,-2.84459981020984,-31.0880209856307));
#512=CARTESIAN_POINT('',(0.838604719043177,-2.88040659025745,-30.875));
#513=CARTESIAN_POINT('',(1.19944863728669,-2.74978598558345,-31.5));
#514=CARTESIAN_POINT('',(0.,-9.42215055976803E-15,-31.5));
#515=CARTESIAN_POINT('',(2.98110883712903,0.336140002366813,-31.5));
#516=CARTESIAN_POINT('',(2.91380763991265,0.713950304703816,-30.875));
#517=CARTESIAN_POINT('',(2.94429192046216,0.58953642186467,-31.0880209856307));
#518=CARTESIAN_POINT('',(2.96675631697665,0.463427514594104,-31.2966390845988));
#519=CARTESIAN_POINT('',(2.98110883712903,0.336140002366813,-31.5));
#520=CARTESIAN_POINT('',(2.91380763991265,0.713950304703816,-30.875));
#521=CARTESIAN_POINT('',(0.,-9.34517220552156E-15,-30.875));
#522=CARTESIAN_POINT('',(2.07520292086945,2.16645628555363,-30.875));
#523=CARTESIAN_POINT('',(1.78166019984232,2.41364598321663,-31.5));
#524=CARTESIAN_POINT('',(1.88471815893948,2.3375725800427,-31.2966390845988));
#525=CARTESIAN_POINT('',(1.98269947802203,2.25506338834518,-31.0880209856307));
#526=CARTESIAN_POINT('',(2.07520292086945,2.16645628555363,-30.875));
#527=CARTESIAN_POINT('',(1.78166019984232,2.41364598321663,-31.5));
#528=CARTESIAN_POINT('',(0.,-9.42215055976803E-15,-31.5));
#529=CARTESIAN_POINT('',(-1.78166019984234,2.41364598321661,-31.5));
#530=CARTESIAN_POINT('',(-2.07520292086947,2.16645628555361,-30.875));
#531=CARTESIAN_POINT('',(-1.98269947802206,2.25506338834516,-31.0880209856307));
#532=CARTESIAN_POINT('',(-1.8847181589395,2.33757258004268,-31.2966390845988));
#533=CARTESIAN_POINT('',(-1.78166019984234,2.41364598321661,-31.5));
#534=CARTESIAN_POINT('',(-2.07520292086947,2.16645628555361,-30.875));
#535=CARTESIAN_POINT('',(0.,-9.34517220552156E-15,-30.875));
#536=CARTESIAN_POINT('',(-2.91380763991265,0.71395030470379,-30.875));
#537=CARTESIAN_POINT('',(-2.98110883712904,0.336140002366787,-31.5));
#538=CARTESIAN_POINT('',(-2.96675631697665,0.463427514594075,-31.2966390845988));
#539=CARTESIAN_POINT('',(-2.94429192046216,0.589536421864638,-31.0880209856307));
#540=CARTESIAN_POINT('',(-2.91380763991265,0.71395030470379,-30.875));
#541=CARTESIAN_POINT('',(-2.98110883712904,0.336140002366787,-31.5));
#542=CARTESIAN_POINT('',(0.,-9.42215055976803E-15,-31.5));
#543=CARTESIAN_POINT('',(-1.19944863728671,-2.74978598558344,-31.5));
#544=CARTESIAN_POINT('',(-0.838604719043192,-2.88040659025745,-30.875));
#545=CARTESIAN_POINT('',(-0.961592442440114,-2.84459981020984,-31.0880209856307));
#546=CARTESIAN_POINT('',(-1.08203815803716,-2.80100009463679,-31.2966390845988));
#547=CARTESIAN_POINT('',(-1.19944863728671,-2.74978598558344,-31.5));
#548=CARTESIAN_POINT('',(0.,0.,45.));
#549=CARTESIAN_POINT('',(-1.89876242431998,-0.288752990424937,-31.5));
#550=CARTESIAN_POINT('',(-1.19944863728671,-0.692501993616602,-31.5));
#551=CARTESIAN_POINT('',(-1.19944863728671,2.99999999999999,-31.5));
#552=CARTESIAN_POINT('',(0.,2.99999999999999,-31.5));
#553=CARTESIAN_POINT('',(1.19944863728669,2.99999999999999,-31.5));
#554=CARTESIAN_POINT('',(1.19944863728669,-0.692501993616616,-31.5));
#555=CARTESIAN_POINT('',(1.89876242432002,-0.288752990424905,-31.5));
#556=CARTESIAN_POINT('',(0.,2.99999999999999,-31.5));
#557=CARTESIAN_POINT('',(-0.699313787033295,1.7887529904249,-31.5));
#558=CARTESIAN_POINT('',(3.09516957273609E-15,1.38500398723321,-31.5));
#559=CARTESIAN_POINT('',(0.699313787033308,1.78875299042491,-31.5));
#560=CARTESIAN_POINT('',(0.,2.99999999999999,-31.5));
#561=CARTESIAN_POINT('',(0.847375736360076,-0.489232609492263,-30.8901918476269));
#562=CARTESIAN_POINT('',(0.838604719043177,-0.484168660283284,-30.875));
#563=CARTESIAN_POINT('',(0.838604719043177,-0.550000000000008,-30.875));
#564=CARTESIAN_POINT('',(0.838604719043177,-0.550000000000008,-30.875));
#565=CARTESIAN_POINT('',(-0.847375736360094,-0.489232609492245,-30.8901918476269));
#566=CARTESIAN_POINT('',(-0.838604719043192,-0.484168660283265,-30.875));
#567=CARTESIAN_POINT('',(-0.838604719043192,-0.550000000000008,-30.875));
#568=CARTESIAN_POINT('',(-0.838604719043192,-0.550000000000008,-30.875));
#569=CARTESIAN_POINT('',(0.0570116125598557,1.00125299042491,-30.875));
#570=CARTESIAN_POINT('',(6.53409869481875E-15,0.968337320566545,-30.875));
#571=CARTESIAN_POINT('',(8.11118750290718E-15,0.978465218984502,-30.8901918476269));
#572=CARTESIAN_POINT('',(0.0570116125598557,1.00125299042491,-30.875));
#573=CARTESIAN_POINT('',(0.895616331603047,-0.451252990424908,-30.875));
#574=CARTESIAN_POINT('',(0.895616331603047,-0.451252990424908,-30.875));
#575=CARTESIAN_POINT('',(-0.895616331603033,-0.451252990424907,-30.875));
#576=CARTESIAN_POINT('',(-0.0570116125598623,1.00125299042492,-30.875));
#577=CARTESIAN_POINT('',(-0.895616331603033,-0.451252990424907,-30.875));
#578=CARTESIAN_POINT('',(-0.895616331603033,-0.451252990424907,-30.875));
#579=CARTESIAN_POINT('',(-0.0570116125598623,1.00125299042492,-30.875));
#580=CARTESIAN_POINT('',(0.,0.,45.));
#581=CARTESIAN_POINT('',(4.5,0.,45.));
#582=CARTESIAN_POINT('',(0.,4.5,45.));
#583=CARTESIAN_POINT('',(0.,0.,43.5));
#584=CARTESIAN_POINT('',(6.,0.,43.5));
#585=CARTESIAN_POINT('',(0.,0.,45.));
#586=CARTESIAN_POINT('',(0.,0.,0.));
#587=CARTESIAN_POINT('',(6.,0.,0.));
#588=CARTESIAN_POINT('',(0.,0.,45.));
#589=CARTESIAN_POINT('',(0.,0.,0.));
#590=MECHANICAL_DESIGN_GEOMETRIC_PRESENTATION_REPRESENTATION('',(#338,#339,
#340),#591);
#591=(
GEOMETRIC_REPRESENTATION_CONTEXT(3)
GLOBAL_UNCERTAINTY_ASSIGNED_CONTEXT((#592))
GLOBAL_UNIT_ASSIGNED_CONTEXT((#598,#594,#593))
REPRESENTATION_CONTEXT('335.14-1206','TOP_LEVEL_ASSEMBLY_PART')
);
#592=UNCERTAINTY_MEASURE_WITH_UNIT(LENGTH_MEASURE(2.E-5),#598,
'DISTANCE_ACCURACY_VALUE','Maximum Tolerance applied to model');
#593=(
NAMED_UNIT(*)
SI_UNIT($,.STERADIAN.)
SOLID_ANGLE_UNIT()
);
#594=(
CONVERSION_BASED_UNIT('DEGREE',#596)
NAMED_UNIT(#595)
PLANE_ANGLE_UNIT()
);
#595=DIMENSIONAL_EXPONENTS(0.,0.,0.,0.,0.,0.,0.);
#596=PLANE_ANGLE_MEASURE_WITH_UNIT(PLANE_ANGLE_MEASURE(0.0174532925),#597);
#597=(
NAMED_UNIT(*)
PLANE_ANGLE_UNIT()
SI_UNIT($,.RADIAN.)
);
#598=(
LENGTH_UNIT()
NAMED_UNIT(*)
SI_UNIT(.MILLI.,.METRE.)
);
ENDSEC;
END-ISO-10303-21;
