ISO-10303-21;
HEADER;
/* Generated by software containing ST-Developer
 * from STEP Tools, Inc. (www.steptools.com) 
 */
/* OPTION: using custom schema-name function */

FILE_DESCRIPTION(
/* description */ (''),
/* implementation_level */ '2;1');

FILE_NAME(
/* name */ '335.14-1008.0-017-060.stp',
/* time_stamp */ '2018-02-19T13:39:15+05:00',
/* author */ (''),
/* organization */ (''),
/* preprocessor_version */ 'ST-DEVELOPER v16',
/* originating_system */ 'SIEMENS PLM Software NX 11.0',
/* authorisation */ '');

FILE_SCHEMA (('AUTOMOTIVE_DESIGN { 1 0 10303 214 3 1 1 1 }'));
ENDSEC;

DATA;
#10=CONSTRUCTIVE_GEOMETRY_REPRESENTATION_RELATIONSHIP(
'supplemental geometry','',#24,#11);
#11=CONSTRUCTIVE_GEOMETRY_REPRESENTATION('supplemental geometry',(#316),
#531);
#12=SHAPE_REPRESENTATION_RELATIONSHIP('None',
'relationship between 335.14-1008.0-017-060-None and 335.14-1008.0-017
-060-None',#24,#13);
#13=ADVANCED_BREP_SHAPE_REPRESENTATION('335.14-1008.0-017-060-None',(#35,
#36),#531);
#14=SHAPE_DEFINITION_REPRESENTATION(#15,#24);
#15=PRODUCT_DEFINITION_SHAPE('','',#16);
#16=PRODUCT_DEFINITION(' ','',#18,#17);
#17=PRODUCT_DEFINITION_CONTEXT('part definition',#23,'design');
#18=PRODUCT_DEFINITION_FORMATION_WITH_SPECIFIED_SOURCE(' ',' ',#20,
 .NOT_KNOWN.);
#19=PRODUCT_RELATED_PRODUCT_CATEGORY('part','',(#20));
#20=PRODUCT('335.14-1008.0-017-060','335.14-1008.0-017-060',' ',(#21));
#21=PRODUCT_CONTEXT(' ',#23,'mechanical');
#22=APPLICATION_PROTOCOL_DEFINITION('international standard',
'automotive_design',2010,#23);
#23=APPLICATION_CONTEXT(
'core data for automotive mechanical design processes');
#24=SHAPE_REPRESENTATION('335.14-1008.0-017-060-None',(#315),#531);
#25=SURFACE_STYLE_USAGE(.BOTH.,#27);
#26=SURFACE_STYLE_USAGE(.BOTH.,#28);
#27=SURFACE_SIDE_STYLE('',(#29));
#28=SURFACE_SIDE_STYLE('',(#30));
#29=SURFACE_STYLE_FILL_AREA(#31);
#30=SURFACE_STYLE_FILL_AREA(#32);
#31=FILL_AREA_STYLE('',(#33));
#32=FILL_AREA_STYLE('',(#34));
#33=FILL_AREA_STYLE_COLOUR('',#313);
#34=FILL_AREA_STYLE_COLOUR('',#313);
#35=MANIFOLD_SOLID_BREP('NOCUT',#37);
#36=MANIFOLD_SOLID_BREP('NOCUT',#38);
#37=CLOSED_SHELL('',(#104,#105,#106,#107,#108,#109,#110,#111,#112,#113,
#114,#115,#116,#117,#118));
#38=CLOSED_SHELL('',(#119,#120,#121,#122));
#39=PLANE('',#331);
#40=PLANE('',#332);
#41=PLANE('',#333);
#42=PLANE('',#334);
#43=PLANE('',#335);
#44=PLANE('',#336);
#45=PLANE('',#337);
#46=PLANE('',#338);
#47=PLANE('',#339);
#48=PLANE('',#340);
#49=PLANE('',#341);
#50=PLANE('',#343);
#51=PLANE('',#348);
#52=FACE_OUTER_BOUND('',#146,.T.);
#53=FACE_OUTER_BOUND('',#147,.T.);
#54=FACE_OUTER_BOUND('',#148,.T.);
#55=FACE_OUTER_BOUND('',#149,.T.);
#56=FACE_OUTER_BOUND('',#150,.T.);
#57=FACE_OUTER_BOUND('',#151,.T.);
#58=FACE_OUTER_BOUND('',#152,.T.);
#59=FACE_OUTER_BOUND('',#153,.T.);
#60=FACE_OUTER_BOUND('',#154,.T.);
#61=FACE_OUTER_BOUND('',#155,.T.);
#62=FACE_OUTER_BOUND('',#156,.T.);
#63=FACE_OUTER_BOUND('',#157,.T.);
#64=FACE_OUTER_BOUND('',#162,.T.);
#65=LINE('',#488,#80);
#66=LINE('',#490,#81);
#67=LINE('',#492,#82);
#68=LINE('',#494,#83);
#69=LINE('',#496,#84);
#70=LINE('',#498,#85);
#71=LINE('',#500,#86);
#72=LINE('',#502,#87);
#73=LINE('',#504,#88);
#74=LINE('',#506,#89);
#75=LINE('',#508,#90);
#76=LINE('',#509,#91);
#77=LINE('',#511,#92);
#78=LINE('',#512,#93);
#79=LINE('',#515,#94);
#80=VECTOR('',#381,1.);
#81=VECTOR('',#382,1.);
#82=VECTOR('',#385,1.);
#83=VECTOR('',#386,1.);
#84=VECTOR('',#389,1.);
#85=VECTOR('',#390,1.);
#86=VECTOR('',#393,1.);
#87=VECTOR('',#394,1.);
#88=VECTOR('',#397,1.);
#89=VECTOR('',#398,1.);
#90=VECTOR('',#401,1.);
#91=VECTOR('',#402,1.);
#92=VECTOR('',#403,1.);
#93=VECTOR('',#404,1.);
#94=VECTOR('',#409,1.);
#95=CONICAL_SURFACE('',#330,5.,30.);
#96=CONICAL_SURFACE('',#345,4.,45.);
#97=TOROIDAL_SURFACE('',#329,6.,2.);
#98=(
BOUNDED_CURVE()
B_SPLINE_CURVE(3,(#442,#443,#444,#445),.UNSPECIFIED.,.F.,.F.)
B_SPLINE_CURVE_WITH_KNOTS((4,4),(0.,1.),.UNSPECIFIED.)
CURVE()
GEOMETRIC_REPRESENTATION_ITEM()
RATIONAL_B_SPLINE_CURVE((1.,0.99850407624205,0.99850407624205,1.))
REPRESENTATION_ITEM('')
);
#99=(
BOUNDED_CURVE()
B_SPLINE_CURVE(3,(#449,#450,#451,#452),.UNSPECIFIED.,.F.,.F.)
B_SPLINE_CURVE_WITH_KNOTS((4,4),(0.,1.),.UNSPECIFIED.)
CURVE()
GEOMETRIC_REPRESENTATION_ITEM()
RATIONAL_B_SPLINE_CURVE((1.,0.99850407624205,0.99850407624205,1.))
REPRESENTATION_ITEM('')
);
#100=(
BOUNDED_CURVE()
B_SPLINE_CURVE(3,(#456,#457,#458,#459),.UNSPECIFIED.,.F.,.F.)
B_SPLINE_CURVE_WITH_KNOTS((4,4),(0.,1.),.UNSPECIFIED.)
CURVE()
GEOMETRIC_REPRESENTATION_ITEM()
RATIONAL_B_SPLINE_CURVE((1.,0.99850407624205,0.99850407624205,1.))
REPRESENTATION_ITEM('')
);
#101=(
BOUNDED_CURVE()
B_SPLINE_CURVE(3,(#463,#464,#465,#466),.UNSPECIFIED.,.F.,.F.)
B_SPLINE_CURVE_WITH_KNOTS((4,4),(0.,1.),.UNSPECIFIED.)
CURVE()
GEOMETRIC_REPRESENTATION_ITEM()
RATIONAL_B_SPLINE_CURVE((1.,0.99850407624205,0.99850407624205,1.))
REPRESENTATION_ITEM('')
);
#102=(
BOUNDED_CURVE()
B_SPLINE_CURVE(3,(#470,#471,#472,#473),.UNSPECIFIED.,.F.,.F.)
B_SPLINE_CURVE_WITH_KNOTS((4,4),(0.,1.),.UNSPECIFIED.)
CURVE()
GEOMETRIC_REPRESENTATION_ITEM()
RATIONAL_B_SPLINE_CURVE((1.,0.99850407624205,0.99850407624205,1.))
REPRESENTATION_ITEM('')
);
#103=(
BOUNDED_CURVE()
B_SPLINE_CURVE(3,(#477,#478,#479,#480),.UNSPECIFIED.,.F.,.F.)
B_SPLINE_CURVE_WITH_KNOTS((4,4),(0.,1.),.UNSPECIFIED.)
CURVE()
GEOMETRIC_REPRESENTATION_ITEM()
RATIONAL_B_SPLINE_CURVE((1.,0.99850407624205,0.99850407624205,1.))
REPRESENTATION_ITEM('')
);
#104=ADVANCED_FACE('',(#126,#127),#123,.T.);
#105=ADVANCED_FACE('',(#128,#129),#124,.T.);
#106=ADVANCED_FACE('',(#130,#131),#97,.F.);
#107=ADVANCED_FACE('',(#132,#133),#95,.T.);
#108=ADVANCED_FACE('',(#52),#39,.F.);
#109=ADVANCED_FACE('',(#53),#40,.F.);
#110=ADVANCED_FACE('',(#54),#41,.F.);
#111=ADVANCED_FACE('',(#55),#42,.F.);
#112=ADVANCED_FACE('',(#56),#43,.F.);
#113=ADVANCED_FACE('',(#57),#44,.F.);
#114=ADVANCED_FACE('',(#58),#45,.F.);
#115=ADVANCED_FACE('',(#59),#46,.F.);
#116=ADVANCED_FACE('',(#60),#47,.F.);
#117=ADVANCED_FACE('',(#61),#48,.F.);
#118=ADVANCED_FACE('',(#62),#49,.T.);
#119=ADVANCED_FACE('',(#63),#50,.F.);
#120=ADVANCED_FACE('',(#134,#135),#96,.T.);
#121=ADVANCED_FACE('',(#136,#137),#125,.T.);
#122=ADVANCED_FACE('',(#64),#51,.F.);
#123=CYLINDRICAL_SURFACE('',#319,5.);
#124=CYLINDRICAL_SURFACE('',#327,4.);
#125=CYLINDRICAL_SURFACE('',#347,5.);
#126=FACE_BOUND('',#138,.T.);
#127=FACE_BOUND('',#139,.T.);
#128=FACE_BOUND('',#140,.T.);
#129=FACE_BOUND('',#141,.T.);
#130=FACE_BOUND('',#142,.T.);
#131=FACE_BOUND('',#143,.T.);
#132=FACE_BOUND('',#144,.T.);
#133=FACE_BOUND('',#145,.T.);
#134=FACE_BOUND('',#158,.T.);
#135=FACE_BOUND('',#159,.T.);
#136=FACE_BOUND('',#160,.T.);
#137=FACE_BOUND('',#161,.T.);
#138=EDGE_LOOP('',(#163));
#139=EDGE_LOOP('',(#164));
#140=EDGE_LOOP('',(#165,#166,#167,#168,#169,#170,#171,#172,#173,#174,#175,
#176));
#141=EDGE_LOOP('',(#177));
#142=EDGE_LOOP('',(#178));
#143=EDGE_LOOP('',(#179));
#144=EDGE_LOOP('',(#180));
#145=EDGE_LOOP('',(#181));
#146=EDGE_LOOP('',(#182,#183,#184));
#147=EDGE_LOOP('',(#185,#186,#187));
#148=EDGE_LOOP('',(#188,#189,#190,#191));
#149=EDGE_LOOP('',(#192,#193,#194));
#150=EDGE_LOOP('',(#195,#196,#197,#198));
#151=EDGE_LOOP('',(#199,#200,#201,#202,#203,#204,#205,#206,#207));
#152=EDGE_LOOP('',(#208,#209,#210,#211));
#153=EDGE_LOOP('',(#212,#213,#214,#215));
#154=EDGE_LOOP('',(#216,#217,#218,#219));
#155=EDGE_LOOP('',(#220,#221,#222,#223));
#156=EDGE_LOOP('',(#224));
#157=EDGE_LOOP('',(#225));
#158=EDGE_LOOP('',(#226));
#159=EDGE_LOOP('',(#227));
#160=EDGE_LOOP('',(#228));
#161=EDGE_LOOP('',(#229));
#162=EDGE_LOOP('',(#230));
#163=ORIENTED_EDGE('',*,*,#256,.F.);
#164=ORIENTED_EDGE('',*,*,#257,.T.);
#165=ORIENTED_EDGE('',*,*,#258,.F.);
#166=ORIENTED_EDGE('',*,*,#259,.T.);
#167=ORIENTED_EDGE('',*,*,#260,.T.);
#168=ORIENTED_EDGE('',*,*,#261,.T.);
#169=ORIENTED_EDGE('',*,*,#262,.F.);
#170=ORIENTED_EDGE('',*,*,#263,.T.);
#171=ORIENTED_EDGE('',*,*,#264,.T.);
#172=ORIENTED_EDGE('',*,*,#265,.T.);
#173=ORIENTED_EDGE('',*,*,#266,.F.);
#174=ORIENTED_EDGE('',*,*,#267,.T.);
#175=ORIENTED_EDGE('',*,*,#268,.T.);
#176=ORIENTED_EDGE('',*,*,#269,.T.);
#177=ORIENTED_EDGE('',*,*,#270,.T.);
#178=ORIENTED_EDGE('',*,*,#271,.T.);
#179=ORIENTED_EDGE('',*,*,#270,.F.);
#180=ORIENTED_EDGE('',*,*,#256,.T.);
#181=ORIENTED_EDGE('',*,*,#271,.F.);
#182=ORIENTED_EDGE('',*,*,#272,.T.);
#183=ORIENTED_EDGE('',*,*,#273,.T.);
#184=ORIENTED_EDGE('',*,*,#262,.T.);
#185=ORIENTED_EDGE('',*,*,#274,.T.);
#186=ORIENTED_EDGE('',*,*,#275,.T.);
#187=ORIENTED_EDGE('',*,*,#266,.T.);
#188=ORIENTED_EDGE('',*,*,#276,.T.);
#189=ORIENTED_EDGE('',*,*,#274,.F.);
#190=ORIENTED_EDGE('',*,*,#265,.F.);
#191=ORIENTED_EDGE('',*,*,#277,.F.);
#192=ORIENTED_EDGE('',*,*,#278,.T.);
#193=ORIENTED_EDGE('',*,*,#279,.T.);
#194=ORIENTED_EDGE('',*,*,#258,.T.);
#195=ORIENTED_EDGE('',*,*,#280,.T.);
#196=ORIENTED_EDGE('',*,*,#278,.F.);
#197=ORIENTED_EDGE('',*,*,#269,.F.);
#198=ORIENTED_EDGE('',*,*,#281,.F.);
#199=ORIENTED_EDGE('',*,*,#282,.F.);
#200=ORIENTED_EDGE('',*,*,#277,.T.);
#201=ORIENTED_EDGE('',*,*,#264,.F.);
#202=ORIENTED_EDGE('',*,*,#283,.F.);
#203=ORIENTED_EDGE('',*,*,#284,.T.);
#204=ORIENTED_EDGE('',*,*,#260,.F.);
#205=ORIENTED_EDGE('',*,*,#285,.F.);
#206=ORIENTED_EDGE('',*,*,#281,.T.);
#207=ORIENTED_EDGE('',*,*,#268,.F.);
#208=ORIENTED_EDGE('',*,*,#276,.F.);
#209=ORIENTED_EDGE('',*,*,#282,.T.);
#210=ORIENTED_EDGE('',*,*,#267,.F.);
#211=ORIENTED_EDGE('',*,*,#275,.F.);
#212=ORIENTED_EDGE('',*,*,#286,.F.);
#213=ORIENTED_EDGE('',*,*,#283,.T.);
#214=ORIENTED_EDGE('',*,*,#263,.F.);
#215=ORIENTED_EDGE('',*,*,#273,.F.);
#216=ORIENTED_EDGE('',*,*,#280,.F.);
#217=ORIENTED_EDGE('',*,*,#285,.T.);
#218=ORIENTED_EDGE('',*,*,#259,.F.);
#219=ORIENTED_EDGE('',*,*,#279,.F.);
#220=ORIENTED_EDGE('',*,*,#284,.F.);
#221=ORIENTED_EDGE('',*,*,#286,.T.);
#222=ORIENTED_EDGE('',*,*,#272,.F.);
#223=ORIENTED_EDGE('',*,*,#261,.F.);
#224=ORIENTED_EDGE('',*,*,#257,.F.);
#225=ORIENTED_EDGE('',*,*,#287,.F.);
#226=ORIENTED_EDGE('',*,*,#288,.F.);
#227=ORIENTED_EDGE('',*,*,#287,.T.);
#228=ORIENTED_EDGE('',*,*,#289,.T.);
#229=ORIENTED_EDGE('',*,*,#288,.T.);
#230=ORIENTED_EDGE('',*,*,#289,.F.);
#231=VERTEX_POINT('',#435);
#232=VERTEX_POINT('',#437);
#233=VERTEX_POINT('',#440);
#234=VERTEX_POINT('',#441);
#235=VERTEX_POINT('',#446);
#236=VERTEX_POINT('',#448);
#237=VERTEX_POINT('',#453);
#238=VERTEX_POINT('',#455);
#239=VERTEX_POINT('',#460);
#240=VERTEX_POINT('',#462);
#241=VERTEX_POINT('',#467);
#242=VERTEX_POINT('',#469);
#243=VERTEX_POINT('',#474);
#244=VERTEX_POINT('',#476);
#245=VERTEX_POINT('',#482);
#246=VERTEX_POINT('',#485);
#247=VERTEX_POINT('',#489);
#248=VERTEX_POINT('',#493);
#249=VERTEX_POINT('',#497);
#250=VERTEX_POINT('',#501);
#251=VERTEX_POINT('',#505);
#252=VERTEX_POINT('',#510);
#253=VERTEX_POINT('',#521);
#254=VERTEX_POINT('',#524);
#255=VERTEX_POINT('',#527);
#256=EDGE_CURVE('',#231,#231,#290,.T.);
#257=EDGE_CURVE('',#232,#232,#291,.T.);
#258=EDGE_CURVE('',#233,#234,#292,.T.);
#259=EDGE_CURVE('',#233,#235,#98,.T.);
#260=EDGE_CURVE('',#235,#236,#293,.T.);
#261=EDGE_CURVE('',#236,#237,#99,.T.);
#262=EDGE_CURVE('',#238,#237,#294,.T.);
#263=EDGE_CURVE('',#238,#239,#100,.T.);
#264=EDGE_CURVE('',#239,#240,#295,.T.);
#265=EDGE_CURVE('',#240,#241,#101,.T.);
#266=EDGE_CURVE('',#242,#241,#296,.T.);
#267=EDGE_CURVE('',#242,#243,#102,.T.);
#268=EDGE_CURVE('',#243,#244,#297,.T.);
#269=EDGE_CURVE('',#244,#234,#103,.T.);
#270=EDGE_CURVE('',#245,#245,#298,.T.);
#271=EDGE_CURVE('',#246,#246,#299,.T.);
#272=EDGE_CURVE('',#237,#247,#65,.T.);
#273=EDGE_CURVE('',#247,#238,#66,.T.);
#274=EDGE_CURVE('',#241,#248,#67,.T.);
#275=EDGE_CURVE('',#248,#242,#68,.T.);
#276=EDGE_CURVE('',#249,#248,#69,.T.);
#277=EDGE_CURVE('',#249,#240,#70,.T.);
#278=EDGE_CURVE('',#234,#250,#71,.T.);
#279=EDGE_CURVE('',#250,#233,#72,.T.);
#280=EDGE_CURVE('',#251,#250,#73,.T.);
#281=EDGE_CURVE('',#251,#244,#74,.T.);
#282=EDGE_CURVE('',#249,#243,#75,.T.);
#283=EDGE_CURVE('',#252,#239,#76,.T.);
#284=EDGE_CURVE('',#252,#236,#77,.T.);
#285=EDGE_CURVE('',#251,#235,#78,.T.);
#286=EDGE_CURVE('',#252,#247,#79,.T.);
#287=EDGE_CURVE('',#253,#253,#300,.T.);
#288=EDGE_CURVE('',#254,#254,#301,.T.);
#289=EDGE_CURVE('',#255,#255,#302,.T.);
#290=CIRCLE('',#317,5.);
#291=CIRCLE('',#318,5.);
#292=CIRCLE('',#320,4.);
#293=CIRCLE('',#321,4.);
#294=CIRCLE('',#322,4.);
#295=CIRCLE('',#323,4.);
#296=CIRCLE('',#324,4.);
#297=CIRCLE('',#325,4.);
#298=CIRCLE('',#326,4.);
#299=CIRCLE('',#328,4.26794919243113);
#300=CIRCLE('',#342,4.);
#301=CIRCLE('',#344,5.);
#302=CIRCLE('',#346,5.);
#303=PRESENTATION_LAYER_ASSIGNMENT('1','Layer 1',(#316,#36));
#304=PRESENTATION_LAYER_ASSIGNMENT('2','Layer 2',(#35));
#305=STYLED_ITEM('',(#308),#316);
#306=STYLED_ITEM('',(#309),#35);
#307=STYLED_ITEM('',(#310),#36);
#308=PRESENTATION_STYLE_ASSIGNMENT((#311));
#309=PRESENTATION_STYLE_ASSIGNMENT((#25));
#310=PRESENTATION_STYLE_ASSIGNMENT((#26));
#311=CURVE_STYLE('',#314,POSITIVE_LENGTH_MEASURE(0.13),#312);
#312=COLOUR_RGB('Strong Stone',0.576470588235294,0.54508278019379,0.392156862745098);
#313=COLOUR_RGB('Medium Gray',0.490196078431373,0.490196078431373,0.490196078431373);
#314=DRAUGHTING_PRE_DEFINED_CURVE_FONT('continuous');
#315=AXIS2_PLACEMENT_3D('',#432,#349,#350);
#316=AXIS2_PLACEMENT_3D('',#433,#351,#352);
#317=AXIS2_PLACEMENT_3D('',#434,#353,#354);
#318=AXIS2_PLACEMENT_3D('',#436,#355,#356);
#319=AXIS2_PLACEMENT_3D('',#438,#357,#358);
#320=AXIS2_PLACEMENT_3D('',#439,#359,#360);
#321=AXIS2_PLACEMENT_3D('',#447,#361,#362);
#322=AXIS2_PLACEMENT_3D('',#454,#363,#364);
#323=AXIS2_PLACEMENT_3D('',#461,#365,#366);
#324=AXIS2_PLACEMENT_3D('',#468,#367,#368);
#325=AXIS2_PLACEMENT_3D('',#475,#369,#370);
#326=AXIS2_PLACEMENT_3D('',#481,#371,#372);
#327=AXIS2_PLACEMENT_3D('',#483,#373,#374);
#328=AXIS2_PLACEMENT_3D('',#484,#375,#376);
#329=AXIS2_PLACEMENT_3D('',#486,#377,#378);
#330=AXIS2_PLACEMENT_3D('',#487,#379,#380);
#331=AXIS2_PLACEMENT_3D('',#491,#383,#384);
#332=AXIS2_PLACEMENT_3D('',#495,#387,#388);
#333=AXIS2_PLACEMENT_3D('',#499,#391,#392);
#334=AXIS2_PLACEMENT_3D('',#503,#395,#396);
#335=AXIS2_PLACEMENT_3D('',#507,#399,#400);
#336=AXIS2_PLACEMENT_3D('',#513,#405,#406);
#337=AXIS2_PLACEMENT_3D('',#514,#407,#408);
#338=AXIS2_PLACEMENT_3D('',#516,#410,#411);
#339=AXIS2_PLACEMENT_3D('',#517,#412,#413);
#340=AXIS2_PLACEMENT_3D('',#518,#414,#415);
#341=AXIS2_PLACEMENT_3D('',#519,#416,#417);
#342=AXIS2_PLACEMENT_3D('',#520,#418,#419);
#343=AXIS2_PLACEMENT_3D('',#522,#420,#421);
#344=AXIS2_PLACEMENT_3D('',#523,#422,#423);
#345=AXIS2_PLACEMENT_3D('',#525,#424,#425);
#346=AXIS2_PLACEMENT_3D('',#526,#426,#427);
#347=AXIS2_PLACEMENT_3D('',#528,#428,#429);
#348=AXIS2_PLACEMENT_3D('',#529,#430,#431);
#349=DIRECTION('',(0.,0.,1.));
#350=DIRECTION('',(1.,0.,0.));
#351=DIRECTION('',(0.,0.,1.));
#352=DIRECTION('',(1.,0.,0.));
#353=DIRECTION('',(0.,0.,-1.));
#354=DIRECTION('',(1.,0.,0.));
#355=DIRECTION('',(0.,0.,-1.));
#356=DIRECTION('',(1.,0.,0.));
#357=DIRECTION('',(0.,0.,-1.));
#358=DIRECTION('',(-1.,0.,0.));
#359=DIRECTION('',(0.,0.,-1.));
#360=DIRECTION('',(1.,0.,0.));
#361=DIRECTION('',(0.,0.,1.));
#362=DIRECTION('',(-1.,0.,0.));
#363=DIRECTION('',(0.,0.,-1.));
#364=DIRECTION('',(1.,0.,0.));
#365=DIRECTION('',(0.,0.,1.));
#366=DIRECTION('',(-1.,0.,0.));
#367=DIRECTION('',(0.,0.,-1.));
#368=DIRECTION('',(1.,0.,0.));
#369=DIRECTION('',(0.,0.,1.));
#370=DIRECTION('',(-1.,0.,0.));
#371=DIRECTION('',(0.,0.,-1.));
#372=DIRECTION('',(1.,0.,0.));
#373=DIRECTION('',(0.,0.,-1.));
#374=DIRECTION('',(-1.,0.,0.));
#375=DIRECTION('',(0.,0.,-1.));
#376=DIRECTION('',(1.,0.,0.));
#377=DIRECTION('',(0.,0.,-1.));
#378=DIRECTION('',(-1.,0.,0.));
#379=DIRECTION('',(0.,0.,1.));
#380=DIRECTION('',(1.,0.,3.64906890320271E-17));
#381=DIRECTION('',(-0.866025403784443,-0.499999999999992,0.));
#382=DIRECTION('',(-0.866025403784436,0.500000000000004,0.));
#383=DIRECTION('',(0.,0.,1.));
#384=DIRECTION('',(1.,0.,0.));
#385=DIRECTION('',(0.866025403784436,-0.500000000000004,0.));
#386=DIRECTION('',(0.,-1.,0.));
#387=DIRECTION('',(0.,0.,1.));
#388=DIRECTION('',(1.,0.,0.));
#389=DIRECTION('',(-0.480384461415257,-0.277350098112612,-0.832050294337847));
#390=DIRECTION('',(-0.866025403784436,0.500000000000004,0.));
#391=DIRECTION('',(-0.433012701892224,-0.75,0.499999999999996));
#392=DIRECTION('',(1.24683249835833E-16,0.554700196225226,0.832050294337846));
#393=DIRECTION('',(0.,1.,0.));
#394=DIRECTION('',(0.866025403784443,0.499999999999992,0.));
#395=DIRECTION('',(0.,0.,1.));
#396=DIRECTION('',(1.,0.,0.));
#397=DIRECTION('',(0.480384461415258,-0.277350098112614,-0.832050294337846));
#398=DIRECTION('',(0.,-1.,0.));
#399=DIRECTION('',(0.866025403784441,0.,0.499999999999996));
#400=DIRECTION('',(0.499999999999996,0.,-0.866025403784441));
#401=DIRECTION('',(0.,-1.,0.));
#402=DIRECTION('',(-0.866025403784436,0.500000000000004,0.));
#403=DIRECTION('',(0.866025403784443,0.499999999999992,0.));
#404=DIRECTION('',(0.866025403784443,0.499999999999992,0.));
#405=DIRECTION('',(0.,0.,1.));
#406=DIRECTION('',(1.,0.,0.));
#407=DIRECTION('',(-0.866025403784441,0.,0.499999999999995));
#408=DIRECTION('',(0.499999999999995,0.,0.866025403784441));
#409=DIRECTION('',(2.24476588305695E-15,0.554700196225224,-0.832050294337847));
#410=DIRECTION('',(0.433012701892224,0.750000000000001,0.499999999999995));
#411=DIRECTION('',(-3.60551432460055E-16,0.554700196225225,-0.832050294337846));
#412=DIRECTION('',(0.433012701892214,-0.750000000000007,0.499999999999995));
#413=DIRECTION('',(2.16406753628107E-16,0.554700196225222,0.832050294337849));
#414=DIRECTION('',(-0.433012701892214,0.750000000000006,0.499999999999996));
#415=DIRECTION('',(-9.61416276451521E-17,0.554700196225223,-0.832050294337848));
#416=DIRECTION('',(0.,0.,1.));
#417=DIRECTION('',(-1.,0.,0.));
#418=DIRECTION('',(0.,0.,-1.));
#419=DIRECTION('',(1.,0.,0.));
#420=DIRECTION('',(0.,0.,-1.));
#421=DIRECTION('',(-1.,0.,0.));
#422=DIRECTION('',(0.,0.,-1.));
#423=DIRECTION('',(1.,0.,0.));
#424=DIRECTION('',(0.,0.,-1.));
#425=DIRECTION('',(-1.,0.,3.45562445413707E-17));
#426=DIRECTION('',(0.,0.,1.));
#427=DIRECTION('',(1.,0.,0.));
#428=DIRECTION('',(0.,0.,-1.));
#429=DIRECTION('',(-1.,0.,0.));
#430=DIRECTION('',(0.,0.,1.));
#431=DIRECTION('',(-1.,0.,0.));
#432=CARTESIAN_POINT('',(0.,0.,0.));
#433=CARTESIAN_POINT('',(0.,0.,0.));
#434=CARTESIAN_POINT('',(0.,0.,-0.732050807568906));
#435=CARTESIAN_POINT('',(5.,0.,-0.732050807568906));
#436=CARTESIAN_POINT('',(0.,0.,0.));
#437=CARTESIAN_POINT('',(5.,0.,0.));
#438=CARTESIAN_POINT('',(0.,0.,-960.));
#439=CARTESIAN_POINT('',(0.,0.,-15.5));
#440=CARTESIAN_POINT('',(3.91088820921209,0.839615039792538,-15.5));
#441=CARTESIAN_POINT('',(1.22831615074619,-3.80673606043498,-15.5));
#442=CARTESIAN_POINT('',(3.91088820921209,0.839615039792538,-15.5));
#443=CARTESIAN_POINT('',(3.8733554319264,1.01444098881539,-15.2052567378617));
#444=CARTESIAN_POINT('',(3.82420171030197,1.18636170738353,-14.9048072883922));
#445=CARTESIAN_POINT('',(3.76364763499871,1.3546056546348,-14.6));
#446=CARTESIAN_POINT('',(3.76364763499871,1.3546056546348,-14.6));
#447=CARTESIAN_POINT('',(0.,0.,-14.6));
#448=CARTESIAN_POINT('',(3.0549467265232,2.58211163548465,-14.6));
#449=CARTESIAN_POINT('',(3.0549467265232,2.58211163548465,-14.6));
#450=CARTESIAN_POINT('',(2.93952023182226,2.71867497662559,-14.9048072883922));
#451=CARTESIAN_POINT('',(2.81520938291759,2.84720370752697,-15.2052567378617));
#452=CARTESIAN_POINT('',(2.68257205846592,2.96712102064238,-15.5));
#453=CARTESIAN_POINT('',(2.68257205846592,2.96712102064238,-15.5));
#454=CARTESIAN_POINT('',(0.,0.,-15.5));
#455=CARTESIAN_POINT('',(-2.68257205846588,2.96712102064242,-15.5));
#456=CARTESIAN_POINT('',(-2.68257205846588,2.96712102064242,-15.5));
#457=CARTESIAN_POINT('',(-2.81520938291758,2.84720370752697,-15.2052567378617));
#458=CARTESIAN_POINT('',(-2.93952023182225,2.71867497662559,-14.9048072883922));
#459=CARTESIAN_POINT('',(-3.05494672652316,2.58211163548469,-14.6));
#460=CARTESIAN_POINT('',(-3.05494672652316,2.58211163548469,-14.6));
#461=CARTESIAN_POINT('',(0.,0.,-14.6));
#462=CARTESIAN_POINT('',(-3.76364763499869,1.35460565463486,-14.6));
#463=CARTESIAN_POINT('',(-3.76364763499869,1.35460565463486,-14.6));
#464=CARTESIAN_POINT('',(-3.82420171030196,1.18636170738359,-14.9048072883922));
#465=CARTESIAN_POINT('',(-3.87335543192639,1.01444098881544,-15.2052567378617));
#466=CARTESIAN_POINT('',(-3.91088820921208,0.839615039792581,-15.5));
#467=CARTESIAN_POINT('',(-3.91088820921208,0.839615039792581,-15.5));
#468=CARTESIAN_POINT('',(0.,0.,-15.5));
#469=CARTESIAN_POINT('',(-1.22831615074619,-3.80673606043498,-15.5));
#470=CARTESIAN_POINT('',(-1.22831615074619,-3.80673606043498,-15.5));
#471=CARTESIAN_POINT('',(-1.05814604900883,-3.86164469634242,-15.2052567378617));
#472=CARTESIAN_POINT('',(-0.884681478479729,-3.90503668400918,-14.9048072883922));
#473=CARTESIAN_POINT('',(-0.708700908475532,-3.93671729011952,-14.6));
#474=CARTESIAN_POINT('',(-0.708700908475532,-3.93671729011952,-14.6));
#475=CARTESIAN_POINT('',(0.,0.,-14.6));
#476=CARTESIAN_POINT('',(0.708700908475528,-3.93671729011952,-14.6));
#477=CARTESIAN_POINT('',(0.708700908475528,-3.93671729011952,-14.6));
#478=CARTESIAN_POINT('',(0.88468147847973,-3.90503668400918,-14.9048072883922));
#479=CARTESIAN_POINT('',(1.05814604900884,-3.86164469634242,-15.2052567378617));
#480=CARTESIAN_POINT('',(1.22831615074619,-3.80673606043498,-15.5));
#481=CARTESIAN_POINT('',(0.,0.,-3.));
#482=CARTESIAN_POINT('',(4.,0.,-3.));
#483=CARTESIAN_POINT('',(0.,0.,-960.));
#484=CARTESIAN_POINT('',(0.,0.,-2.));
#485=CARTESIAN_POINT('',(4.26794919243113,0.,-2.));
#486=CARTESIAN_POINT('',(0.,0.,-3.));
#487=CARTESIAN_POINT('',(0.,0.,-0.732050807568906));
#488=CARTESIAN_POINT('',(-0.614158075373084,1.06375299042492,-15.5));
#489=CARTESIAN_POINT('',(1.3986208025063E-14,1.41833732056655,-15.5));
#490=CARTESIAN_POINT('',(0.6141580753731,1.06375299042491,-15.5));
#491=CARTESIAN_POINT('',(0.,0.,-15.5));
#492=CARTESIAN_POINT('',(-0.6141580753731,-1.06375299042491,-15.5));
#493=CARTESIAN_POINT('',(-1.22831615074619,-0.709168660283267,-15.5));
#494=CARTESIAN_POINT('',(-1.22831615074619,0.,-15.5));
#495=CARTESIAN_POINT('',(0.,0.,-15.5));
#496=CARTESIAN_POINT('',(-1.22709456725019,-0.708463378723014,-15.4978841553192));
#497=CARTESIAN_POINT('',(-0.708700908475537,-0.409168660283272,-14.6));
#498=CARTESIAN_POINT('',(-0.787363156129986,-0.363752990424914,-14.6));
#499=CARTESIAN_POINT('',(-0.787363156129986,-0.363752990424914,-14.6));
#500=CARTESIAN_POINT('',(1.22831615074619,0.,-15.5));
#501=CARTESIAN_POINT('',(1.22831615074618,-0.709168660283292,-15.5));
#502=CARTESIAN_POINT('',(0.614158075373086,-1.06375299042492,-15.5));
#503=CARTESIAN_POINT('',(0.,0.,-15.5));
#504=CARTESIAN_POINT('',(1.22709456725018,-0.708463378723038,-15.4978841553192));
#505=CARTESIAN_POINT('',(0.708700908475528,-0.409168660283294,-14.6));
#506=CARTESIAN_POINT('',(0.708700908475528,-0.5,-14.6));
#507=CARTESIAN_POINT('',(0.708700908475528,-0.5,-14.6));
#508=CARTESIAN_POINT('',(-0.708700908475532,-0.5,-14.6));
#509=CARTESIAN_POINT('',(-0.0786622476544496,0.863752990424921,-14.6));
#510=CARTESIAN_POINT('',(1.14654379740342E-14,0.818337320566558,-14.6));
#511=CARTESIAN_POINT('',(0.0786622476544631,0.863752990424916,-14.6));
#512=CARTESIAN_POINT('',(0.787363156129981,-0.363752990424928,-14.6));
#513=CARTESIAN_POINT('',(-0.708700908475532,-0.5,-14.6));
#514=CARTESIAN_POINT('',(-1.25718366420567,-0.5,-15.55));
#515=CARTESIAN_POINT('',(1.36880524276295E-14,1.41692675744604,-15.4978841553192));
#516=CARTESIAN_POINT('',(0.195579130210621,1.33875299042491,-15.55));
#517=CARTESIAN_POINT('',(1.06160453399505,-0.838752990424924,-15.55));
#518=CARTESIAN_POINT('',(0.0786622476544631,0.863752990424916,-14.6));
#519=CARTESIAN_POINT('',(0.,0.,0.));
#520=CARTESIAN_POINT('',(0.,0.,40.));
#521=CARTESIAN_POINT('',(4.,0.,40.));
#522=CARTESIAN_POINT('',(0.,-4.,40.));
#523=CARTESIAN_POINT('',(0.,0.,39.));
#524=CARTESIAN_POINT('',(5.,0.,39.));
#525=CARTESIAN_POINT('',(0.,0.,40.));
#526=CARTESIAN_POINT('',(0.,0.,0.));
#527=CARTESIAN_POINT('',(5.,0.,0.));
#528=CARTESIAN_POINT('',(0.,0.,-960.));
#529=CARTESIAN_POINT('',(0.,0.,0.));
#530=MECHANICAL_DESIGN_GEOMETRIC_PRESENTATION_REPRESENTATION('',(#305,#306,
#307),#531);
#531=(
GEOMETRIC_REPRESENTATION_CONTEXT(3)
GLOBAL_UNCERTAINTY_ASSIGNED_CONTEXT((#532))
GLOBAL_UNIT_ASSIGNED_CONTEXT((#538,#534,#533))
REPRESENTATION_CONTEXT('335.14-1008','TOP_LEVEL_ASSEMBLY_PART')
);
#532=UNCERTAINTY_MEASURE_WITH_UNIT(LENGTH_MEASURE(2.E-5),#538,
'DISTANCE_ACCURACY_VALUE','Maximum Tolerance applied to model');
#533=(
NAMED_UNIT(*)
SI_UNIT($,.STERADIAN.)
SOLID_ANGLE_UNIT()
);
#534=(
CONVERSION_BASED_UNIT('DEGREE',#536)
NAMED_UNIT(#535)
PLANE_ANGLE_UNIT()
);
#535=DIMENSIONAL_EXPONENTS(0.,0.,0.,0.,0.,0.,0.);
#536=PLANE_ANGLE_MEASURE_WITH_UNIT(PLANE_ANGLE_MEASURE(0.0174532925),#537);
#537=(
NAMED_UNIT(*)
PLANE_ANGLE_UNIT()
SI_UNIT($,.RADIAN.)
);
#538=(
LENGTH_UNIT()
NAMED_UNIT(*)
SI_UNIT(.MILLI.,.METRE.)
);
ENDSEC;
END-ISO-10303-21;
