ISO-10303-21;
HEADER;
/* Generated by software containing ST-Developer
 * from STEP Tools, Inc. (www.steptools.com) 
 */
/* OPTION: using custom schema-name function */

FILE_DESCRIPTION(
/* description */ (''),
/* implementation_level */ '2;1');

FILE_NAME(
/* name */ '335.14-1006.0-015-060.stp',
/* time_stamp */ '2018-02-19T13:39:15+05:00',
/* author */ (''),
/* organization */ (''),
/* preprocessor_version */ 'ST-DEVELOPER v16',
/* originating_system */ 'SIEMENS PLM Software NX 11.0',
/* authorisation */ '');

FILE_SCHEMA (('AUTOMOTIVE_DESIGN { 1 0 10303 214 3 1 1 1 }'));
ENDSEC;

DATA;
#10=CONSTRUCTIVE_GEOMETRY_REPRESENTATION_RELATIONSHIP(
'supplemental geometry','',#24,#11);
#11=CONSTRUCTIVE_GEOMETRY_REPRESENTATION('supplemental geometry',(#316),
#531);
#12=SHAPE_REPRESENTATION_RELATIONSHIP('None',
'relationship between 335.14-1006.0-015-060-None and 335.14-1006.0-015
-060-None',#24,#13);
#13=ADVANCED_BREP_SHAPE_REPRESENTATION('335.14-1006.0-015-060-None',(#35,
#36),#531);
#14=SHAPE_DEFINITION_REPRESENTATION(#15,#24);
#15=PRODUCT_DEFINITION_SHAPE('','',#16);
#16=PRODUCT_DEFINITION(' ','',#18,#17);
#17=PRODUCT_DEFINITION_CONTEXT('part definition',#23,'design');
#18=PRODUCT_DEFINITION_FORMATION_WITH_SPECIFIED_SOURCE(' ',' ',#20,
 .NOT_KNOWN.);
#19=PRODUCT_RELATED_PRODUCT_CATEGORY('part','',(#20));
#20=PRODUCT('335.14-1006.0-015-060','335.14-1006.0-015-060',' ',(#21));
#21=PRODUCT_CONTEXT(' ',#23,'mechanical');
#22=APPLICATION_PROTOCOL_DEFINITION('international standard',
'automotive_design',2010,#23);
#23=APPLICATION_CONTEXT(
'core data for automotive mechanical design processes');
#24=SHAPE_REPRESENTATION('335.14-1006.0-015-060-None',(#315),#531);
#25=SURFACE_STYLE_USAGE(.BOTH.,#27);
#26=SURFACE_STYLE_USAGE(.BOTH.,#28);
#27=SURFACE_SIDE_STYLE('',(#29));
#28=SURFACE_SIDE_STYLE('',(#30));
#29=SURFACE_STYLE_FILL_AREA(#31);
#30=SURFACE_STYLE_FILL_AREA(#32);
#31=FILL_AREA_STYLE('',(#33));
#32=FILL_AREA_STYLE('',(#34));
#33=FILL_AREA_STYLE_COLOUR('',#313);
#34=FILL_AREA_STYLE_COLOUR('',#313);
#35=MANIFOLD_SOLID_BREP('NOCUT',#37);
#36=MANIFOLD_SOLID_BREP('NOCUT',#38);
#37=CLOSED_SHELL('',(#104,#105,#106,#107,#108,#109,#110,#111,#112,#113,
#114,#115,#116,#117,#118));
#38=CLOSED_SHELL('',(#119,#120,#121,#122));
#39=PLANE('',#331);
#40=PLANE('',#332);
#41=PLANE('',#333);
#42=PLANE('',#334);
#43=PLANE('',#335);
#44=PLANE('',#336);
#45=PLANE('',#337);
#46=PLANE('',#338);
#47=PLANE('',#339);
#48=PLANE('',#340);
#49=PLANE('',#341);
#50=PLANE('',#343);
#51=PLANE('',#348);
#52=FACE_OUTER_BOUND('',#146,.T.);
#53=FACE_OUTER_BOUND('',#147,.T.);
#54=FACE_OUTER_BOUND('',#148,.T.);
#55=FACE_OUTER_BOUND('',#149,.T.);
#56=FACE_OUTER_BOUND('',#150,.T.);
#57=FACE_OUTER_BOUND('',#151,.T.);
#58=FACE_OUTER_BOUND('',#152,.T.);
#59=FACE_OUTER_BOUND('',#153,.T.);
#60=FACE_OUTER_BOUND('',#154,.T.);
#61=FACE_OUTER_BOUND('',#155,.T.);
#62=FACE_OUTER_BOUND('',#156,.T.);
#63=FACE_OUTER_BOUND('',#157,.T.);
#64=FACE_OUTER_BOUND('',#162,.T.);
#65=LINE('',#488,#80);
#66=LINE('',#490,#81);
#67=LINE('',#492,#82);
#68=LINE('',#494,#83);
#69=LINE('',#496,#84);
#70=LINE('',#498,#85);
#71=LINE('',#500,#86);
#72=LINE('',#502,#87);
#73=LINE('',#504,#88);
#74=LINE('',#506,#89);
#75=LINE('',#508,#90);
#76=LINE('',#510,#91);
#77=LINE('',#512,#92);
#78=LINE('',#514,#93);
#79=LINE('',#516,#94);
#80=VECTOR('',#381,1.);
#81=VECTOR('',#382,1.);
#82=VECTOR('',#385,1.);
#83=VECTOR('',#386,1.);
#84=VECTOR('',#389,1.);
#85=VECTOR('',#390,1.);
#86=VECTOR('',#393,1.);
#87=VECTOR('',#394,1.);
#88=VECTOR('',#397,1.);
#89=VECTOR('',#398,1.);
#90=VECTOR('',#401,1.);
#91=VECTOR('',#402,1.);
#92=VECTOR('',#405,1.);
#93=VECTOR('',#408,1.);
#94=VECTOR('',#411,1.);
#95=(
BOUNDED_CURVE()
B_SPLINE_CURVE(3,(#448,#449,#450,#451),.UNSPECIFIED.,.F.,.F.)
B_SPLINE_CURVE_WITH_KNOTS((4,4),(0.,1.),.UNSPECIFIED.)
CURVE()
GEOMETRIC_REPRESENTATION_ITEM()
RATIONAL_B_SPLINE_CURVE((1.,0.998634990750286,0.998634990750286,1.))
REPRESENTATION_ITEM('')
);
#96=(
BOUNDED_CURVE()
B_SPLINE_CURVE(3,(#455,#456,#457,#458),.UNSPECIFIED.,.F.,.F.)
B_SPLINE_CURVE_WITH_KNOTS((4,4),(0.,1.),.UNSPECIFIED.)
CURVE()
GEOMETRIC_REPRESENTATION_ITEM()
RATIONAL_B_SPLINE_CURVE((1.,0.998634990750286,0.998634990750286,1.))
REPRESENTATION_ITEM('')
);
#97=(
BOUNDED_CURVE()
B_SPLINE_CURVE(3,(#462,#463,#464,#465),.UNSPECIFIED.,.F.,.F.)
B_SPLINE_CURVE_WITH_KNOTS((4,4),(0.,1.),.UNSPECIFIED.)
CURVE()
GEOMETRIC_REPRESENTATION_ITEM()
RATIONAL_B_SPLINE_CURVE((1.,0.998634990750286,0.998634990750286,1.))
REPRESENTATION_ITEM('')
);
#98=(
BOUNDED_CURVE()
B_SPLINE_CURVE(3,(#469,#470,#471,#472),.UNSPECIFIED.,.F.,.F.)
B_SPLINE_CURVE_WITH_KNOTS((4,4),(0.,1.),.UNSPECIFIED.)
CURVE()
GEOMETRIC_REPRESENTATION_ITEM()
RATIONAL_B_SPLINE_CURVE((1.,0.998634990750286,0.998634990750286,1.))
REPRESENTATION_ITEM('')
);
#99=(
BOUNDED_CURVE()
B_SPLINE_CURVE(3,(#476,#477,#478,#479),.UNSPECIFIED.,.F.,.F.)
B_SPLINE_CURVE_WITH_KNOTS((4,4),(0.,1.),.UNSPECIFIED.)
CURVE()
GEOMETRIC_REPRESENTATION_ITEM()
RATIONAL_B_SPLINE_CURVE((1.,0.998634990750286,0.998634990750286,1.))
REPRESENTATION_ITEM('')
);
#100=(
BOUNDED_CURVE()
B_SPLINE_CURVE(3,(#483,#484,#485,#486),.UNSPECIFIED.,.F.,.F.)
B_SPLINE_CURVE_WITH_KNOTS((4,4),(0.,1.),.UNSPECIFIED.)
CURVE()
GEOMETRIC_REPRESENTATION_ITEM()
RATIONAL_B_SPLINE_CURVE((1.,0.998634990750286,0.998634990750286,1.))
REPRESENTATION_ITEM('')
);
#101=TOROIDAL_SURFACE('',#323,5.,2.);
#102=CONICAL_SURFACE('',#321,4.99999999999999,30.0000000000002);
#103=CONICAL_SURFACE('',#345,4.,45.);
#104=ADVANCED_FACE('',(#126,#127),#123,.T.);
#105=ADVANCED_FACE('',(#128,#129),#102,.T.);
#106=ADVANCED_FACE('',(#130,#131),#101,.F.);
#107=ADVANCED_FACE('',(#132,#133),#124,.T.);
#108=ADVANCED_FACE('',(#52),#39,.T.);
#109=ADVANCED_FACE('',(#53),#40,.T.);
#110=ADVANCED_FACE('',(#54),#41,.T.);
#111=ADVANCED_FACE('',(#55),#42,.F.);
#112=ADVANCED_FACE('',(#56),#43,.F.);
#113=ADVANCED_FACE('',(#57),#44,.F.);
#114=ADVANCED_FACE('',(#58),#45,.F.);
#115=ADVANCED_FACE('',(#59),#46,.F.);
#116=ADVANCED_FACE('',(#60),#47,.F.);
#117=ADVANCED_FACE('',(#61),#48,.F.);
#118=ADVANCED_FACE('',(#62),#49,.T.);
#119=ADVANCED_FACE('',(#63),#50,.T.);
#120=ADVANCED_FACE('',(#134,#135),#103,.T.);
#121=ADVANCED_FACE('',(#136,#137),#125,.T.);
#122=ADVANCED_FACE('',(#64),#51,.F.);
#123=CYLINDRICAL_SURFACE('',#319,5.);
#124=CYLINDRICAL_SURFACE('',#330,2.99999999999999);
#125=CYLINDRICAL_SURFACE('',#347,5.);
#126=FACE_BOUND('',#138,.T.);
#127=FACE_BOUND('',#139,.T.);
#128=FACE_BOUND('',#140,.T.);
#129=FACE_BOUND('',#141,.T.);
#130=FACE_BOUND('',#142,.T.);
#131=FACE_BOUND('',#143,.T.);
#132=FACE_BOUND('',#144,.T.);
#133=FACE_BOUND('',#145,.T.);
#134=FACE_BOUND('',#158,.T.);
#135=FACE_BOUND('',#159,.T.);
#136=FACE_BOUND('',#160,.T.);
#137=FACE_BOUND('',#161,.T.);
#138=EDGE_LOOP('',(#163));
#139=EDGE_LOOP('',(#164));
#140=EDGE_LOOP('',(#165));
#141=EDGE_LOOP('',(#166));
#142=EDGE_LOOP('',(#167));
#143=EDGE_LOOP('',(#168));
#144=EDGE_LOOP('',(#169));
#145=EDGE_LOOP('',(#170,#171,#172,#173,#174,#175,#176,#177,#178,#179,#180,
#181));
#146=EDGE_LOOP('',(#182,#183,#184));
#147=EDGE_LOOP('',(#185,#186,#187));
#148=EDGE_LOOP('',(#188,#189,#190));
#149=EDGE_LOOP('',(#191,#192,#193,#194));
#150=EDGE_LOOP('',(#195,#196,#197,#198));
#151=EDGE_LOOP('',(#199,#200,#201,#202));
#152=EDGE_LOOP('',(#203,#204,#205,#206));
#153=EDGE_LOOP('',(#207,#208,#209,#210));
#154=EDGE_LOOP('',(#211,#212,#213,#214));
#155=EDGE_LOOP('',(#215,#216,#217,#218,#219,#220,#221,#222,#223));
#156=EDGE_LOOP('',(#224));
#157=EDGE_LOOP('',(#225));
#158=EDGE_LOOP('',(#226));
#159=EDGE_LOOP('',(#227));
#160=EDGE_LOOP('',(#228));
#161=EDGE_LOOP('',(#229));
#162=EDGE_LOOP('',(#230));
#163=ORIENTED_EDGE('',*,*,#256,.T.);
#164=ORIENTED_EDGE('',*,*,#257,.F.);
#165=ORIENTED_EDGE('',*,*,#256,.F.);
#166=ORIENTED_EDGE('',*,*,#258,.T.);
#167=ORIENTED_EDGE('',*,*,#259,.T.);
#168=ORIENTED_EDGE('',*,*,#258,.F.);
#169=ORIENTED_EDGE('',*,*,#259,.F.);
#170=ORIENTED_EDGE('',*,*,#260,.T.);
#171=ORIENTED_EDGE('',*,*,#261,.F.);
#172=ORIENTED_EDGE('',*,*,#262,.F.);
#173=ORIENTED_EDGE('',*,*,#263,.F.);
#174=ORIENTED_EDGE('',*,*,#264,.T.);
#175=ORIENTED_EDGE('',*,*,#265,.F.);
#176=ORIENTED_EDGE('',*,*,#266,.F.);
#177=ORIENTED_EDGE('',*,*,#267,.F.);
#178=ORIENTED_EDGE('',*,*,#268,.T.);
#179=ORIENTED_EDGE('',*,*,#269,.F.);
#180=ORIENTED_EDGE('',*,*,#270,.F.);
#181=ORIENTED_EDGE('',*,*,#271,.F.);
#182=ORIENTED_EDGE('',*,*,#272,.F.);
#183=ORIENTED_EDGE('',*,*,#268,.F.);
#184=ORIENTED_EDGE('',*,*,#273,.F.);
#185=ORIENTED_EDGE('',*,*,#274,.F.);
#186=ORIENTED_EDGE('',*,*,#275,.F.);
#187=ORIENTED_EDGE('',*,*,#264,.F.);
#188=ORIENTED_EDGE('',*,*,#276,.F.);
#189=ORIENTED_EDGE('',*,*,#277,.F.);
#190=ORIENTED_EDGE('',*,*,#260,.F.);
#191=ORIENTED_EDGE('',*,*,#278,.T.);
#192=ORIENTED_EDGE('',*,*,#279,.T.);
#193=ORIENTED_EDGE('',*,*,#261,.T.);
#194=ORIENTED_EDGE('',*,*,#277,.T.);
#195=ORIENTED_EDGE('',*,*,#280,.F.);
#196=ORIENTED_EDGE('',*,*,#281,.T.);
#197=ORIENTED_EDGE('',*,*,#274,.T.);
#198=ORIENTED_EDGE('',*,*,#263,.T.);
#199=ORIENTED_EDGE('',*,*,#282,.F.);
#200=ORIENTED_EDGE('',*,*,#283,.T.);
#201=ORIENTED_EDGE('',*,*,#273,.T.);
#202=ORIENTED_EDGE('',*,*,#267,.T.);
#203=ORIENTED_EDGE('',*,*,#281,.F.);
#204=ORIENTED_EDGE('',*,*,#284,.T.);
#205=ORIENTED_EDGE('',*,*,#265,.T.);
#206=ORIENTED_EDGE('',*,*,#275,.T.);
#207=ORIENTED_EDGE('',*,*,#283,.F.);
#208=ORIENTED_EDGE('',*,*,#285,.T.);
#209=ORIENTED_EDGE('',*,*,#269,.T.);
#210=ORIENTED_EDGE('',*,*,#272,.T.);
#211=ORIENTED_EDGE('',*,*,#286,.F.);
#212=ORIENTED_EDGE('',*,*,#278,.F.);
#213=ORIENTED_EDGE('',*,*,#276,.T.);
#214=ORIENTED_EDGE('',*,*,#271,.T.);
#215=ORIENTED_EDGE('',*,*,#286,.T.);
#216=ORIENTED_EDGE('',*,*,#270,.T.);
#217=ORIENTED_EDGE('',*,*,#285,.F.);
#218=ORIENTED_EDGE('',*,*,#282,.T.);
#219=ORIENTED_EDGE('',*,*,#266,.T.);
#220=ORIENTED_EDGE('',*,*,#284,.F.);
#221=ORIENTED_EDGE('',*,*,#280,.T.);
#222=ORIENTED_EDGE('',*,*,#262,.T.);
#223=ORIENTED_EDGE('',*,*,#279,.F.);
#224=ORIENTED_EDGE('',*,*,#257,.T.);
#225=ORIENTED_EDGE('',*,*,#287,.T.);
#226=ORIENTED_EDGE('',*,*,#288,.T.);
#227=ORIENTED_EDGE('',*,*,#287,.F.);
#228=ORIENTED_EDGE('',*,*,#289,.F.);
#229=ORIENTED_EDGE('',*,*,#288,.F.);
#230=ORIENTED_EDGE('',*,*,#289,.T.);
#231=VERTEX_POINT('',#435);
#232=VERTEX_POINT('',#437);
#233=VERTEX_POINT('',#440);
#234=VERTEX_POINT('',#443);
#235=VERTEX_POINT('',#446);
#236=VERTEX_POINT('',#447);
#237=VERTEX_POINT('',#452);
#238=VERTEX_POINT('',#454);
#239=VERTEX_POINT('',#459);
#240=VERTEX_POINT('',#461);
#241=VERTEX_POINT('',#466);
#242=VERTEX_POINT('',#468);
#243=VERTEX_POINT('',#473);
#244=VERTEX_POINT('',#475);
#245=VERTEX_POINT('',#480);
#246=VERTEX_POINT('',#482);
#247=VERTEX_POINT('',#489);
#248=VERTEX_POINT('',#493);
#249=VERTEX_POINT('',#497);
#250=VERTEX_POINT('',#501);
#251=VERTEX_POINT('',#505);
#252=VERTEX_POINT('',#509);
#253=VERTEX_POINT('',#521);
#254=VERTEX_POINT('',#524);
#255=VERTEX_POINT('',#527);
#256=EDGE_CURVE('',#231,#231,#290,.T.);
#257=EDGE_CURVE('',#232,#232,#291,.T.);
#258=EDGE_CURVE('',#233,#233,#292,.T.);
#259=EDGE_CURVE('',#234,#234,#293,.T.);
#260=EDGE_CURVE('',#235,#236,#294,.T.);
#261=EDGE_CURVE('',#237,#236,#95,.T.);
#262=EDGE_CURVE('',#238,#237,#295,.T.);
#263=EDGE_CURVE('',#239,#238,#96,.T.);
#264=EDGE_CURVE('',#239,#240,#296,.T.);
#265=EDGE_CURVE('',#241,#240,#97,.T.);
#266=EDGE_CURVE('',#242,#241,#297,.T.);
#267=EDGE_CURVE('',#243,#242,#98,.T.);
#268=EDGE_CURVE('',#243,#244,#298,.T.);
#269=EDGE_CURVE('',#245,#244,#99,.T.);
#270=EDGE_CURVE('',#246,#245,#299,.T.);
#271=EDGE_CURVE('',#235,#246,#100,.T.);
#272=EDGE_CURVE('',#244,#247,#65,.T.);
#273=EDGE_CURVE('',#247,#243,#66,.T.);
#274=EDGE_CURVE('',#248,#239,#67,.T.);
#275=EDGE_CURVE('',#240,#248,#68,.T.);
#276=EDGE_CURVE('',#249,#235,#69,.T.);
#277=EDGE_CURVE('',#236,#249,#70,.T.);
#278=EDGE_CURVE('',#249,#250,#71,.T.);
#279=EDGE_CURVE('',#250,#237,#72,.T.);
#280=EDGE_CURVE('',#251,#238,#73,.T.);
#281=EDGE_CURVE('',#251,#248,#74,.T.);
#282=EDGE_CURVE('',#252,#242,#75,.T.);
#283=EDGE_CURVE('',#252,#247,#76,.T.);
#284=EDGE_CURVE('',#251,#241,#77,.T.);
#285=EDGE_CURVE('',#252,#245,#78,.T.);
#286=EDGE_CURVE('',#250,#246,#79,.T.);
#287=EDGE_CURVE('',#253,#253,#300,.T.);
#288=EDGE_CURVE('',#254,#254,#301,.T.);
#289=EDGE_CURVE('',#255,#255,#302,.T.);
#290=CIRCLE('',#317,4.99999999999999);
#291=CIRCLE('',#318,5.);
#292=CIRCLE('',#320,3.26794919243112);
#293=CIRCLE('',#322,2.99999999999999);
#294=CIRCLE('',#324,2.99999999999999);
#295=CIRCLE('',#325,2.99999999999999);
#296=CIRCLE('',#326,2.99999999999999);
#297=CIRCLE('',#327,2.99999999999999);
#298=CIRCLE('',#328,2.99999999999999);
#299=CIRCLE('',#329,2.99999999999999);
#300=CIRCLE('',#342,4.);
#301=CIRCLE('',#344,5.);
#302=CIRCLE('',#346,5.);
#303=PRESENTATION_LAYER_ASSIGNMENT('1','Layer 1',(#316,#36));
#304=PRESENTATION_LAYER_ASSIGNMENT('2','Layer 2',(#35));
#305=STYLED_ITEM('',(#308),#316);
#306=STYLED_ITEM('',(#309),#35);
#307=STYLED_ITEM('',(#310),#36);
#308=PRESENTATION_STYLE_ASSIGNMENT((#311));
#309=PRESENTATION_STYLE_ASSIGNMENT((#25));
#310=PRESENTATION_STYLE_ASSIGNMENT((#26));
#311=CURVE_STYLE('',#314,POSITIVE_LENGTH_MEASURE(0.13),#312);
#312=COLOUR_RGB('Strong Stone',0.576470588235294,0.54508278019379,0.392156862745098);
#313=COLOUR_RGB('Medium Gray',0.490196078431373,0.490196078431373,0.490196078431373);
#314=DRAUGHTING_PRE_DEFINED_CURVE_FONT('continuous');
#315=AXIS2_PLACEMENT_3D('',#432,#349,#350);
#316=AXIS2_PLACEMENT_3D('',#433,#351,#352);
#317=AXIS2_PLACEMENT_3D('',#434,#353,#354);
#318=AXIS2_PLACEMENT_3D('',#436,#355,#356);
#319=AXIS2_PLACEMENT_3D('',#438,#357,#358);
#320=AXIS2_PLACEMENT_3D('',#439,#359,#360);
#321=AXIS2_PLACEMENT_3D('',#441,#361,#362);
#322=AXIS2_PLACEMENT_3D('',#442,#363,#364);
#323=AXIS2_PLACEMENT_3D('',#444,#365,#366);
#324=AXIS2_PLACEMENT_3D('',#445,#367,#368);
#325=AXIS2_PLACEMENT_3D('',#453,#369,#370);
#326=AXIS2_PLACEMENT_3D('',#460,#371,#372);
#327=AXIS2_PLACEMENT_3D('',#467,#373,#374);
#328=AXIS2_PLACEMENT_3D('',#474,#375,#376);
#329=AXIS2_PLACEMENT_3D('',#481,#377,#378);
#330=AXIS2_PLACEMENT_3D('',#487,#379,#380);
#331=AXIS2_PLACEMENT_3D('',#491,#383,#384);
#332=AXIS2_PLACEMENT_3D('',#495,#387,#388);
#333=AXIS2_PLACEMENT_3D('',#499,#391,#392);
#334=AXIS2_PLACEMENT_3D('',#503,#395,#396);
#335=AXIS2_PLACEMENT_3D('',#507,#399,#400);
#336=AXIS2_PLACEMENT_3D('',#511,#403,#404);
#337=AXIS2_PLACEMENT_3D('',#513,#406,#407);
#338=AXIS2_PLACEMENT_3D('',#515,#409,#410);
#339=AXIS2_PLACEMENT_3D('',#517,#412,#413);
#340=AXIS2_PLACEMENT_3D('',#518,#414,#415);
#341=AXIS2_PLACEMENT_3D('',#519,#416,#417);
#342=AXIS2_PLACEMENT_3D('',#520,#418,#419);
#343=AXIS2_PLACEMENT_3D('',#522,#420,#421);
#344=AXIS2_PLACEMENT_3D('',#523,#422,#423);
#345=AXIS2_PLACEMENT_3D('',#525,#424,#425);
#346=AXIS2_PLACEMENT_3D('',#526,#426,#427);
#347=AXIS2_PLACEMENT_3D('',#528,#428,#429);
#348=AXIS2_PLACEMENT_3D('',#529,#430,#431);
#349=DIRECTION('',(0.,0.,1.));
#350=DIRECTION('',(1.,0.,0.));
#351=DIRECTION('',(0.,0.,1.));
#352=DIRECTION('',(1.,0.,0.));
#353=DIRECTION('',(0.,0.,1.));
#354=DIRECTION('',(1.,0.,0.));
#355=DIRECTION('',(0.,0.,1.));
#356=DIRECTION('',(1.,0.,0.));
#357=DIRECTION('',(0.,0.,1.));
#358=DIRECTION('',(-1.,0.,0.));
#359=DIRECTION('',(0.,0.,1.));
#360=DIRECTION('',(1.,0.,0.));
#361=DIRECTION('',(0.,0.,1.));
#362=DIRECTION('',(-1.,0.,-1.48941587885824E-18));
#363=DIRECTION('',(0.,0.,1.));
#364=DIRECTION('',(1.,0.,0.));
#365=DIRECTION('',(0.,0.,1.));
#366=DIRECTION('',(-1.,0.,0.));
#367=DIRECTION('',(0.,0.,1.));
#368=DIRECTION('',(-1.,-1.24344978758018E-14,0.));
#369=DIRECTION('',(0.,-2.83220159343152E-15,-1.));
#370=DIRECTION('',(0.,1.,-2.31296463463575E-15));
#371=DIRECTION('',(0.,0.,1.));
#372=DIRECTION('',(-1.,0.,0.));
#373=DIRECTION('',(2.45275852855046E-15,1.41610079671577E-15,-1.));
#374=DIRECTION('',(1.,-6.21724893790088E-15,2.31296463463575E-15));
#375=DIRECTION('',(0.,0.,1.));
#376=DIRECTION('',(-1.,1.77635683940025E-15,0.));
#377=DIRECTION('',(-2.45275852855048E-15,1.41610079671574E-15,-1.));
#378=DIRECTION('',(1.,5.93886733645931E-31,-2.31296463463575E-15));
#379=DIRECTION('',(0.,0.,1.));
#380=DIRECTION('',(-1.,0.,0.));
#381=DIRECTION('',(0.866025403784442,-0.499999999999993,0.));
#382=DIRECTION('',(0.866025403784435,0.500000000000005,0.));
#383=DIRECTION('',(0.,0.,-1.));
#384=DIRECTION('',(1.,0.,0.));
#385=DIRECTION('',(1.63517235236694E-15,-1.,0.));
#386=DIRECTION('',(-0.866025403784437,-0.500000000000003,0.));
#387=DIRECTION('',(0.,0.,-1.));
#388=DIRECTION('',(1.,0.,0.));
#389=DIRECTION('',(-0.866025403784444,0.499999999999991,0.));
#390=DIRECTION('',(1.63517235236696E-15,1.,0.));
#391=DIRECTION('',(0.,0.,-1.));
#392=DIRECTION('',(1.,0.,0.));
#393=DIRECTION('',(0.480384461415258,0.277350098112611,0.832050294337847));
#394=DIRECTION('',(0.,-1.,2.83220159343152E-15));
#395=DIRECTION('',(-0.866025403784441,1.41610079671575E-15,0.499999999999996));
#396=DIRECTION('',(-0.499999999999996,0.,-0.866025403784441));
#397=DIRECTION('',(0.,-1.,2.83220159343152E-15));
#398=DIRECTION('',(0.480384461415255,-0.277350098112614,-0.832050294337848));
#399=DIRECTION('',(0.866025403784443,1.41610079671574E-15,0.499999999999993));
#400=DIRECTION('',(-0.499999999999993,0.,0.866025403784443));
#401=DIRECTION('',(0.866025403784436,0.500000000000004,2.83220159343152E-15));
#402=DIRECTION('',(-1.18907524604374E-16,0.554700196225223,-0.832050294337848));
#403=DIRECTION('',(-0.433012701892226,0.750000000000001,0.499999999999993));
#404=DIRECTION('',(3.12494171164635E-16,-0.554700196225223,0.832050294337848));
#405=DIRECTION('',(0.866025403784436,0.500000000000004,2.83220159343152E-15));
#406=DIRECTION('',(0.433012701892223,-0.750000000000001,0.499999999999996));
#407=DIRECTION('',(-4.55364912443912E-18,-0.554700196225226,-0.832050294337846));
#408=DIRECTION('',(-0.866025403784443,0.499999999999992,2.83220159343152E-15));
#409=DIRECTION('',(0.433012701892215,0.750000000000005,0.499999999999996));
#410=DIRECTION('',(-4.80742019543651E-16,-0.554700196225223,0.832050294337848));
#411=DIRECTION('',(-0.866025403784443,0.499999999999992,2.83220159343152E-15));
#412=DIRECTION('',(-0.433012701892213,-0.750000000000008,0.499999999999993));
#413=DIRECTION('',(-3.4109000346394E-16,-0.554700196225219,-0.83205029433785));
#414=DIRECTION('',(2.45275852855048E-15,-1.41610079671574E-15,1.));
#415=DIRECTION('',(-1.,0.,2.45289899503121E-15));
#416=DIRECTION('',(0.,0.,1.));
#417=DIRECTION('',(-1.,0.,0.));
#418=DIRECTION('',(0.,0.,1.));
#419=DIRECTION('',(1.,0.,0.));
#420=DIRECTION('',(0.,0.,1.));
#421=DIRECTION('',(-1.,0.,0.));
#422=DIRECTION('',(0.,0.,1.));
#423=DIRECTION('',(1.,0.,0.));
#424=DIRECTION('',(0.,0.,-1.));
#425=DIRECTION('',(1.,0.,3.45562445413707E-17));
#426=DIRECTION('',(0.,0.,-1.));
#427=DIRECTION('',(1.,0.,0.));
#428=DIRECTION('',(0.,0.,1.));
#429=DIRECTION('',(-1.,0.,0.));
#430=DIRECTION('',(0.,0.,1.));
#431=DIRECTION('',(-1.,0.,0.));
#432=CARTESIAN_POINT('',(0.,0.,0.));
#433=CARTESIAN_POINT('',(0.,0.,0.));
#434=CARTESIAN_POINT('',(0.,0.,-1.));
#435=CARTESIAN_POINT('',(4.99999999999999,0.,-1.));
#436=CARTESIAN_POINT('',(0.,0.,0.));
#437=CARTESIAN_POINT('',(5.,0.,0.));
#438=CARTESIAN_POINT('',(0.,0.,40.));
#439=CARTESIAN_POINT('',(0.,0.,-4.));
#440=CARTESIAN_POINT('',(3.26794919243112,0.,-4.));
#441=CARTESIAN_POINT('',(0.,0.,-1.));
#442=CARTESIAN_POINT('',(0.,0.,-5.));
#443=CARTESIAN_POINT('',(2.99999999999999,0.,-5.));
#444=CARTESIAN_POINT('',(0.,0.,-5.));
#445=CARTESIAN_POINT('',(0.,0.,-16.5));
#446=CARTESIAN_POINT('',(-2.98110883712903,0.336140002366771,-16.5));
#447=CARTESIAN_POINT('',(-1.1994486372867,-2.74978598558343,-16.5));
#448=CARTESIAN_POINT('',(-0.838604719043194,-2.88040659025743,-15.875));
#449=CARTESIAN_POINT('',(-0.961592442440116,-2.84459981020982,-16.0880209856307));
#450=CARTESIAN_POINT('',(-1.08203815803717,-2.80100009463678,-16.2966390845988));
#451=CARTESIAN_POINT('',(-1.1994486372867,-2.74978598558343,-16.5));
#452=CARTESIAN_POINT('',(-0.838604719043194,-2.88040659025743,-15.875));
#453=CARTESIAN_POINT('',(0.,0.,-15.875));
#454=CARTESIAN_POINT('',(0.838604719043197,-2.88040659025743,-15.875));
#455=CARTESIAN_POINT('',(1.19944863728671,-2.74978598558343,-16.5));
#456=CARTESIAN_POINT('',(1.08203815803717,-2.80100009463678,-16.2966390845988));
#457=CARTESIAN_POINT('',(0.961592442440121,-2.84459981020982,-16.0880209856307));
#458=CARTESIAN_POINT('',(0.838604719043197,-2.88040659025743,-15.875));
#459=CARTESIAN_POINT('',(1.19944863728671,-2.74978598558343,-16.5));
#460=CARTESIAN_POINT('',(0.,0.,-16.5));
#461=CARTESIAN_POINT('',(2.98110883712903,0.336140002366816,-16.5));
#462=CARTESIAN_POINT('',(2.91380763991264,0.713950304703812,-15.875));
#463=CARTESIAN_POINT('',(2.94429192046215,0.589536421864658,-16.0880209856307));
#464=CARTESIAN_POINT('',(2.96675631697665,0.463427514594096,-16.2966390845988));
#465=CARTESIAN_POINT('',(2.98110883712903,0.336140002366816,-16.5));
#466=CARTESIAN_POINT('',(2.91380763991264,0.713950304703812,-15.875));
#467=CARTESIAN_POINT('',(0.,0.,-15.875));
#468=CARTESIAN_POINT('',(2.07520292086944,2.16645628555365,-15.875));
#469=CARTESIAN_POINT('',(1.78166019984232,2.41364598321664,-16.5));
#470=CARTESIAN_POINT('',(1.88471815893947,2.33757258004271,-16.2966390845988));
#471=CARTESIAN_POINT('',(1.98269947802203,2.25506338834519,-16.0880209856307));
#472=CARTESIAN_POINT('',(2.07520292086944,2.16645628555365,-15.875));
#473=CARTESIAN_POINT('',(1.78166019984232,2.41364598321664,-16.5));
#474=CARTESIAN_POINT('',(0.,0.,-16.5));
#475=CARTESIAN_POINT('',(-1.78166019984235,2.41364598321661,-16.5));
#476=CARTESIAN_POINT('',(-2.07520292086947,2.16645628555361,-15.875));
#477=CARTESIAN_POINT('',(-1.98269947802206,2.25506338834516,-16.0880209856307));
#478=CARTESIAN_POINT('',(-1.8847181589395,2.33757258004268,-16.2966390845988));
#479=CARTESIAN_POINT('',(-1.78166019984235,2.41364598321661,-16.5));
#480=CARTESIAN_POINT('',(-2.07520292086947,2.16645628555361,-15.875));
#481=CARTESIAN_POINT('',(0.,0.,-15.875));
#482=CARTESIAN_POINT('',(-2.91380763991266,0.713950304703768,-15.875));
#483=CARTESIAN_POINT('',(-2.98110883712903,0.336140002366771,-16.5));
#484=CARTESIAN_POINT('',(-2.96675631697665,0.463427514594055,-16.2966390845988));
#485=CARTESIAN_POINT('',(-2.94429192046216,0.589536421864616,-16.0880209856307));
#486=CARTESIAN_POINT('',(-2.91380763991266,0.713950304703768,-15.875));
#487=CARTESIAN_POINT('',(0.,0.,40.));
#488=CARTESIAN_POINT('',(-8.84883283987169,6.49388000934704,-16.5));
#489=CARTESIAN_POINT('',(-1.25536800516989E-14,1.38500398723322,-16.5));
#490=CARTESIAN_POINT('',(-6.1511671601283,-2.1663740284973,-16.5));
#491=CARTESIAN_POINT('',(-10.,4.5,-16.5));
#492=CARTESIAN_POINT('',(1.19944863728669,4.50000000000001,-16.5));
#493=CARTESIAN_POINT('',(1.19944863728671,-0.692501993616605,-16.5));
#494=CARTESIAN_POINT('',(-4.95171852284163,-4.24388000934711,-16.5));
#495=CARTESIAN_POINT('',(-10.,4.5,-16.5));
#496=CARTESIAN_POINT('',(-10.0482814771584,4.41637402849718,-16.5));
#497=CARTESIAN_POINT('',(-1.19944863728671,-0.692501993616616,-16.5));
#498=CARTESIAN_POINT('',(-1.19944863728669,4.49999999999998,-16.5));
#499=CARTESIAN_POINT('',(-10.,4.5,-16.5));
#500=CARTESIAN_POINT('',(-0.84737573636009,-0.489232609492264,-15.8901918476269));
#501=CARTESIAN_POINT('',(-0.838604719043194,-0.484168660283286,-15.875));
#502=CARTESIAN_POINT('',(-0.838604719043194,-0.549999999999993,-15.875));
#503=CARTESIAN_POINT('',(-0.838604719043194,-0.549999999999993,-15.875));
#504=CARTESIAN_POINT('',(0.838604719043197,-0.549999999999993,-15.875));
#505=CARTESIAN_POINT('',(0.8386047190432,-0.484168660283275,-15.875));
#506=CARTESIAN_POINT('',(1.23375630112546,-0.712309532569175,-16.5594226168577));
#507=CARTESIAN_POINT('',(1.25718366420567,-0.549999999999993,-16.6));
#508=CARTESIAN_POINT('',(0.0570116125598315,1.00125299042492,-15.875));
#509=CARTESIAN_POINT('',(-1.25767452008319E-14,0.968337320566555,-15.875));
#510=CARTESIAN_POINT('',(-1.07336015076065E-14,1.42461906513836,-16.5594226168577));
#511=CARTESIAN_POINT('',(-0.152277860021407,1.36375299042491,-16.6));
#512=CARTESIAN_POINT('',(0.895616331603034,-0.451252990424917,-15.875));
#513=CARTESIAN_POINT('',(0.895616331603034,-0.451252990424917,-15.875));
#514=CARTESIAN_POINT('',(-0.0570116125598475,1.00125299042491,-15.875));
#515=CARTESIAN_POINT('',(-0.0570116125598475,1.00125299042491,-15.875));
#516=CARTESIAN_POINT('',(-0.895616331603029,-0.451252990424932,-15.875));
#517=CARTESIAN_POINT('',(-1.10490580418426,-0.813752990424929,-16.6));
#518=CARTESIAN_POINT('',(-0.895616331603029,-0.451252990424932,-15.875));
#519=CARTESIAN_POINT('',(0.,0.,0.));
#520=CARTESIAN_POINT('',(0.,0.,40.));
#521=CARTESIAN_POINT('',(4.,0.,40.));
#522=CARTESIAN_POINT('',(0.,4.,40.));
#523=CARTESIAN_POINT('',(0.,0.,39.));
#524=CARTESIAN_POINT('',(5.,0.,39.));
#525=CARTESIAN_POINT('',(0.,0.,40.));
#526=CARTESIAN_POINT('',(0.,0.,0.));
#527=CARTESIAN_POINT('',(5.,0.,0.));
#528=CARTESIAN_POINT('',(0.,0.,40.));
#529=CARTESIAN_POINT('',(0.,0.,0.));
#530=MECHANICAL_DESIGN_GEOMETRIC_PRESENTATION_REPRESENTATION('',(#305,#306,
#307),#531);
#531=(
GEOMETRIC_REPRESENTATION_CONTEXT(3)
GLOBAL_UNCERTAINTY_ASSIGNED_CONTEXT((#532))
GLOBAL_UNIT_ASSIGNED_CONTEXT((#538,#534,#533))
REPRESENTATION_CONTEXT('335.14-1006','TOP_LEVEL_ASSEMBLY_PART')
);
#532=UNCERTAINTY_MEASURE_WITH_UNIT(LENGTH_MEASURE(2.E-5),#538,
'DISTANCE_ACCURACY_VALUE','Maximum Tolerance applied to model');
#533=(
NAMED_UNIT(*)
SI_UNIT($,.STERADIAN.)
SOLID_ANGLE_UNIT()
);
#534=(
CONVERSION_BASED_UNIT('DEGREE',#536)
NAMED_UNIT(#535)
PLANE_ANGLE_UNIT()
);
#535=DIMENSIONAL_EXPONENTS(0.,0.,0.,0.,0.,0.,0.);
#536=PLANE_ANGLE_MEASURE_WITH_UNIT(PLANE_ANGLE_MEASURE(0.0174532925),#537);
#537=(
NAMED_UNIT(*)
PLANE_ANGLE_UNIT()
SI_UNIT($,.RADIAN.)
);
#538=(
LENGTH_UNIT()
NAMED_UNIT(*)
SI_UNIT(.MILLI.,.METRE.)
);
ENDSEC;
END-ISO-10303-21;
