ISO-10303-21;
HEADER;
/* Generated by software containing ST-Developer
 * from STEP Tools, Inc. (www.steptools.com) 
 */
/* OPTION: using custom schema-name function */

FILE_DESCRIPTION(
/* description */ (''),
/* implementation_level */ '2;1');

FILE_NAME(
/* name */ '335.14-062514.0-335-630-E.stp',
/* time_stamp */ '2018-02-19T13:39:15+05:00',
/* author */ (''),
/* organization */ (''),
/* preprocessor_version */ 'ST-DEVELOPER v16',
/* originating_system */ 'SIEMENS PLM Software NX 11.0',
/* authorisation */ '');

FILE_SCHEMA (('AUTOMOTIVE_DESIGN { 1 0 10303 214 3 1 1 1 }'));
ENDSEC;

DATA;
#10=CONSTRUCTIVE_GEOMETRY_REPRESENTATION_RELATIONSHIP(
'supplemental geometry','',#24,#11);
#11=CONSTRUCTIVE_GEOMETRY_REPRESENTATION('supplemental geometry',(#316),
#531);
#12=SHAPE_REPRESENTATION_RELATIONSHIP('None',
'relationship between 335.14-062514.0-335-630-E-None and 335.14-062514.
0-335-630-E-None',#24,#13);
#13=ADVANCED_BREP_SHAPE_REPRESENTATION('335.14-062514.0-335-630-E-None',
(#35,#36),#531);
#14=SHAPE_DEFINITION_REPRESENTATION(#15,#24);
#15=PRODUCT_DEFINITION_SHAPE('','',#16);
#16=PRODUCT_DEFINITION(' ','',#18,#17);
#17=PRODUCT_DEFINITION_CONTEXT('part definition',#23,'design');
#18=PRODUCT_DEFINITION_FORMATION_WITH_SPECIFIED_SOURCE(' ',' ',#20,
 .NOT_KNOWN.);
#19=PRODUCT_RELATED_PRODUCT_CATEGORY('part','',(#20));
#20=PRODUCT('335.14-062514.0-335-630-E','335.14-062514.0-335-630-E',' ',
(#21));
#21=PRODUCT_CONTEXT(' ',#23,'mechanical');
#22=APPLICATION_PROTOCOL_DEFINITION('international standard',
'automotive_design',2010,#23);
#23=APPLICATION_CONTEXT(
'core data for automotive mechanical design processes');
#24=SHAPE_REPRESENTATION('335.14-062514.0-335-630-E-None',(#315),#531);
#25=SURFACE_STYLE_USAGE(.BOTH.,#27);
#26=SURFACE_STYLE_USAGE(.BOTH.,#28);
#27=SURFACE_SIDE_STYLE('',(#29));
#28=SURFACE_SIDE_STYLE('',(#30));
#29=SURFACE_STYLE_FILL_AREA(#31);
#30=SURFACE_STYLE_FILL_AREA(#32);
#31=FILL_AREA_STYLE('',(#33));
#32=FILL_AREA_STYLE('',(#34));
#33=FILL_AREA_STYLE_COLOUR('',#313);
#34=FILL_AREA_STYLE_COLOUR('',#313);
#35=MANIFOLD_SOLID_BREP('NOCUT',#37);
#36=MANIFOLD_SOLID_BREP('NOCUT',#38);
#37=CLOSED_SHELL('',(#104,#105,#106,#107,#108,#109,#110,#111,#112,#113,
#114,#115,#116,#117,#118));
#38=CLOSED_SHELL('',(#119,#120,#121,#122));
#39=CONICAL_SURFACE('',#340,7.9375,29.9999999999995);
#40=CONICAL_SURFACE('',#345,6.9375,45.);
#41=TOROIDAL_SURFACE('',#339,9.15,2.);
#42=PLANE('',#328);
#43=PLANE('',#329);
#44=PLANE('',#330);
#45=PLANE('',#331);
#46=PLANE('',#332);
#47=PLANE('',#333);
#48=PLANE('',#334);
#49=PLANE('',#335);
#50=PLANE('',#336);
#51=PLANE('',#337);
#52=PLANE('',#341);
#53=PLANE('',#343);
#54=PLANE('',#348);
#55=FACE_OUTER_BOUND('',#142,.T.);
#56=FACE_OUTER_BOUND('',#143,.T.);
#57=FACE_OUTER_BOUND('',#144,.T.);
#58=FACE_OUTER_BOUND('',#145,.T.);
#59=FACE_OUTER_BOUND('',#146,.T.);
#60=FACE_OUTER_BOUND('',#147,.T.);
#61=FACE_OUTER_BOUND('',#148,.T.);
#62=FACE_OUTER_BOUND('',#149,.T.);
#63=FACE_OUTER_BOUND('',#150,.T.);
#64=FACE_OUTER_BOUND('',#151,.T.);
#65=FACE_OUTER_BOUND('',#156,.T.);
#66=FACE_OUTER_BOUND('',#157,.T.);
#67=FACE_OUTER_BOUND('',#162,.T.);
#68=LINE('',#484,#83);
#69=LINE('',#486,#84);
#70=LINE('',#488,#85);
#71=LINE('',#490,#86);
#72=LINE('',#492,#87);
#73=LINE('',#494,#88);
#74=LINE('',#496,#89);
#75=LINE('',#498,#90);
#76=LINE('',#500,#91);
#77=LINE('',#501,#92);
#78=LINE('',#503,#93);
#79=LINE('',#504,#94);
#80=LINE('',#506,#95);
#81=LINE('',#508,#96);
#82=LINE('',#510,#97);
#83=VECTOR('',#375,1.);
#84=VECTOR('',#376,1.);
#85=VECTOR('',#379,1.);
#86=VECTOR('',#380,1.);
#87=VECTOR('',#383,1.);
#88=VECTOR('',#384,1.);
#89=VECTOR('',#387,1.);
#90=VECTOR('',#388,1.);
#91=VECTOR('',#391,1.);
#92=VECTOR('',#392,1.);
#93=VECTOR('',#393,1.);
#94=VECTOR('',#394,1.);
#95=VECTOR('',#395,1.);
#96=VECTOR('',#398,1.);
#97=VECTOR('',#401,1.);
#98=(
BOUNDED_CURVE()
B_SPLINE_CURVE(3,(#442,#443,#444,#445),.UNSPECIFIED.,.F.,.F.)
B_SPLINE_CURVE_WITH_KNOTS((4,4),(0.,1.),.UNSPECIFIED.)
CURVE()
GEOMETRIC_REPRESENTATION_ITEM()
RATIONAL_B_SPLINE_CURVE((1.,0.999550692237549,0.999550692237549,1.))
REPRESENTATION_ITEM('')
);
#99=(
BOUNDED_CURVE()
B_SPLINE_CURVE(3,(#449,#450,#451,#452),.UNSPECIFIED.,.F.,.F.)
B_SPLINE_CURVE_WITH_KNOTS((4,4),(0.,1.),.UNSPECIFIED.)
CURVE()
GEOMETRIC_REPRESENTATION_ITEM()
RATIONAL_B_SPLINE_CURVE((1.,0.999550692237549,0.999550692237549,1.))
REPRESENTATION_ITEM('')
);
#100=(
BOUNDED_CURVE()
B_SPLINE_CURVE(3,(#456,#457,#458,#459),.UNSPECIFIED.,.F.,.F.)
B_SPLINE_CURVE_WITH_KNOTS((4,4),(0.,1.),.UNSPECIFIED.)
CURVE()
GEOMETRIC_REPRESENTATION_ITEM()
RATIONAL_B_SPLINE_CURVE((1.,0.999550692237549,0.999550692237549,1.))
REPRESENTATION_ITEM('')
);
#101=(
BOUNDED_CURVE()
B_SPLINE_CURVE(3,(#463,#464,#465,#466),.UNSPECIFIED.,.F.,.F.)
B_SPLINE_CURVE_WITH_KNOTS((4,4),(0.,1.),.UNSPECIFIED.)
CURVE()
GEOMETRIC_REPRESENTATION_ITEM()
RATIONAL_B_SPLINE_CURVE((1.,0.999550692237549,0.999550692237549,1.))
REPRESENTATION_ITEM('')
);
#102=(
BOUNDED_CURVE()
B_SPLINE_CURVE(3,(#470,#471,#472,#473),.UNSPECIFIED.,.F.,.F.)
B_SPLINE_CURVE_WITH_KNOTS((4,4),(0.,1.),.UNSPECIFIED.)
CURVE()
GEOMETRIC_REPRESENTATION_ITEM()
RATIONAL_B_SPLINE_CURVE((1.,0.999550692237549,0.999550692237549,1.))
REPRESENTATION_ITEM('')
);
#103=(
BOUNDED_CURVE()
B_SPLINE_CURVE(3,(#477,#478,#479,#480),.UNSPECIFIED.,.F.,.F.)
B_SPLINE_CURVE_WITH_KNOTS((4,4),(0.,1.),.UNSPECIFIED.)
CURVE()
GEOMETRIC_REPRESENTATION_ITEM()
RATIONAL_B_SPLINE_CURVE((1.,0.999550692237549,0.999550692237549,1.))
REPRESENTATION_ITEM('')
);
#104=ADVANCED_FACE('',(#126,#127),#123,.T.);
#105=ADVANCED_FACE('',(#128,#129),#124,.T.);
#106=ADVANCED_FACE('',(#55),#42,.F.);
#107=ADVANCED_FACE('',(#56),#43,.F.);
#108=ADVANCED_FACE('',(#57),#44,.F.);
#109=ADVANCED_FACE('',(#58),#45,.F.);
#110=ADVANCED_FACE('',(#59),#46,.F.);
#111=ADVANCED_FACE('',(#60),#47,.F.);
#112=ADVANCED_FACE('',(#61),#48,.F.);
#113=ADVANCED_FACE('',(#62),#49,.F.);
#114=ADVANCED_FACE('',(#63),#50,.F.);
#115=ADVANCED_FACE('',(#64),#51,.F.);
#116=ADVANCED_FACE('',(#130,#131),#41,.F.);
#117=ADVANCED_FACE('',(#132,#133),#39,.T.);
#118=ADVANCED_FACE('',(#65),#52,.T.);
#119=ADVANCED_FACE('',(#66),#53,.F.);
#120=ADVANCED_FACE('',(#134,#135),#40,.T.);
#121=ADVANCED_FACE('',(#136,#137),#125,.T.);
#122=ADVANCED_FACE('',(#67),#54,.F.);
#123=CYLINDRICAL_SURFACE('',#319,7.9375);
#124=CYLINDRICAL_SURFACE('',#327,7.15);
#125=CYLINDRICAL_SURFACE('',#347,7.9375);
#126=FACE_BOUND('',#138,.T.);
#127=FACE_BOUND('',#139,.T.);
#128=FACE_BOUND('',#140,.T.);
#129=FACE_BOUND('',#141,.T.);
#130=FACE_BOUND('',#152,.T.);
#131=FACE_BOUND('',#153,.T.);
#132=FACE_BOUND('',#154,.T.);
#133=FACE_BOUND('',#155,.T.);
#134=FACE_BOUND('',#158,.T.);
#135=FACE_BOUND('',#159,.T.);
#136=FACE_BOUND('',#160,.T.);
#137=FACE_BOUND('',#161,.T.);
#138=EDGE_LOOP('',(#163));
#139=EDGE_LOOP('',(#164));
#140=EDGE_LOOP('',(#165,#166,#167,#168,#169,#170,#171,#172,#173,#174,#175,
#176));
#141=EDGE_LOOP('',(#177));
#142=EDGE_LOOP('',(#178,#179,#180));
#143=EDGE_LOOP('',(#181,#182,#183));
#144=EDGE_LOOP('',(#184,#185,#186));
#145=EDGE_LOOP('',(#187,#188,#189,#190));
#146=EDGE_LOOP('',(#191,#192,#193,#194,#195,#196,#197,#198,#199));
#147=EDGE_LOOP('',(#200,#201,#202,#203));
#148=EDGE_LOOP('',(#204,#205,#206,#207));
#149=EDGE_LOOP('',(#208,#209,#210,#211));
#150=EDGE_LOOP('',(#212,#213,#214,#215));
#151=EDGE_LOOP('',(#216,#217,#218,#219));
#152=EDGE_LOOP('',(#220));
#153=EDGE_LOOP('',(#221));
#154=EDGE_LOOP('',(#222));
#155=EDGE_LOOP('',(#223));
#156=EDGE_LOOP('',(#224));
#157=EDGE_LOOP('',(#225));
#158=EDGE_LOOP('',(#226));
#159=EDGE_LOOP('',(#227));
#160=EDGE_LOOP('',(#228));
#161=EDGE_LOOP('',(#229));
#162=EDGE_LOOP('',(#230));
#163=ORIENTED_EDGE('',*,*,#256,.F.);
#164=ORIENTED_EDGE('',*,*,#257,.T.);
#165=ORIENTED_EDGE('',*,*,#258,.F.);
#166=ORIENTED_EDGE('',*,*,#259,.T.);
#167=ORIENTED_EDGE('',*,*,#260,.T.);
#168=ORIENTED_EDGE('',*,*,#261,.T.);
#169=ORIENTED_EDGE('',*,*,#262,.F.);
#170=ORIENTED_EDGE('',*,*,#263,.T.);
#171=ORIENTED_EDGE('',*,*,#264,.T.);
#172=ORIENTED_EDGE('',*,*,#265,.T.);
#173=ORIENTED_EDGE('',*,*,#266,.F.);
#174=ORIENTED_EDGE('',*,*,#267,.T.);
#175=ORIENTED_EDGE('',*,*,#268,.T.);
#176=ORIENTED_EDGE('',*,*,#269,.T.);
#177=ORIENTED_EDGE('',*,*,#270,.T.);
#178=ORIENTED_EDGE('',*,*,#271,.T.);
#179=ORIENTED_EDGE('',*,*,#272,.T.);
#180=ORIENTED_EDGE('',*,*,#258,.T.);
#181=ORIENTED_EDGE('',*,*,#262,.T.);
#182=ORIENTED_EDGE('',*,*,#273,.T.);
#183=ORIENTED_EDGE('',*,*,#274,.T.);
#184=ORIENTED_EDGE('',*,*,#266,.T.);
#185=ORIENTED_EDGE('',*,*,#275,.T.);
#186=ORIENTED_EDGE('',*,*,#276,.T.);
#187=ORIENTED_EDGE('',*,*,#276,.F.);
#188=ORIENTED_EDGE('',*,*,#277,.F.);
#189=ORIENTED_EDGE('',*,*,#278,.T.);
#190=ORIENTED_EDGE('',*,*,#267,.F.);
#191=ORIENTED_EDGE('',*,*,#268,.F.);
#192=ORIENTED_EDGE('',*,*,#278,.F.);
#193=ORIENTED_EDGE('',*,*,#279,.T.);
#194=ORIENTED_EDGE('',*,*,#264,.F.);
#195=ORIENTED_EDGE('',*,*,#280,.F.);
#196=ORIENTED_EDGE('',*,*,#281,.T.);
#197=ORIENTED_EDGE('',*,*,#260,.F.);
#198=ORIENTED_EDGE('',*,*,#282,.F.);
#199=ORIENTED_EDGE('',*,*,#283,.T.);
#200=ORIENTED_EDGE('',*,*,#283,.F.);
#201=ORIENTED_EDGE('',*,*,#284,.T.);
#202=ORIENTED_EDGE('',*,*,#271,.F.);
#203=ORIENTED_EDGE('',*,*,#269,.F.);
#204=ORIENTED_EDGE('',*,*,#274,.F.);
#205=ORIENTED_EDGE('',*,*,#285,.F.);
#206=ORIENTED_EDGE('',*,*,#280,.T.);
#207=ORIENTED_EDGE('',*,*,#263,.F.);
#208=ORIENTED_EDGE('',*,*,#279,.F.);
#209=ORIENTED_EDGE('',*,*,#277,.T.);
#210=ORIENTED_EDGE('',*,*,#275,.F.);
#211=ORIENTED_EDGE('',*,*,#265,.F.);
#212=ORIENTED_EDGE('',*,*,#284,.F.);
#213=ORIENTED_EDGE('',*,*,#282,.T.);
#214=ORIENTED_EDGE('',*,*,#259,.F.);
#215=ORIENTED_EDGE('',*,*,#272,.F.);
#216=ORIENTED_EDGE('',*,*,#281,.F.);
#217=ORIENTED_EDGE('',*,*,#285,.T.);
#218=ORIENTED_EDGE('',*,*,#273,.F.);
#219=ORIENTED_EDGE('',*,*,#261,.F.);
#220=ORIENTED_EDGE('',*,*,#286,.T.);
#221=ORIENTED_EDGE('',*,*,#270,.F.);
#222=ORIENTED_EDGE('',*,*,#256,.T.);
#223=ORIENTED_EDGE('',*,*,#286,.F.);
#224=ORIENTED_EDGE('',*,*,#257,.F.);
#225=ORIENTED_EDGE('',*,*,#287,.F.);
#226=ORIENTED_EDGE('',*,*,#288,.F.);
#227=ORIENTED_EDGE('',*,*,#287,.T.);
#228=ORIENTED_EDGE('',*,*,#289,.T.);
#229=ORIENTED_EDGE('',*,*,#288,.T.);
#230=ORIENTED_EDGE('',*,*,#289,.F.);
#231=VERTEX_POINT('',#435);
#232=VERTEX_POINT('',#437);
#233=VERTEX_POINT('',#440);
#234=VERTEX_POINT('',#441);
#235=VERTEX_POINT('',#446);
#236=VERTEX_POINT('',#448);
#237=VERTEX_POINT('',#453);
#238=VERTEX_POINT('',#455);
#239=VERTEX_POINT('',#460);
#240=VERTEX_POINT('',#462);
#241=VERTEX_POINT('',#467);
#242=VERTEX_POINT('',#469);
#243=VERTEX_POINT('',#474);
#244=VERTEX_POINT('',#476);
#245=VERTEX_POINT('',#482);
#246=VERTEX_POINT('',#485);
#247=VERTEX_POINT('',#489);
#248=VERTEX_POINT('',#493);
#249=VERTEX_POINT('',#497);
#250=VERTEX_POINT('',#502);
#251=VERTEX_POINT('',#505);
#252=VERTEX_POINT('',#516);
#253=VERTEX_POINT('',#521);
#254=VERTEX_POINT('',#524);
#255=VERTEX_POINT('',#527);
#256=EDGE_CURVE('',#231,#231,#290,.T.);
#257=EDGE_CURVE('',#232,#232,#291,.T.);
#258=EDGE_CURVE('',#233,#234,#292,.T.);
#259=EDGE_CURVE('',#233,#235,#98,.T.);
#260=EDGE_CURVE('',#235,#236,#293,.T.);
#261=EDGE_CURVE('',#236,#237,#99,.T.);
#262=EDGE_CURVE('',#238,#237,#294,.T.);
#263=EDGE_CURVE('',#238,#239,#100,.T.);
#264=EDGE_CURVE('',#239,#240,#295,.T.);
#265=EDGE_CURVE('',#240,#241,#101,.T.);
#266=EDGE_CURVE('',#242,#241,#296,.T.);
#267=EDGE_CURVE('',#242,#243,#102,.T.);
#268=EDGE_CURVE('',#243,#244,#297,.T.);
#269=EDGE_CURVE('',#244,#234,#103,.T.);
#270=EDGE_CURVE('',#245,#245,#298,.T.);
#271=EDGE_CURVE('',#234,#246,#68,.T.);
#272=EDGE_CURVE('',#246,#233,#69,.T.);
#273=EDGE_CURVE('',#237,#247,#70,.T.);
#274=EDGE_CURVE('',#247,#238,#71,.T.);
#275=EDGE_CURVE('',#241,#248,#72,.T.);
#276=EDGE_CURVE('',#248,#242,#73,.T.);
#277=EDGE_CURVE('',#249,#248,#74,.T.);
#278=EDGE_CURVE('',#249,#243,#75,.T.);
#279=EDGE_CURVE('',#249,#240,#76,.T.);
#280=EDGE_CURVE('',#250,#239,#77,.T.);
#281=EDGE_CURVE('',#250,#236,#78,.T.);
#282=EDGE_CURVE('',#251,#235,#79,.T.);
#283=EDGE_CURVE('',#251,#244,#80,.T.);
#284=EDGE_CURVE('',#251,#246,#81,.T.);
#285=EDGE_CURVE('',#250,#247,#82,.T.);
#286=EDGE_CURVE('',#252,#252,#299,.T.);
#287=EDGE_CURVE('',#253,#253,#300,.T.);
#288=EDGE_CURVE('',#254,#254,#301,.T.);
#289=EDGE_CURVE('',#255,#255,#302,.T.);
#290=CIRCLE('',#317,7.9375);
#291=CIRCLE('',#318,7.9375);
#292=CIRCLE('',#320,7.15);
#293=CIRCLE('',#321,7.15);
#294=CIRCLE('',#322,7.15);
#295=CIRCLE('',#323,7.15);
#296=CIRCLE('',#324,7.15);
#297=CIRCLE('',#325,7.15);
#298=CIRCLE('',#326,7.15);
#299=CIRCLE('',#338,7.41794919243111);
#300=CIRCLE('',#342,6.9375);
#301=CIRCLE('',#344,7.9375);
#302=CIRCLE('',#346,7.9375);
#303=PRESENTATION_LAYER_ASSIGNMENT('1','Layer 1',(#316,#36));
#304=PRESENTATION_LAYER_ASSIGNMENT('2','Layer 2',(#35));
#305=STYLED_ITEM('',(#308),#316);
#306=STYLED_ITEM('',(#309),#35);
#307=STYLED_ITEM('',(#310),#36);
#308=PRESENTATION_STYLE_ASSIGNMENT((#311));
#309=PRESENTATION_STYLE_ASSIGNMENT((#25));
#310=PRESENTATION_STYLE_ASSIGNMENT((#26));
#311=CURVE_STYLE('',#314,POSITIVE_LENGTH_MEASURE(0.13),#312);
#312=COLOUR_RGB('Strong Stone',0.576470588235294,0.54508278019379,0.392156862745098);
#313=COLOUR_RGB('Medium Gray',0.490196078431373,0.490196078431373,0.490196078431373);
#314=DRAUGHTING_PRE_DEFINED_CURVE_FONT('continuous');
#315=AXIS2_PLACEMENT_3D('',#432,#349,#350);
#316=AXIS2_PLACEMENT_3D('',#433,#351,#352);
#317=AXIS2_PLACEMENT_3D('',#434,#353,#354);
#318=AXIS2_PLACEMENT_3D('',#436,#355,#356);
#319=AXIS2_PLACEMENT_3D('',#438,#357,#358);
#320=AXIS2_PLACEMENT_3D('',#439,#359,#360);
#321=AXIS2_PLACEMENT_3D('',#447,#361,#362);
#322=AXIS2_PLACEMENT_3D('',#454,#363,#364);
#323=AXIS2_PLACEMENT_3D('',#461,#365,#366);
#324=AXIS2_PLACEMENT_3D('',#468,#367,#368);
#325=AXIS2_PLACEMENT_3D('',#475,#369,#370);
#326=AXIS2_PLACEMENT_3D('',#481,#371,#372);
#327=AXIS2_PLACEMENT_3D('',#483,#373,#374);
#328=AXIS2_PLACEMENT_3D('',#487,#377,#378);
#329=AXIS2_PLACEMENT_3D('',#491,#381,#382);
#330=AXIS2_PLACEMENT_3D('',#495,#385,#386);
#331=AXIS2_PLACEMENT_3D('',#499,#389,#390);
#332=AXIS2_PLACEMENT_3D('',#507,#396,#397);
#333=AXIS2_PLACEMENT_3D('',#509,#399,#400);
#334=AXIS2_PLACEMENT_3D('',#511,#402,#403);
#335=AXIS2_PLACEMENT_3D('',#512,#404,#405);
#336=AXIS2_PLACEMENT_3D('',#513,#406,#407);
#337=AXIS2_PLACEMENT_3D('',#514,#408,#409);
#338=AXIS2_PLACEMENT_3D('',#515,#410,#411);
#339=AXIS2_PLACEMENT_3D('',#517,#412,#413);
#340=AXIS2_PLACEMENT_3D('',#518,#414,#415);
#341=AXIS2_PLACEMENT_3D('',#519,#416,#417);
#342=AXIS2_PLACEMENT_3D('',#520,#418,#419);
#343=AXIS2_PLACEMENT_3D('',#522,#420,#421);
#344=AXIS2_PLACEMENT_3D('',#523,#422,#423);
#345=AXIS2_PLACEMENT_3D('',#525,#424,#425);
#346=AXIS2_PLACEMENT_3D('',#526,#426,#427);
#347=AXIS2_PLACEMENT_3D('',#528,#428,#429);
#348=AXIS2_PLACEMENT_3D('',#529,#430,#431);
#349=DIRECTION('',(0.,0.,1.));
#350=DIRECTION('',(1.,0.,0.));
#351=DIRECTION('',(0.,0.,1.));
#352=DIRECTION('',(1.,0.,0.));
#353=DIRECTION('',(0.,0.,-1.));
#354=DIRECTION('',(1.,0.,0.));
#355=DIRECTION('',(0.,0.,-1.));
#356=DIRECTION('',(1.,0.,0.));
#357=DIRECTION('',(0.,0.,-1.));
#358=DIRECTION('',(-1.,0.,0.));
#359=DIRECTION('',(0.,0.,-1.));
#360=DIRECTION('',(1.,0.,0.));
#361=DIRECTION('',(0.,0.,1.));
#362=DIRECTION('',(-1.,0.,0.));
#363=DIRECTION('',(0.,0.,-1.));
#364=DIRECTION('',(1.,0.,0.));
#365=DIRECTION('',(0.,0.,1.));
#366=DIRECTION('',(-1.,0.,0.));
#367=DIRECTION('',(0.,0.,-1.));
#368=DIRECTION('',(1.,0.,0.));
#369=DIRECTION('',(0.,0.,1.));
#370=DIRECTION('',(-1.,0.,0.));
#371=DIRECTION('',(0.,0.,-1.));
#372=DIRECTION('',(1.,0.,0.));
#373=DIRECTION('',(0.,0.,-1.));
#374=DIRECTION('',(-1.,0.,0.));
#375=DIRECTION('',(0.,1.,0.));
#376=DIRECTION('',(0.866025403784443,0.499999999999992,0.));
#377=DIRECTION('',(0.,0.,1.));
#378=DIRECTION('',(1.,0.,0.));
#379=DIRECTION('',(-0.866025403784443,-0.499999999999992,0.));
#380=DIRECTION('',(-0.866025403784436,0.500000000000004,0.));
#381=DIRECTION('',(0.,0.,1.));
#382=DIRECTION('',(1.,0.,0.));
#383=DIRECTION('',(0.866025403784436,-0.500000000000004,0.));
#384=DIRECTION('',(0.,-1.,0.));
#385=DIRECTION('',(0.,0.,1.));
#386=DIRECTION('',(1.,0.,0.));
#387=DIRECTION('',(-0.480384461415254,-0.277350098112614,-0.832050294337848));
#388=DIRECTION('',(0.,-1.,0.));
#389=DIRECTION('',(-0.866025403784443,0.,0.499999999999992));
#390=DIRECTION('',(0.499999999999992,0.,0.866025403784443));
#391=DIRECTION('',(-0.866025403784436,0.500000000000004,0.));
#392=DIRECTION('',(-0.866025403784436,0.500000000000004,0.));
#393=DIRECTION('',(0.866025403784443,0.499999999999992,0.));
#394=DIRECTION('',(0.866025403784443,0.499999999999992,0.));
#395=DIRECTION('',(0.,-1.,0.));
#396=DIRECTION('',(0.,0.,1.));
#397=DIRECTION('',(1.,0.,0.));
#398=DIRECTION('',(0.480384461415258,-0.27735009811261,-0.832050294337847));
#399=DIRECTION('',(0.866025403784441,0.,0.499999999999996));
#400=DIRECTION('',(0.499999999999996,0.,-0.866025403784441));
#401=DIRECTION('',(-1.24920928888424E-15,0.554700196225222,-0.832050294337848));
#402=DIRECTION('',(0.433012701892225,0.750000000000002,0.499999999999992));
#403=DIRECTION('',(-2.1618991319361E-16,0.554700196225222,-0.832050294337848));
#404=DIRECTION('',(-0.433012701892224,-0.75,0.499999999999996));
#405=DIRECTION('',(1.20129600711394E-16,0.554700196225226,0.832050294337846));
#406=DIRECTION('',(0.433012701892215,-0.750000000000008,0.499999999999992));
#407=DIRECTION('',(-1.3986208025063E-16,0.554700196225219,0.832050294337851));
#408=DIRECTION('',(-0.433012701892214,0.750000000000006,0.499999999999996));
#409=DIRECTION('',(-9.17235037922737E-17,0.554700196225223,-0.832050294337848));
#410=DIRECTION('',(0.,0.,-1.));
#411=DIRECTION('',(1.,0.,0.));
#412=DIRECTION('',(0.,0.,-1.));
#413=DIRECTION('',(-1.,0.,0.));
#414=DIRECTION('',(0.,0.,1.));
#415=DIRECTION('',(1.,0.,-9.48442016960618E-17));
#416=DIRECTION('',(0.,0.,1.));
#417=DIRECTION('',(-1.,0.,0.));
#418=DIRECTION('',(0.,0.,-1.));
#419=DIRECTION('',(1.,0.,0.));
#420=DIRECTION('',(0.,0.,-1.));
#421=DIRECTION('',(-1.,0.,0.));
#422=DIRECTION('',(0.,0.,-1.));
#423=DIRECTION('',(1.,0.,0.));
#424=DIRECTION('',(0.,0.,-1.));
#425=DIRECTION('',(-1.,0.,4.13465219275709E-17));
#426=DIRECTION('',(0.,0.,1.));
#427=DIRECTION('',(1.,0.,0.));
#428=DIRECTION('',(0.,0.,-1.));
#429=DIRECTION('',(-1.,0.,0.));
#430=DIRECTION('',(0.,0.,1.));
#431=DIRECTION('',(-1.,0.,0.));
#432=CARTESIAN_POINT('',(0.,0.,0.));
#433=CARTESIAN_POINT('',(0.,0.,0.));
#434=CARTESIAN_POINT('',(0.,0.,-25.1001116041773));
#435=CARTESIAN_POINT('',(7.9375,0.,-25.1001116041773));
#436=CARTESIAN_POINT('',(0.,0.,0.));
#437=CARTESIAN_POINT('',(7.9375,0.,0.));
#438=CARTESIAN_POINT('',(0.,0.,-952.));
#439=CARTESIAN_POINT('',(0.,0.,-105.5));
#440=CARTESIAN_POINT('',(6.72975863955116,2.41512911733235,-105.5));
#441=CARTESIAN_POINT('',(1.27331615074621,-7.0357065018553,-105.5));
#442=CARTESIAN_POINT('',(6.72975863955116,2.41512911733235,-105.5));
#443=CARTESIAN_POINT('',(6.67062921233634,2.5798932994189,-105.201646140791));
#444=CARTESIAN_POINT('',(6.60549149089647,2.74237592035733,-104.901511287872));
#445=CARTESIAN_POINT('',(6.53443327588318,2.9023579660391,-104.6));
#446=CARTESIAN_POINT('',(6.53443327588318,2.9023579660391,-104.6));
#447=CARTESIAN_POINT('',(0.,0.,-104.6));
#448=CARTESIAN_POINT('',(5.78073236740766,4.20780623322954,-104.6));
#449=CARTESIAN_POINT('',(5.78073236740766,4.20780623322954,-104.6));
#450=CARTESIAN_POINT('',(5.67771295920449,4.34933547541953,-104.901511287872));
#451=CARTESIAN_POINT('',(5.56956774251827,4.4869877074003,-105.201646140791));
#452=CARTESIAN_POINT('',(5.45644248880497,4.62057738452283,-105.5));
#453=CARTESIAN_POINT('',(5.45644248880497,4.62057738452283,-105.5));
#454=CARTESIAN_POINT('',(0.,0.,-105.5));
#455=CARTESIAN_POINT('',(-5.45644248880491,4.6205773845229,-105.5));
#456=CARTESIAN_POINT('',(-5.45644248880491,4.6205773845229,-105.5));
#457=CARTESIAN_POINT('',(-5.56956774251818,4.48698770740041,-105.201646140791));
#458=CARTESIAN_POINT('',(-5.6777129592044,4.34933547541964,-104.901511287872));
#459=CARTESIAN_POINT('',(-5.7807323674076,4.20780623322963,-104.6));
#460=CARTESIAN_POINT('',(-5.7807323674076,4.20780623322963,-104.6));
#461=CARTESIAN_POINT('',(0.,0.,-104.6));
#462=CARTESIAN_POINT('',(-6.53443327588314,2.90235796603919,-104.6));
#463=CARTESIAN_POINT('',(-6.53443327588314,2.90235796603919,-104.6));
#464=CARTESIAN_POINT('',(-6.60549149089644,2.74237592035741,-104.901511287872));
#465=CARTESIAN_POINT('',(-6.6706292123363,2.57989329941898,-105.201646140791));
#466=CARTESIAN_POINT('',(-6.72975863955112,2.41512911733245,-105.5));
#467=CARTESIAN_POINT('',(-6.72975863955112,2.41512911733245,-105.5));
#468=CARTESIAN_POINT('',(0.,0.,-105.5));
#469=CARTESIAN_POINT('',(-1.27331615074621,-7.03570650185529,-105.5));
#470=CARTESIAN_POINT('',(-1.27331615074621,-7.03570650185529,-105.5));
#471=CARTESIAN_POINT('',(-1.10106146981808,-7.06688100681931,-105.201646140791));
#472=CARTESIAN_POINT('',(-0.927778531691995,-7.09171139577696,-104.901511287872));
#473=CARTESIAN_POINT('',(-0.753700908475532,-7.11016419926876,-104.6));
#474=CARTESIAN_POINT('',(-0.753700908475532,-7.11016419926876,-104.6));
#475=CARTESIAN_POINT('',(0.,0.,-104.6));
#476=CARTESIAN_POINT('',(0.753700908475526,-7.11016419926875,-104.6));
#477=CARTESIAN_POINT('',(0.753700908475526,-7.11016419926875,-104.6));
#478=CARTESIAN_POINT('',(0.927778531692044,-7.09171139577696,-104.901511287872));
#479=CARTESIAN_POINT('',(1.10106146981813,-7.0668810068193,-105.201646140791));
#480=CARTESIAN_POINT('',(1.27331615074621,-7.0357065018553,-105.5));
#481=CARTESIAN_POINT('',(0.,0.,-27.));
#482=CARTESIAN_POINT('',(7.15,0.,-27.));
#483=CARTESIAN_POINT('',(0.,0.,-952.));
#484=CARTESIAN_POINT('',(1.27331615074621,1.65327317884891E-15,-105.5));
#485=CARTESIAN_POINT('',(1.27331615074618,-0.735149422396827,-105.5));
#486=CARTESIAN_POINT('',(0.636658075373094,-1.10272413359524,-105.5));
#487=CARTESIAN_POINT('',(0.,1.65327317884891E-15,-105.5));
#488=CARTESIAN_POINT('',(-0.636658075373092,1.10272413359524,-105.5));
#489=CARTESIAN_POINT('',(2.86229373536173E-14,1.47029884479362,-105.5));
#490=CARTESIAN_POINT('',(0.636658075373108,1.10272413359523,-105.5));
#491=CARTESIAN_POINT('',(0.,1.65327317884891E-15,-105.5));
#492=CARTESIAN_POINT('',(-0.636658075373109,-1.10272413359523,-105.5));
#493=CARTESIAN_POINT('',(-1.27331615074619,-0.735149422396788,-105.5));
#494=CARTESIAN_POINT('',(-1.27331615074621,1.65327317884891E-15,-105.5));
#495=CARTESIAN_POINT('',(0.,1.65327317884891E-15,-105.5));
#496=CARTESIAN_POINT('',(-0.915561133399619,-0.528599466827802,-104.880350133293));
#497=CARTESIAN_POINT('',(-0.753700908475532,-0.435149422396785,-104.6));
#498=CARTESIAN_POINT('',(-0.753700908475532,-1.65,-104.6));
#499=CARTESIAN_POINT('',(-0.753700908475532,-1.65,-104.6));
#500=CARTESIAN_POINT('',(-1.80579237048209,0.172275866404794,-104.6));
#501=CARTESIAN_POINT('',(-1.05209146200655,1.47772413359523,-104.6));
#502=CARTESIAN_POINT('',(2.99239799605999E-14,0.870298844793618,-104.6));
#503=CARTESIAN_POINT('',(1.05209146200658,1.47772413359521,-104.6));
#504=CARTESIAN_POINT('',(1.80579237048209,0.172275866404763,-104.6));
#505=CARTESIAN_POINT('',(0.753700908475512,-0.435149422396829,-104.6));
#506=CARTESIAN_POINT('',(0.753700908475526,-1.65,-104.6));
#507=CARTESIAN_POINT('',(0.753700908475526,-1.65,-104.6));
#508=CARTESIAN_POINT('',(0.915561133399601,-0.528599466827845,-104.880350133293));
#509=CARTESIAN_POINT('',(1.30218366420567,-1.65,-105.55));
#510=CARTESIAN_POINT('',(2.97071395261028E-14,1.05719893365565,-104.880350133293));
#511=CARTESIAN_POINT('',(-1.05209146200655,1.47772413359523,-104.6));
#512=CARTESIAN_POINT('',(-2.08003374834716,-0.302724133595203,-105.55));
#513=CARTESIAN_POINT('',(1.80579237048209,0.172275866404763,-104.6));
#514=CARTESIAN_POINT('',(0.777850084141508,1.95272413359521,-105.55));
#515=CARTESIAN_POINT('',(0.,0.,-26.0000000000001));
#516=CARTESIAN_POINT('',(7.41794919243111,0.,-26.0000000000001));
#517=CARTESIAN_POINT('',(0.,0.,-27.));
#518=CARTESIAN_POINT('',(0.,0.,-25.1001116041773));
#519=CARTESIAN_POINT('',(0.,0.,0.));
#520=CARTESIAN_POINT('',(0.,0.,48.));
#521=CARTESIAN_POINT('',(6.9375,0.,48.));
#522=CARTESIAN_POINT('',(0.,-6.9375,48.));
#523=CARTESIAN_POINT('',(0.,0.,47.));
#524=CARTESIAN_POINT('',(7.9375,0.,47.));
#525=CARTESIAN_POINT('',(0.,0.,48.));
#526=CARTESIAN_POINT('',(0.,0.,0.));
#527=CARTESIAN_POINT('',(7.9375,0.,0.));
#528=CARTESIAN_POINT('',(0.,0.,-952.));
#529=CARTESIAN_POINT('',(0.,0.,0.));
#530=MECHANICAL_DESIGN_GEOMETRIC_PRESENTATION_REPRESENTATION('',(#305,#306,
#307),#531);
#531=(
GEOMETRIC_REPRESENTATION_CONTEXT(3)
GLOBAL_UNCERTAINTY_ASSIGNED_CONTEXT((#532))
GLOBAL_UNIT_ASSIGNED_CONTEXT((#538,#534,#533))
REPRESENTATION_CONTEXT('335.14-062514','TOP_LEVEL_ASSEMBLY_PART')
);
#532=UNCERTAINTY_MEASURE_WITH_UNIT(LENGTH_MEASURE(2.E-5),#538,
'DISTANCE_ACCURACY_VALUE','Maximum Tolerance applied to model');
#533=(
NAMED_UNIT(*)
SI_UNIT($,.STERADIAN.)
SOLID_ANGLE_UNIT()
);
#534=(
CONVERSION_BASED_UNIT('DEGREE',#536)
NAMED_UNIT(#535)
PLANE_ANGLE_UNIT()
);
#535=DIMENSIONAL_EXPONENTS(0.,0.,0.,0.,0.,0.,0.);
#536=PLANE_ANGLE_MEASURE_WITH_UNIT(PLANE_ANGLE_MEASURE(0.0174532925),#537);
#537=(
NAMED_UNIT(*)
PLANE_ANGLE_UNIT()
SI_UNIT($,.RADIAN.)
);
#538=(
LENGTH_UNIT()
NAMED_UNIT(*)
SI_UNIT(.MILLI.,.METRE.)
);
ENDSEC;
END-ISO-10303-21;
