ISO-10303-21;
HEADER;
/* Generated by software containing ST-Developer
 * from STEP Tools, Inc. (www.steptools.com) 
 */
/* OPTION: using custom schema-name function */

FILE_DESCRIPTION(
/* description */ (''),
/* implementation_level */ '2;1');

FILE_NAME(
/* name */ '335.14-062512.0-236-512-E.stp',
/* time_stamp */ '2018-02-19T13:39:15+05:00',
/* author */ (''),
/* organization */ (''),
/* preprocessor_version */ 'ST-DEVELOPER v16',
/* originating_system */ 'SIEMENS PLM Software NX 11.0',
/* authorisation */ '');

FILE_SCHEMA (('AUTOMOTIVE_DESIGN { 1 0 10303 214 3 1 1 1 }'));
ENDSEC;

DATA;
#10=CONSTRUCTIVE_GEOMETRY_REPRESENTATION_RELATIONSHIP(
'supplemental geometry','',#24,#11);
#11=CONSTRUCTIVE_GEOMETRY_REPRESENTATION('supplemental geometry',(#316),
#531);
#12=SHAPE_REPRESENTATION_RELATIONSHIP('None',
'relationship between 335.14-062512.0-236-512-E-None and 335.14-062512.
0-236-512-E-None',#24,#13);
#13=ADVANCED_BREP_SHAPE_REPRESENTATION('335.14-062512.0-236-512-E-None',
(#35,#36),#531);
#14=SHAPE_DEFINITION_REPRESENTATION(#15,#24);
#15=PRODUCT_DEFINITION_SHAPE('','',#16);
#16=PRODUCT_DEFINITION(' ','',#18,#17);
#17=PRODUCT_DEFINITION_CONTEXT('part definition',#23,'design');
#18=PRODUCT_DEFINITION_FORMATION_WITH_SPECIFIED_SOURCE(' ',' ',#20,
 .NOT_KNOWN.);
#19=PRODUCT_RELATED_PRODUCT_CATEGORY('part','',(#20));
#20=PRODUCT('335.14-062512.0-236-512-E','335.14-062512.0-236-512-E',' ',
(#21));
#21=PRODUCT_CONTEXT(' ',#23,'mechanical');
#22=APPLICATION_PROTOCOL_DEFINITION('international standard',
'automotive_design',2010,#23);
#23=APPLICATION_CONTEXT(
'core data for automotive mechanical design processes');
#24=SHAPE_REPRESENTATION('335.14-062512.0-236-512-E-None',(#315),#531);
#25=SURFACE_STYLE_USAGE(.BOTH.,#27);
#26=SURFACE_STYLE_USAGE(.BOTH.,#28);
#27=SURFACE_SIDE_STYLE('',(#29));
#28=SURFACE_SIDE_STYLE('',(#30));
#29=SURFACE_STYLE_FILL_AREA(#31);
#30=SURFACE_STYLE_FILL_AREA(#32);
#31=FILL_AREA_STYLE('',(#33));
#32=FILL_AREA_STYLE('',(#34));
#33=FILL_AREA_STYLE_COLOUR('',#313);
#34=FILL_AREA_STYLE_COLOUR('',#313);
#35=MANIFOLD_SOLID_BREP('NOCUT',#37);
#36=MANIFOLD_SOLID_BREP('NOCUT',#38);
#37=CLOSED_SHELL('',(#104,#105,#106,#107,#108,#109,#110,#111,#112,#113,
#114,#115,#116,#117,#118));
#38=CLOSED_SHELL('',(#119,#120,#121,#122));
#39=PLANE('',#331);
#40=PLANE('',#332);
#41=PLANE('',#333);
#42=PLANE('',#334);
#43=PLANE('',#335);
#44=PLANE('',#336);
#45=PLANE('',#337);
#46=PLANE('',#338);
#47=PLANE('',#339);
#48=PLANE('',#340);
#49=PLANE('',#341);
#50=PLANE('',#343);
#51=PLANE('',#348);
#52=FACE_OUTER_BOUND('',#146,.T.);
#53=FACE_OUTER_BOUND('',#147,.T.);
#54=FACE_OUTER_BOUND('',#148,.T.);
#55=FACE_OUTER_BOUND('',#149,.T.);
#56=FACE_OUTER_BOUND('',#150,.T.);
#57=FACE_OUTER_BOUND('',#151,.T.);
#58=FACE_OUTER_BOUND('',#152,.T.);
#59=FACE_OUTER_BOUND('',#153,.T.);
#60=FACE_OUTER_BOUND('',#154,.T.);
#61=FACE_OUTER_BOUND('',#155,.T.);
#62=FACE_OUTER_BOUND('',#156,.T.);
#63=FACE_OUTER_BOUND('',#157,.T.);
#64=FACE_OUTER_BOUND('',#162,.T.);
#65=LINE('',#488,#80);
#66=LINE('',#490,#81);
#67=LINE('',#492,#82);
#68=LINE('',#494,#83);
#69=LINE('',#496,#84);
#70=LINE('',#498,#85);
#71=LINE('',#500,#86);
#72=LINE('',#502,#87);
#73=LINE('',#504,#88);
#74=LINE('',#505,#89);
#75=LINE('',#507,#90);
#76=LINE('',#508,#91);
#77=LINE('',#510,#92);
#78=LINE('',#512,#93);
#79=LINE('',#514,#94);
#80=VECTOR('',#381,1.);
#81=VECTOR('',#382,1.);
#82=VECTOR('',#385,1.);
#83=VECTOR('',#386,1.);
#84=VECTOR('',#389,1.);
#85=VECTOR('',#390,1.);
#86=VECTOR('',#393,1.);
#87=VECTOR('',#394,1.);
#88=VECTOR('',#397,1.);
#89=VECTOR('',#398,1.);
#90=VECTOR('',#399,1.);
#91=VECTOR('',#400,1.);
#92=VECTOR('',#401,1.);
#93=VECTOR('',#404,1.);
#94=VECTOR('',#407,1.);
#95=(
BOUNDED_CURVE()
B_SPLINE_CURVE(3,(#448,#449,#450,#451),.UNSPECIFIED.,.F.,.F.)
B_SPLINE_CURVE_WITH_KNOTS((4,4),(0.,1.),.UNSPECIFIED.)
CURVE()
GEOMETRIC_REPRESENTATION_ITEM()
RATIONAL_B_SPLINE_CURVE((1.,0.999356295572808,0.999356295572808,1.))
REPRESENTATION_ITEM('')
);
#96=(
BOUNDED_CURVE()
B_SPLINE_CURVE(3,(#455,#456,#457,#458),.UNSPECIFIED.,.F.,.F.)
B_SPLINE_CURVE_WITH_KNOTS((4,4),(0.,1.),.UNSPECIFIED.)
CURVE()
GEOMETRIC_REPRESENTATION_ITEM()
RATIONAL_B_SPLINE_CURVE((1.,0.999356295572808,0.999356295572808,1.))
REPRESENTATION_ITEM('')
);
#97=(
BOUNDED_CURVE()
B_SPLINE_CURVE(3,(#462,#463,#464,#465),.UNSPECIFIED.,.F.,.F.)
B_SPLINE_CURVE_WITH_KNOTS((4,4),(0.,1.),.UNSPECIFIED.)
CURVE()
GEOMETRIC_REPRESENTATION_ITEM()
RATIONAL_B_SPLINE_CURVE((1.,0.999356295572808,0.999356295572808,1.))
REPRESENTATION_ITEM('')
);
#98=(
BOUNDED_CURVE()
B_SPLINE_CURVE(3,(#469,#470,#471,#472),.UNSPECIFIED.,.F.,.F.)
B_SPLINE_CURVE_WITH_KNOTS((4,4),(0.,1.),.UNSPECIFIED.)
CURVE()
GEOMETRIC_REPRESENTATION_ITEM()
RATIONAL_B_SPLINE_CURVE((1.,0.999356295572808,0.999356295572808,1.))
REPRESENTATION_ITEM('')
);
#99=(
BOUNDED_CURVE()
B_SPLINE_CURVE(3,(#476,#477,#478,#479),.UNSPECIFIED.,.F.,.F.)
B_SPLINE_CURVE_WITH_KNOTS((4,4),(0.,1.),.UNSPECIFIED.)
CURVE()
GEOMETRIC_REPRESENTATION_ITEM()
RATIONAL_B_SPLINE_CURVE((1.,0.999356295572808,0.999356295572808,1.))
REPRESENTATION_ITEM('')
);
#100=(
BOUNDED_CURVE()
B_SPLINE_CURVE(3,(#483,#484,#485,#486),.UNSPECIFIED.,.F.,.F.)
B_SPLINE_CURVE_WITH_KNOTS((4,4),(0.,1.),.UNSPECIFIED.)
CURVE()
GEOMETRIC_REPRESENTATION_ITEM()
RATIONAL_B_SPLINE_CURVE((1.,0.999356295572808,0.999356295572808,1.))
REPRESENTATION_ITEM('')
);
#101=CONICAL_SURFACE('',#323,7.9375,29.9999999999991);
#102=CONICAL_SURFACE('',#345,6.9375,44.9999999999968);
#103=TOROIDAL_SURFACE('',#322,8.,2.);
#104=ADVANCED_FACE('',(#126,#127),#123,.T.);
#105=ADVANCED_FACE('',(#128,#129),#103,.F.);
#106=ADVANCED_FACE('',(#130,#131),#101,.T.);
#107=ADVANCED_FACE('',(#132,#133),#124,.T.);
#108=ADVANCED_FACE('',(#52),#39,.F.);
#109=ADVANCED_FACE('',(#53),#40,.F.);
#110=ADVANCED_FACE('',(#54),#41,.F.);
#111=ADVANCED_FACE('',(#55),#42,.F.);
#112=ADVANCED_FACE('',(#56),#43,.F.);
#113=ADVANCED_FACE('',(#57),#44,.F.);
#114=ADVANCED_FACE('',(#58),#45,.F.);
#115=ADVANCED_FACE('',(#59),#46,.F.);
#116=ADVANCED_FACE('',(#60),#47,.F.);
#117=ADVANCED_FACE('',(#61),#48,.F.);
#118=ADVANCED_FACE('',(#62),#49,.T.);
#119=ADVANCED_FACE('',(#63),#50,.F.);
#120=ADVANCED_FACE('',(#134,#135),#102,.T.);
#121=ADVANCED_FACE('',(#136,#137),#125,.T.);
#122=ADVANCED_FACE('',(#64),#51,.F.);
#123=CYLINDRICAL_SURFACE('',#319,7.9375);
#124=CYLINDRICAL_SURFACE('',#330,6.);
#125=CYLINDRICAL_SURFACE('',#347,7.9375);
#126=FACE_BOUND('',#138,.T.);
#127=FACE_BOUND('',#139,.T.);
#128=FACE_BOUND('',#140,.T.);
#129=FACE_BOUND('',#141,.T.);
#130=FACE_BOUND('',#142,.T.);
#131=FACE_BOUND('',#143,.T.);
#132=FACE_BOUND('',#144,.T.);
#133=FACE_BOUND('',#145,.T.);
#134=FACE_BOUND('',#158,.T.);
#135=FACE_BOUND('',#159,.T.);
#136=FACE_BOUND('',#160,.T.);
#137=FACE_BOUND('',#161,.T.);
#138=EDGE_LOOP('',(#163));
#139=EDGE_LOOP('',(#164));
#140=EDGE_LOOP('',(#165));
#141=EDGE_LOOP('',(#166));
#142=EDGE_LOOP('',(#167));
#143=EDGE_LOOP('',(#168));
#144=EDGE_LOOP('',(#169));
#145=EDGE_LOOP('',(#170,#171,#172,#173,#174,#175,#176,#177,#178,#179,#180,
#181));
#146=EDGE_LOOP('',(#182,#183,#184));
#147=EDGE_LOOP('',(#185,#186,#187));
#148=EDGE_LOOP('',(#188,#189,#190));
#149=EDGE_LOOP('',(#191,#192,#193,#194));
#150=EDGE_LOOP('',(#195,#196,#197,#198,#199,#200,#201,#202,#203));
#151=EDGE_LOOP('',(#204,#205,#206,#207));
#152=EDGE_LOOP('',(#208,#209,#210,#211));
#153=EDGE_LOOP('',(#212,#213,#214,#215));
#154=EDGE_LOOP('',(#216,#217,#218,#219));
#155=EDGE_LOOP('',(#220,#221,#222,#223));
#156=EDGE_LOOP('',(#224));
#157=EDGE_LOOP('',(#225));
#158=EDGE_LOOP('',(#226));
#159=EDGE_LOOP('',(#227));
#160=EDGE_LOOP('',(#228));
#161=EDGE_LOOP('',(#229));
#162=EDGE_LOOP('',(#230));
#163=ORIENTED_EDGE('',*,*,#256,.F.);
#164=ORIENTED_EDGE('',*,*,#257,.T.);
#165=ORIENTED_EDGE('',*,*,#258,.T.);
#166=ORIENTED_EDGE('',*,*,#259,.F.);
#167=ORIENTED_EDGE('',*,*,#256,.T.);
#168=ORIENTED_EDGE('',*,*,#258,.F.);
#169=ORIENTED_EDGE('',*,*,#259,.T.);
#170=ORIENTED_EDGE('',*,*,#260,.F.);
#171=ORIENTED_EDGE('',*,*,#261,.T.);
#172=ORIENTED_EDGE('',*,*,#262,.T.);
#173=ORIENTED_EDGE('',*,*,#263,.T.);
#174=ORIENTED_EDGE('',*,*,#264,.F.);
#175=ORIENTED_EDGE('',*,*,#265,.T.);
#176=ORIENTED_EDGE('',*,*,#266,.T.);
#177=ORIENTED_EDGE('',*,*,#267,.T.);
#178=ORIENTED_EDGE('',*,*,#268,.F.);
#179=ORIENTED_EDGE('',*,*,#269,.T.);
#180=ORIENTED_EDGE('',*,*,#270,.T.);
#181=ORIENTED_EDGE('',*,*,#271,.T.);
#182=ORIENTED_EDGE('',*,*,#272,.T.);
#183=ORIENTED_EDGE('',*,*,#273,.T.);
#184=ORIENTED_EDGE('',*,*,#260,.T.);
#185=ORIENTED_EDGE('',*,*,#264,.T.);
#186=ORIENTED_EDGE('',*,*,#274,.T.);
#187=ORIENTED_EDGE('',*,*,#275,.T.);
#188=ORIENTED_EDGE('',*,*,#268,.T.);
#189=ORIENTED_EDGE('',*,*,#276,.T.);
#190=ORIENTED_EDGE('',*,*,#277,.T.);
#191=ORIENTED_EDGE('',*,*,#277,.F.);
#192=ORIENTED_EDGE('',*,*,#278,.F.);
#193=ORIENTED_EDGE('',*,*,#279,.T.);
#194=ORIENTED_EDGE('',*,*,#269,.F.);
#195=ORIENTED_EDGE('',*,*,#279,.F.);
#196=ORIENTED_EDGE('',*,*,#280,.T.);
#197=ORIENTED_EDGE('',*,*,#266,.F.);
#198=ORIENTED_EDGE('',*,*,#281,.F.);
#199=ORIENTED_EDGE('',*,*,#282,.T.);
#200=ORIENTED_EDGE('',*,*,#262,.F.);
#201=ORIENTED_EDGE('',*,*,#283,.F.);
#202=ORIENTED_EDGE('',*,*,#284,.T.);
#203=ORIENTED_EDGE('',*,*,#270,.F.);
#204=ORIENTED_EDGE('',*,*,#284,.F.);
#205=ORIENTED_EDGE('',*,*,#285,.T.);
#206=ORIENTED_EDGE('',*,*,#272,.F.);
#207=ORIENTED_EDGE('',*,*,#271,.F.);
#208=ORIENTED_EDGE('',*,*,#275,.F.);
#209=ORIENTED_EDGE('',*,*,#286,.F.);
#210=ORIENTED_EDGE('',*,*,#281,.T.);
#211=ORIENTED_EDGE('',*,*,#265,.F.);
#212=ORIENTED_EDGE('',*,*,#280,.F.);
#213=ORIENTED_EDGE('',*,*,#278,.T.);
#214=ORIENTED_EDGE('',*,*,#276,.F.);
#215=ORIENTED_EDGE('',*,*,#267,.F.);
#216=ORIENTED_EDGE('',*,*,#285,.F.);
#217=ORIENTED_EDGE('',*,*,#283,.T.);
#218=ORIENTED_EDGE('',*,*,#261,.F.);
#219=ORIENTED_EDGE('',*,*,#273,.F.);
#220=ORIENTED_EDGE('',*,*,#282,.F.);
#221=ORIENTED_EDGE('',*,*,#286,.T.);
#222=ORIENTED_EDGE('',*,*,#274,.F.);
#223=ORIENTED_EDGE('',*,*,#263,.F.);
#224=ORIENTED_EDGE('',*,*,#257,.F.);
#225=ORIENTED_EDGE('',*,*,#287,.F.);
#226=ORIENTED_EDGE('',*,*,#288,.F.);
#227=ORIENTED_EDGE('',*,*,#287,.T.);
#228=ORIENTED_EDGE('',*,*,#289,.T.);
#229=ORIENTED_EDGE('',*,*,#288,.T.);
#230=ORIENTED_EDGE('',*,*,#289,.F.);
#231=VERTEX_POINT('',#435);
#232=VERTEX_POINT('',#437);
#233=VERTEX_POINT('',#440);
#234=VERTEX_POINT('',#442);
#235=VERTEX_POINT('',#446);
#236=VERTEX_POINT('',#447);
#237=VERTEX_POINT('',#452);
#238=VERTEX_POINT('',#454);
#239=VERTEX_POINT('',#459);
#240=VERTEX_POINT('',#461);
#241=VERTEX_POINT('',#466);
#242=VERTEX_POINT('',#468);
#243=VERTEX_POINT('',#473);
#244=VERTEX_POINT('',#475);
#245=VERTEX_POINT('',#480);
#246=VERTEX_POINT('',#482);
#247=VERTEX_POINT('',#489);
#248=VERTEX_POINT('',#493);
#249=VERTEX_POINT('',#497);
#250=VERTEX_POINT('',#501);
#251=VERTEX_POINT('',#506);
#252=VERTEX_POINT('',#509);
#253=VERTEX_POINT('',#521);
#254=VERTEX_POINT('',#524);
#255=VERTEX_POINT('',#527);
#256=EDGE_CURVE('',#231,#231,#290,.T.);
#257=EDGE_CURVE('',#232,#232,#291,.T.);
#258=EDGE_CURVE('',#233,#233,#292,.T.);
#259=EDGE_CURVE('',#234,#234,#293,.T.);
#260=EDGE_CURVE('',#235,#236,#294,.T.);
#261=EDGE_CURVE('',#235,#237,#95,.T.);
#262=EDGE_CURVE('',#237,#238,#295,.T.);
#263=EDGE_CURVE('',#238,#239,#96,.T.);
#264=EDGE_CURVE('',#240,#239,#296,.T.);
#265=EDGE_CURVE('',#240,#241,#97,.T.);
#266=EDGE_CURVE('',#241,#242,#297,.T.);
#267=EDGE_CURVE('',#242,#243,#98,.T.);
#268=EDGE_CURVE('',#244,#243,#298,.T.);
#269=EDGE_CURVE('',#244,#245,#99,.T.);
#270=EDGE_CURVE('',#245,#246,#299,.T.);
#271=EDGE_CURVE('',#246,#236,#100,.T.);
#272=EDGE_CURVE('',#236,#247,#65,.T.);
#273=EDGE_CURVE('',#247,#235,#66,.T.);
#274=EDGE_CURVE('',#239,#248,#67,.T.);
#275=EDGE_CURVE('',#248,#240,#68,.T.);
#276=EDGE_CURVE('',#243,#249,#69,.T.);
#277=EDGE_CURVE('',#249,#244,#70,.T.);
#278=EDGE_CURVE('',#250,#249,#71,.T.);
#279=EDGE_CURVE('',#250,#245,#72,.T.);
#280=EDGE_CURVE('',#250,#242,#73,.T.);
#281=EDGE_CURVE('',#251,#241,#74,.T.);
#282=EDGE_CURVE('',#251,#238,#75,.T.);
#283=EDGE_CURVE('',#252,#237,#76,.T.);
#284=EDGE_CURVE('',#252,#246,#77,.T.);
#285=EDGE_CURVE('',#252,#247,#78,.T.);
#286=EDGE_CURVE('',#251,#248,#79,.T.);
#287=EDGE_CURVE('',#253,#253,#300,.T.);
#288=EDGE_CURVE('',#254,#254,#301,.T.);
#289=EDGE_CURVE('',#255,#255,#302,.T.);
#290=CIRCLE('',#317,7.9375);
#291=CIRCLE('',#318,7.9375);
#292=CIRCLE('',#320,6.2679491924311);
#293=CIRCLE('',#321,6.);
#294=CIRCLE('',#324,6.);
#295=CIRCLE('',#325,6.);
#296=CIRCLE('',#326,6.);
#297=CIRCLE('',#327,6.);
#298=CIRCLE('',#328,6.);
#299=CIRCLE('',#329,6.);
#300=CIRCLE('',#342,6.9375);
#301=CIRCLE('',#344,7.9375);
#302=CIRCLE('',#346,7.9375);
#303=PRESENTATION_LAYER_ASSIGNMENT('1','Layer 1',(#316,#36));
#304=PRESENTATION_LAYER_ASSIGNMENT('2','Layer 2',(#35));
#305=STYLED_ITEM('',(#308),#316);
#306=STYLED_ITEM('',(#309),#35);
#307=STYLED_ITEM('',(#310),#36);
#308=PRESENTATION_STYLE_ASSIGNMENT((#311));
#309=PRESENTATION_STYLE_ASSIGNMENT((#25));
#310=PRESENTATION_STYLE_ASSIGNMENT((#26));
#311=CURVE_STYLE('',#314,POSITIVE_LENGTH_MEASURE(0.13),#312);
#312=COLOUR_RGB('Strong Stone',0.576470588235294,0.54508278019379,0.392156862745098);
#313=COLOUR_RGB('Medium Gray',0.490196078431373,0.490196078431373,0.490196078431373);
#314=DRAUGHTING_PRE_DEFINED_CURVE_FONT('continuous');
#315=AXIS2_PLACEMENT_3D('',#432,#349,#350);
#316=AXIS2_PLACEMENT_3D('',#433,#351,#352);
#317=AXIS2_PLACEMENT_3D('',#434,#353,#354);
#318=AXIS2_PLACEMENT_3D('',#436,#355,#356);
#319=AXIS2_PLACEMENT_3D('',#438,#357,#358);
#320=AXIS2_PLACEMENT_3D('',#439,#359,#360);
#321=AXIS2_PLACEMENT_3D('',#441,#361,#362);
#322=AXIS2_PLACEMENT_3D('',#443,#363,#364);
#323=AXIS2_PLACEMENT_3D('',#444,#365,#366);
#324=AXIS2_PLACEMENT_3D('',#445,#367,#368);
#325=AXIS2_PLACEMENT_3D('',#453,#369,#370);
#326=AXIS2_PLACEMENT_3D('',#460,#371,#372);
#327=AXIS2_PLACEMENT_3D('',#467,#373,#374);
#328=AXIS2_PLACEMENT_3D('',#474,#375,#376);
#329=AXIS2_PLACEMENT_3D('',#481,#377,#378);
#330=AXIS2_PLACEMENT_3D('',#487,#379,#380);
#331=AXIS2_PLACEMENT_3D('',#491,#383,#384);
#332=AXIS2_PLACEMENT_3D('',#495,#387,#388);
#333=AXIS2_PLACEMENT_3D('',#499,#391,#392);
#334=AXIS2_PLACEMENT_3D('',#503,#395,#396);
#335=AXIS2_PLACEMENT_3D('',#511,#402,#403);
#336=AXIS2_PLACEMENT_3D('',#513,#405,#406);
#337=AXIS2_PLACEMENT_3D('',#515,#408,#409);
#338=AXIS2_PLACEMENT_3D('',#516,#410,#411);
#339=AXIS2_PLACEMENT_3D('',#517,#412,#413);
#340=AXIS2_PLACEMENT_3D('',#518,#414,#415);
#341=AXIS2_PLACEMENT_3D('',#519,#416,#417);
#342=AXIS2_PLACEMENT_3D('',#520,#418,#419);
#343=AXIS2_PLACEMENT_3D('',#522,#420,#421);
#344=AXIS2_PLACEMENT_3D('',#523,#422,#423);
#345=AXIS2_PLACEMENT_3D('',#525,#424,#425);
#346=AXIS2_PLACEMENT_3D('',#526,#426,#427);
#347=AXIS2_PLACEMENT_3D('',#528,#428,#429);
#348=AXIS2_PLACEMENT_3D('',#529,#430,#431);
#349=DIRECTION('',(0.,0.,1.));
#350=DIRECTION('',(1.,0.,0.));
#351=DIRECTION('',(0.,0.,1.));
#352=DIRECTION('',(1.,0.,0.));
#353=DIRECTION('',(0.,0.,-1.));
#354=DIRECTION('',(1.,0.,0.));
#355=DIRECTION('',(0.,0.,-1.));
#356=DIRECTION('',(1.,0.,0.));
#357=DIRECTION('',(0.,0.,-1.));
#358=DIRECTION('',(-1.,0.,0.));
#359=DIRECTION('',(0.,0.,-1.));
#360=DIRECTION('',(1.,0.,0.));
#361=DIRECTION('',(0.,0.,-1.));
#362=DIRECTION('',(1.,0.,0.));
#363=DIRECTION('',(0.,0.,-1.));
#364=DIRECTION('',(-1.,0.,0.));
#365=DIRECTION('',(0.,0.,1.));
#366=DIRECTION('',(1.,0.,-7.70609138780514E-17));
#367=DIRECTION('',(0.,0.,-1.));
#368=DIRECTION('',(1.,0.,0.));
#369=DIRECTION('',(2.63545493953425E-15,-3.79375364478651E-15,1.));
#370=DIRECTION('',(2.00769852683768E-30,-1.,-4.62592926927149E-15));
#371=DIRECTION('',(0.,0.,-1.));
#372=DIRECTION('',(1.,0.,0.));
#373=DIRECTION('',(1.96775956231778E-15,4.1792477505591E-15,1.));
#374=DIRECTION('',(-3.61206350717115E-31,-1.,4.62592926927149E-15));
#375=DIRECTION('',(0.,0.,-1.));
#376=DIRECTION('',(1.,0.,0.));
#377=DIRECTION('',(-4.60321450185205E-15,-3.85494105772624E-16,1.));
#378=DIRECTION('',(-1.,-2.62692268625714E-32,-4.62592926927149E-15));
#379=DIRECTION('',(0.,0.,-1.));
#380=DIRECTION('',(-1.,0.,0.));
#381=DIRECTION('',(2.22565125738838E-16,1.,0.));
#382=DIRECTION('',(0.866025403784443,0.499999999999992,0.));
#383=DIRECTION('',(0.,0.,1.));
#384=DIRECTION('',(1.,0.,0.));
#385=DIRECTION('',(-0.866025403784443,-0.499999999999992,0.));
#386=DIRECTION('',(-0.866025403784436,0.500000000000004,0.));
#387=DIRECTION('',(0.,0.,1.));
#388=DIRECTION('',(1.,0.,0.));
#389=DIRECTION('',(0.866025403784436,-0.500000000000004,0.));
#390=DIRECTION('',(2.22565125738835E-16,-1.,0.));
#391=DIRECTION('',(0.,0.,1.));
#392=DIRECTION('',(1.,0.,0.));
#393=DIRECTION('',(-0.480384461415256,-0.277350098112617,-0.832050294337846));
#394=DIRECTION('',(0.,-1.,-3.85494105772624E-16));
#395=DIRECTION('',(-0.866025403784442,-1.9274705288631E-16,0.499999999999995));
#396=DIRECTION('',(0.499999999999995,0.,0.866025403784442));
#397=DIRECTION('',(-0.866025403784436,0.500000000000004,-3.85494105772624E-16));
#398=DIRECTION('',(-0.866025403784436,0.500000000000004,-3.85494105772624E-16));
#399=DIRECTION('',(0.866025403784443,0.499999999999992,-3.85494105772624E-16));
#400=DIRECTION('',(0.866025403784443,0.499999999999992,-3.85494105772624E-16));
#401=DIRECTION('',(0.,-1.,-3.85494105772624E-16));
#402=DIRECTION('',(-4.60321450185205E-15,-3.85494105772624E-16,1.));
#403=DIRECTION('',(1.,0.,4.6074255521944E-15));
#404=DIRECTION('',(0.480384461415261,-0.277350098112611,-0.832050294337845));
#405=DIRECTION('',(0.866025403784439,-1.92747052886312E-16,0.499999999999999));
#406=DIRECTION('',(0.499999999999999,0.,-0.866025403784439));
#407=DIRECTION('',(-1.20889015006686E-15,0.554700196225225,-0.832050294337846));
#408=DIRECTION('',(0.433012701892224,0.750000000000001,0.499999999999995));
#409=DIRECTION('',(4.81385764583564E-17,0.554700196225225,-0.832050294337847));
#410=DIRECTION('',(-0.433012701892223,-0.749999999999998,0.499999999999999));
#411=DIRECTION('',(3.84674930797857E-16,0.554700196225229,0.832050294337844));
#412=DIRECTION('',(0.433012701892214,-0.750000000000007,0.499999999999995));
#413=DIRECTION('',(2.86229373536173E-17,0.554700196225222,0.832050294337849));
#414=DIRECTION('',(-0.433012701892213,0.750000000000005,0.499999999999999));
#415=DIRECTION('',(9.60603124822157E-17,0.554700196225226,-0.832050294337846));
#416=DIRECTION('',(0.,0.,1.));
#417=DIRECTION('',(-1.,0.,0.));
#418=DIRECTION('',(0.,0.,-1.));
#419=DIRECTION('',(1.,0.,0.));
#420=DIRECTION('',(0.,0.,-1.));
#421=DIRECTION('',(-1.,0.,0.));
#422=DIRECTION('',(0.,0.,-1.));
#423=DIRECTION('',(1.,0.,0.));
#424=DIRECTION('',(0.,0.,-1.));
#425=DIRECTION('',(-1.,0.,4.13465219275754E-17));
#426=DIRECTION('',(0.,0.,1.));
#427=DIRECTION('',(1.,0.,0.));
#428=DIRECTION('',(0.,0.,-1.));
#429=DIRECTION('',(-1.,0.,0.));
#430=DIRECTION('',(0.,0.,1.));
#431=DIRECTION('',(-1.,0.,0.));
#432=CARTESIAN_POINT('',(0.,0.,0.));
#433=CARTESIAN_POINT('',(0.,0.,0.));
#434=CARTESIAN_POINT('',(0.,0.,-18.108253175473));
#435=CARTESIAN_POINT('',(7.9375,0.,-18.108253175473));
#436=CARTESIAN_POINT('',(0.,0.,0.));
#437=CARTESIAN_POINT('',(7.9375,0.,0.));
#438=CARTESIAN_POINT('',(0.,0.,-1062.));
#439=CARTESIAN_POINT('',(0.,0.,-21.0000000000001));
#440=CARTESIAN_POINT('',(6.2679491924311,0.,-21.0000000000001));
#441=CARTESIAN_POINT('',(0.,0.,-22.));
#442=CARTESIAN_POINT('',(6.,0.,-22.));
#443=CARTESIAN_POINT('',(0.,0.,-22.));
#444=CARTESIAN_POINT('',(0.,0.,-18.108253175473));
#445=CARTESIAN_POINT('',(0.,0.,-76.2999999999999));
#446=CARTESIAN_POINT('',(5.71445282163715,1.82894203004992,-76.2999999999999));
#447=CARTESIAN_POINT('',(1.27331615074621,-5.86333232729041,-76.2999999999999));
#448=CARTESIAN_POINT('',(5.71445282163715,1.82894203004992,-76.2999999999999));
#449=CARTESIAN_POINT('',(5.66085003785992,1.99642168439143,-76.002359146023));
#450=CARTESIAN_POINT('',(5.59994098877626,2.16138465231679,-75.7021659103081));
#451=CARTESIAN_POINT('',(5.53184329665982,2.32351237164768,-75.3999999999999));
#452=CARTESIAN_POINT('',(5.53184329665982,2.32351237164768,-75.3999999999999));
#453=CARTESIAN_POINT('',(0.,0.,-75.3999999999999));
#454=CARTESIAN_POINT('',(4.7781423881843,3.62896063883813,-75.3999999999999));
#455=CARTESIAN_POINT('',(4.7781423881843,3.62896063883813,-75.3999999999999));
#456=CARTESIAN_POINT('',(4.67178451064436,3.76899882981547,-75.7021659103081));
#457=CARTESIAN_POINT('',(4.55937691427916,3.90422909760496,-76.002359146023));
#458=CARTESIAN_POINT('',(4.44113667089097,4.0343902972404,-76.2999999999999));
#459=CARTESIAN_POINT('',(4.44113667089097,4.0343902972404,-76.2999999999999));
#460=CARTESIAN_POINT('',(0.,0.,-76.2999999999999));
#461=CARTESIAN_POINT('',(-4.44113667089091,4.03439029724046,-76.2999999999999));
#462=CARTESIAN_POINT('',(-4.44113667089091,4.03439029724046,-76.2999999999999));
#463=CARTESIAN_POINT('',(-4.55937691427908,3.90422909760506,-76.002359146023));
#464=CARTESIAN_POINT('',(-4.67178451064428,3.76899882981557,-75.7021659103081));
#465=CARTESIAN_POINT('',(-4.77814238818425,3.6289606388382,-75.3999999999999));
#466=CARTESIAN_POINT('',(-4.77814238818425,3.6289606388382,-75.3999999999999));
#467=CARTESIAN_POINT('',(0.,0.,-75.3999999999999));
#468=CARTESIAN_POINT('',(-5.53184329665978,2.32351237164776,-75.3999999999999));
#469=CARTESIAN_POINT('',(-5.53184329665978,2.32351237164776,-75.3999999999999));
#470=CARTESIAN_POINT('',(-5.59994098877623,2.16138465231686,-75.7021659103081));
#471=CARTESIAN_POINT('',(-5.6608500378599,1.9964216843915,-76.002359146023));
#472=CARTESIAN_POINT('',(-5.71445282163713,1.82894203005,-76.2999999999999));
#473=CARTESIAN_POINT('',(-5.71445282163713,1.82894203005,-76.2999999999999));
#474=CARTESIAN_POINT('',(0.,0.,-76.2999999999999));
#475=CARTESIAN_POINT('',(-1.27331615074621,-5.86333232729041,-76.2999999999999));
#476=CARTESIAN_POINT('',(-1.27331615074621,-5.86333232729041,-76.2999999999999));
#477=CARTESIAN_POINT('',(-1.10147312358081,-5.90065078199652,-76.002359146023));
#478=CARTESIAN_POINT('',(-0.928156478131939,-5.93038348213239,-75.7021659103081));
#479=CARTESIAN_POINT('',(-0.753700908475532,-5.9524730104859,-75.3999999999999));
#480=CARTESIAN_POINT('',(-0.753700908475532,-5.9524730104859,-75.3999999999999));
#481=CARTESIAN_POINT('',(0.,0.,-75.3999999999999));
#482=CARTESIAN_POINT('',(0.753700908475526,-5.95247301048591,-75.3999999999999));
#483=CARTESIAN_POINT('',(0.753700908475526,-5.95247301048591,-75.3999999999999));
#484=CARTESIAN_POINT('',(0.928156478131897,-5.9303834821324,-75.7021659103081));
#485=CARTESIAN_POINT('',(1.10147312358077,-5.90065078199653,-76.002359146023));
#486=CARTESIAN_POINT('',(1.27331615074621,-5.86333232729041,-76.2999999999999));
#487=CARTESIAN_POINT('',(0.,0.,-1062.));
#488=CARTESIAN_POINT('',(1.27331615074621,-2.83395769196123E-16,-76.2999999999999));
#489=CARTESIAN_POINT('',(1.27331615074618,-0.735149422396816,-76.2999999999999));
#490=CARTESIAN_POINT('',(0.636658075373094,-1.10272413359524,-76.2999999999999));
#491=CARTESIAN_POINT('',(0.,0.,-76.2999999999999));
#492=CARTESIAN_POINT('',(-0.636658075373095,1.10272413359524,-76.2999999999999));
#493=CARTESIAN_POINT('',(8.78203759713259E-15,1.47029884479361,-76.2999999999999));
#494=CARTESIAN_POINT('',(0.636658075373109,1.10272413359523,-76.2999999999999));
#495=CARTESIAN_POINT('',(0.,0.,-76.2999999999999));
#496=CARTESIAN_POINT('',(-0.636658075373111,-1.10272413359523,-76.2999999999999));
#497=CARTESIAN_POINT('',(-1.27331615074619,-0.735149422396798,-76.2999999999999));
#498=CARTESIAN_POINT('',(-1.27331615074621,-2.83395769196119E-16,-76.2999999999999));
#499=CARTESIAN_POINT('',(0.,0.,-76.2999999999999));
#500=CARTESIAN_POINT('',(-0.895575931773825,-0.517061005289353,-75.6457347486776));
#501=CARTESIAN_POINT('',(-0.753700908475536,-0.4351494223968,-75.3999999999999));
#502=CARTESIAN_POINT('',(-0.753700908475532,-1.5,-75.3999999999999));
#503=CARTESIAN_POINT('',(-0.753700908475532,-1.5,-75.3999999999999));
#504=CARTESIAN_POINT('',(-1.67588855991442,0.0972758664047916,-75.3999999999999));
#505=CARTESIAN_POINT('',(-0.922187651438885,1.40272413359522,-75.3999999999999));
#506=CARTESIAN_POINT('',(9.64939933512099E-15,0.870298844793622,-75.3999999999999));
#507=CARTESIAN_POINT('',(0.922187651438907,1.40272413359521,-75.3999999999999));
#508=CARTESIAN_POINT('',(1.67588855991442,0.097275866404763,-75.3999999999999));
#509=CARTESIAN_POINT('',(0.753700908475523,-0.435149422396821,-75.3999999999999));
#510=CARTESIAN_POINT('',(0.753700908475526,-1.5,-75.3999999999999));
#511=CARTESIAN_POINT('',(0.753700908475526,-1.5,-75.3999999999999));
#512=CARTESIAN_POINT('',(0.895575931773818,-0.517061005289375,-75.6457347486776));
#513=CARTESIAN_POINT('',(1.30218366420567,-1.5,-76.3499999999999));
#514=CARTESIAN_POINT('',(9.54097911787244E-15,1.03412201057873,-75.6457347486776));
#515=CARTESIAN_POINT('',(-0.922187651438885,1.40272413359522,-75.3999999999999));
#516=CARTESIAN_POINT('',(-1.95012993777949,-0.377724133595205,-76.3499999999999));
#517=CARTESIAN_POINT('',(1.67588855991442,0.097275866404763,-75.3999999999999));
#518=CARTESIAN_POINT('',(0.64794627357384,1.87772413359521,-76.3499999999999));
#519=CARTESIAN_POINT('',(0.,0.,0.));
#520=CARTESIAN_POINT('',(0.,0.,48.));
#521=CARTESIAN_POINT('',(6.9375,0.,48.));
#522=CARTESIAN_POINT('',(0.,-6.9375,48.));
#523=CARTESIAN_POINT('',(0.,0.,47.));
#524=CARTESIAN_POINT('',(7.9375,0.,47.));
#525=CARTESIAN_POINT('',(0.,0.,48.));
#526=CARTESIAN_POINT('',(0.,0.,0.));
#527=CARTESIAN_POINT('',(7.9375,0.,0.));
#528=CARTESIAN_POINT('',(0.,0.,-1062.));
#529=CARTESIAN_POINT('',(0.,0.,0.));
#530=MECHANICAL_DESIGN_GEOMETRIC_PRESENTATION_REPRESENTATION('',(#305,#306,
#307),#531);
#531=(
GEOMETRIC_REPRESENTATION_CONTEXT(3)
GLOBAL_UNCERTAINTY_ASSIGNED_CONTEXT((#532))
GLOBAL_UNIT_ASSIGNED_CONTEXT((#538,#534,#533))
REPRESENTATION_CONTEXT('335.14-062512','TOP_LEVEL_ASSEMBLY_PART')
);
#532=UNCERTAINTY_MEASURE_WITH_UNIT(LENGTH_MEASURE(2.E-5),#538,
'DISTANCE_ACCURACY_VALUE','Maximum Tolerance applied to model');
#533=(
NAMED_UNIT(*)
SI_UNIT($,.STERADIAN.)
SOLID_ANGLE_UNIT()
);
#534=(
CONVERSION_BASED_UNIT('DEGREE',#536)
NAMED_UNIT(#535)
PLANE_ANGLE_UNIT()
);
#535=DIMENSIONAL_EXPONENTS(0.,0.,0.,0.,0.,0.,0.);
#536=PLANE_ANGLE_MEASURE_WITH_UNIT(PLANE_ANGLE_MEASURE(0.0174532925),#537);
#537=(
NAMED_UNIT(*)
PLANE_ANGLE_UNIT()
SI_UNIT($,.RADIAN.)
);
#538=(
LENGTH_UNIT()
NAMED_UNIT(*)
SI_UNIT(.MILLI.,.METRE.)
);
ENDSEC;
END-ISO-10303-21;
