ISO-10303-21;
HEADER;
/* Generated by software containing ST-Developer
 * from STEP Tools, Inc. (www.steptools.com) 
 */
/* OPTION: using custom schema-name function */

FILE_DESCRIPTION(
/* description */ (''),
/* implementation_level */ '2;1');

FILE_NAME(
/* name */ '335.14-062512.0-165-394-E.stp',
/* time_stamp */ '2018-02-19T13:39:15+05:00',
/* author */ (''),
/* organization */ (''),
/* preprocessor_version */ 'ST-DEVELOPER v16',
/* originating_system */ 'SIEMENS PLM Software NX 11.0',
/* authorisation */ '');

FILE_SCHEMA (('AUTOMOTIVE_DESIGN { 1 0 10303 214 3 1 1 1 }'));
ENDSEC;

DATA;
#10=CONSTRUCTIVE_GEOMETRY_REPRESENTATION_RELATIONSHIP(
'supplemental geometry','',#24,#11);
#11=CONSTRUCTIVE_GEOMETRY_REPRESENTATION('supplemental geometry',(#316),
#531);
#12=SHAPE_REPRESENTATION_RELATIONSHIP('None',
'relationship between 335.14-062512.0-165-394-E-None and 335.14-062512.
0-165-394-E-None',#24,#13);
#13=ADVANCED_BREP_SHAPE_REPRESENTATION('335.14-062512.0-165-394-E-None',
(#35,#36),#531);
#14=SHAPE_DEFINITION_REPRESENTATION(#15,#24);
#15=PRODUCT_DEFINITION_SHAPE('','',#16);
#16=PRODUCT_DEFINITION(' ','',#18,#17);
#17=PRODUCT_DEFINITION_CONTEXT('part definition',#23,'design');
#18=PRODUCT_DEFINITION_FORMATION_WITH_SPECIFIED_SOURCE(' ',' ',#20,
 .NOT_KNOWN.);
#19=PRODUCT_RELATED_PRODUCT_CATEGORY('part','',(#20));
#20=PRODUCT('335.14-062512.0-165-394-E','335.14-062512.0-165-394-E',' ',
(#21));
#21=PRODUCT_CONTEXT(' ',#23,'mechanical');
#22=APPLICATION_PROTOCOL_DEFINITION('international standard',
'automotive_design',2010,#23);
#23=APPLICATION_CONTEXT(
'core data for automotive mechanical design processes');
#24=SHAPE_REPRESENTATION('335.14-062512.0-165-394-E-None',(#315),#531);
#25=SURFACE_STYLE_USAGE(.BOTH.,#27);
#26=SURFACE_STYLE_USAGE(.BOTH.,#28);
#27=SURFACE_SIDE_STYLE('',(#29));
#28=SURFACE_SIDE_STYLE('',(#30));
#29=SURFACE_STYLE_FILL_AREA(#31);
#30=SURFACE_STYLE_FILL_AREA(#32);
#31=FILL_AREA_STYLE('',(#33));
#32=FILL_AREA_STYLE('',(#34));
#33=FILL_AREA_STYLE_COLOUR('',#313);
#34=FILL_AREA_STYLE_COLOUR('',#313);
#35=MANIFOLD_SOLID_BREP('<BRV22.0.625.1>-<ROTATION1>',#37);
#36=MANIFOLD_SOLID_BREP('<BRV22.0.625.1>-<ROTATION1>',#38);
#37=CLOSED_SHELL('',(#104,#105,#106,#107,#108,#109,#110,#111,#112,#113,
#114,#115,#116,#117,#118));
#38=CLOSED_SHELL('',(#119,#120,#121,#122));
#39=LINE('',#489,#54);
#40=LINE('',#491,#55);
#41=LINE('',#493,#56);
#42=LINE('',#495,#57);
#43=LINE('',#497,#58);
#44=LINE('',#499,#59);
#45=LINE('',#501,#60);
#46=LINE('',#503,#61);
#47=LINE('',#505,#62);
#48=LINE('',#506,#63);
#49=LINE('',#508,#64);
#50=LINE('',#509,#65);
#51=LINE('',#511,#66);
#52=LINE('',#513,#67);
#53=LINE('',#515,#68);
#54=VECTOR('',#383,1.);
#55=VECTOR('',#384,1.);
#56=VECTOR('',#387,1.);
#57=VECTOR('',#388,1.);
#58=VECTOR('',#391,1.);
#59=VECTOR('',#392,1.);
#60=VECTOR('',#395,1.);
#61=VECTOR('',#396,1.);
#62=VECTOR('',#399,1.);
#63=VECTOR('',#400,1.);
#64=VECTOR('',#401,1.);
#65=VECTOR('',#402,1.);
#66=VECTOR('',#403,1.);
#67=VECTOR('',#406,1.);
#68=VECTOR('',#409,1.);
#69=PLANE('',#331);
#70=PLANE('',#332);
#71=PLANE('',#333);
#72=PLANE('',#334);
#73=PLANE('',#335);
#74=PLANE('',#336);
#75=PLANE('',#337);
#76=PLANE('',#338);
#77=PLANE('',#339);
#78=PLANE('',#340);
#79=PLANE('',#341);
#80=PLANE('',#343);
#81=PLANE('',#348);
#82=FACE_OUTER_BOUND('',#146,.T.);
#83=FACE_OUTER_BOUND('',#147,.T.);
#84=FACE_OUTER_BOUND('',#148,.T.);
#85=FACE_OUTER_BOUND('',#149,.T.);
#86=FACE_OUTER_BOUND('',#150,.T.);
#87=FACE_OUTER_BOUND('',#151,.T.);
#88=FACE_OUTER_BOUND('',#152,.T.);
#89=FACE_OUTER_BOUND('',#153,.T.);
#90=FACE_OUTER_BOUND('',#154,.T.);
#91=FACE_OUTER_BOUND('',#155,.T.);
#92=FACE_OUTER_BOUND('',#156,.T.);
#93=FACE_OUTER_BOUND('',#157,.T.);
#94=FACE_OUTER_BOUND('',#162,.T.);
#95=(
BOUNDED_CURVE()
B_SPLINE_CURVE(3,(#448,#449,#450,#451),.UNSPECIFIED.,.F.,.F.)
B_SPLINE_CURVE_WITH_KNOTS((4,4),(0.,1.),.UNSPECIFIED.)
CURVE()
GEOMETRIC_REPRESENTATION_ITEM()
RATIONAL_B_SPLINE_CURVE((1.,0.999356295572808,0.999356295572808,1.))
REPRESENTATION_ITEM('')
);
#96=(
BOUNDED_CURVE()
B_SPLINE_CURVE(3,(#455,#456,#457,#458),.UNSPECIFIED.,.F.,.F.)
B_SPLINE_CURVE_WITH_KNOTS((4,4),(0.,1.),.UNSPECIFIED.)
CURVE()
GEOMETRIC_REPRESENTATION_ITEM()
RATIONAL_B_SPLINE_CURVE((1.,0.999356295572808,0.999356295572808,1.))
REPRESENTATION_ITEM('')
);
#97=(
BOUNDED_CURVE()
B_SPLINE_CURVE(3,(#462,#463,#464,#465),.UNSPECIFIED.,.F.,.F.)
B_SPLINE_CURVE_WITH_KNOTS((4,4),(0.,1.),.UNSPECIFIED.)
CURVE()
GEOMETRIC_REPRESENTATION_ITEM()
RATIONAL_B_SPLINE_CURVE((1.,0.999356295572808,0.999356295572808,1.))
REPRESENTATION_ITEM('')
);
#98=(
BOUNDED_CURVE()
B_SPLINE_CURVE(3,(#469,#470,#471,#472),.UNSPECIFIED.,.F.,.F.)
B_SPLINE_CURVE_WITH_KNOTS((4,4),(0.,1.),.UNSPECIFIED.)
CURVE()
GEOMETRIC_REPRESENTATION_ITEM()
RATIONAL_B_SPLINE_CURVE((1.,0.999356295572808,0.999356295572808,1.))
REPRESENTATION_ITEM('')
);
#99=(
BOUNDED_CURVE()
B_SPLINE_CURVE(3,(#476,#477,#478,#479),.UNSPECIFIED.,.F.,.F.)
B_SPLINE_CURVE_WITH_KNOTS((4,4),(0.,1.),.UNSPECIFIED.)
CURVE()
GEOMETRIC_REPRESENTATION_ITEM()
RATIONAL_B_SPLINE_CURVE((1.,0.999356295572808,0.999356295572808,1.))
REPRESENTATION_ITEM('')
);
#100=(
BOUNDED_CURVE()
B_SPLINE_CURVE(3,(#483,#484,#485,#486),.UNSPECIFIED.,.F.,.F.)
B_SPLINE_CURVE_WITH_KNOTS((4,4),(0.,1.),.UNSPECIFIED.)
CURVE()
GEOMETRIC_REPRESENTATION_ITEM()
RATIONAL_B_SPLINE_CURVE((1.,0.999356295572808,0.999356295572808,1.))
REPRESENTATION_ITEM('')
);
#101=CONICAL_SURFACE('',#323,7.9375,29.999999999999);
#102=CONICAL_SURFACE('',#345,6.9375,44.9999999999968);
#103=TOROIDAL_SURFACE('',#322,8.,2.);
#104=ADVANCED_FACE('',(#126,#127),#123,.T.);
#105=ADVANCED_FACE('',(#128,#129),#103,.F.);
#106=ADVANCED_FACE('',(#130,#131),#101,.T.);
#107=ADVANCED_FACE('',(#132,#133),#124,.T.);
#108=ADVANCED_FACE('',(#82),#69,.T.);
#109=ADVANCED_FACE('',(#83),#70,.F.);
#110=ADVANCED_FACE('',(#84),#71,.F.);
#111=ADVANCED_FACE('',(#85),#72,.F.);
#112=ADVANCED_FACE('',(#86),#73,.F.);
#113=ADVANCED_FACE('',(#87),#74,.F.);
#114=ADVANCED_FACE('',(#88),#75,.F.);
#115=ADVANCED_FACE('',(#89),#76,.F.);
#116=ADVANCED_FACE('',(#90),#77,.F.);
#117=ADVANCED_FACE('',(#91),#78,.F.);
#118=ADVANCED_FACE('',(#92),#79,.F.);
#119=ADVANCED_FACE('',(#93),#80,.F.);
#120=ADVANCED_FACE('',(#134,#135),#102,.T.);
#121=ADVANCED_FACE('',(#136,#137),#125,.T.);
#122=ADVANCED_FACE('',(#94),#81,.F.);
#123=CYLINDRICAL_SURFACE('',#319,7.9375);
#124=CYLINDRICAL_SURFACE('',#330,6.);
#125=CYLINDRICAL_SURFACE('',#347,7.9375);
#126=FACE_BOUND('',#138,.T.);
#127=FACE_BOUND('',#139,.T.);
#128=FACE_BOUND('',#140,.T.);
#129=FACE_BOUND('',#141,.T.);
#130=FACE_BOUND('',#142,.T.);
#131=FACE_BOUND('',#143,.T.);
#132=FACE_BOUND('',#144,.T.);
#133=FACE_BOUND('',#145,.T.);
#134=FACE_BOUND('',#158,.T.);
#135=FACE_BOUND('',#159,.T.);
#136=FACE_BOUND('',#160,.T.);
#137=FACE_BOUND('',#161,.T.);
#138=EDGE_LOOP('',(#163));
#139=EDGE_LOOP('',(#164));
#140=EDGE_LOOP('',(#165));
#141=EDGE_LOOP('',(#166));
#142=EDGE_LOOP('',(#167));
#143=EDGE_LOOP('',(#168));
#144=EDGE_LOOP('',(#169));
#145=EDGE_LOOP('',(#170,#171,#172,#173,#174,#175,#176,#177,#178,#179,#180,
#181));
#146=EDGE_LOOP('',(#182));
#147=EDGE_LOOP('',(#183,#184,#185));
#148=EDGE_LOOP('',(#186,#187,#188));
#149=EDGE_LOOP('',(#189,#190,#191));
#150=EDGE_LOOP('',(#192,#193,#194,#195));
#151=EDGE_LOOP('',(#196,#197,#198,#199,#200,#201,#202,#203,#204));
#152=EDGE_LOOP('',(#205,#206,#207,#208));
#153=EDGE_LOOP('',(#209,#210,#211,#212));
#154=EDGE_LOOP('',(#213,#214,#215,#216));
#155=EDGE_LOOP('',(#217,#218,#219,#220));
#156=EDGE_LOOP('',(#221,#222,#223,#224));
#157=EDGE_LOOP('',(#225));
#158=EDGE_LOOP('',(#226));
#159=EDGE_LOOP('',(#227));
#160=EDGE_LOOP('',(#228));
#161=EDGE_LOOP('',(#229));
#162=EDGE_LOOP('',(#230));
#163=ORIENTED_EDGE('',*,*,#256,.F.);
#164=ORIENTED_EDGE('',*,*,#257,.T.);
#165=ORIENTED_EDGE('',*,*,#258,.T.);
#166=ORIENTED_EDGE('',*,*,#259,.F.);
#167=ORIENTED_EDGE('',*,*,#256,.T.);
#168=ORIENTED_EDGE('',*,*,#258,.F.);
#169=ORIENTED_EDGE('',*,*,#259,.T.);
#170=ORIENTED_EDGE('',*,*,#260,.F.);
#171=ORIENTED_EDGE('',*,*,#261,.T.);
#172=ORIENTED_EDGE('',*,*,#262,.T.);
#173=ORIENTED_EDGE('',*,*,#263,.T.);
#174=ORIENTED_EDGE('',*,*,#264,.F.);
#175=ORIENTED_EDGE('',*,*,#265,.T.);
#176=ORIENTED_EDGE('',*,*,#266,.T.);
#177=ORIENTED_EDGE('',*,*,#267,.T.);
#178=ORIENTED_EDGE('',*,*,#268,.F.);
#179=ORIENTED_EDGE('',*,*,#269,.T.);
#180=ORIENTED_EDGE('',*,*,#270,.T.);
#181=ORIENTED_EDGE('',*,*,#271,.T.);
#182=ORIENTED_EDGE('',*,*,#257,.F.);
#183=ORIENTED_EDGE('',*,*,#272,.T.);
#184=ORIENTED_EDGE('',*,*,#273,.T.);
#185=ORIENTED_EDGE('',*,*,#260,.T.);
#186=ORIENTED_EDGE('',*,*,#264,.T.);
#187=ORIENTED_EDGE('',*,*,#274,.T.);
#188=ORIENTED_EDGE('',*,*,#275,.T.);
#189=ORIENTED_EDGE('',*,*,#268,.T.);
#190=ORIENTED_EDGE('',*,*,#276,.T.);
#191=ORIENTED_EDGE('',*,*,#277,.T.);
#192=ORIENTED_EDGE('',*,*,#277,.F.);
#193=ORIENTED_EDGE('',*,*,#278,.F.);
#194=ORIENTED_EDGE('',*,*,#279,.T.);
#195=ORIENTED_EDGE('',*,*,#269,.F.);
#196=ORIENTED_EDGE('',*,*,#270,.F.);
#197=ORIENTED_EDGE('',*,*,#279,.F.);
#198=ORIENTED_EDGE('',*,*,#280,.T.);
#199=ORIENTED_EDGE('',*,*,#266,.F.);
#200=ORIENTED_EDGE('',*,*,#281,.F.);
#201=ORIENTED_EDGE('',*,*,#282,.T.);
#202=ORIENTED_EDGE('',*,*,#262,.F.);
#203=ORIENTED_EDGE('',*,*,#283,.F.);
#204=ORIENTED_EDGE('',*,*,#284,.T.);
#205=ORIENTED_EDGE('',*,*,#284,.F.);
#206=ORIENTED_EDGE('',*,*,#285,.T.);
#207=ORIENTED_EDGE('',*,*,#272,.F.);
#208=ORIENTED_EDGE('',*,*,#271,.F.);
#209=ORIENTED_EDGE('',*,*,#275,.F.);
#210=ORIENTED_EDGE('',*,*,#286,.F.);
#211=ORIENTED_EDGE('',*,*,#281,.T.);
#212=ORIENTED_EDGE('',*,*,#265,.F.);
#213=ORIENTED_EDGE('',*,*,#280,.F.);
#214=ORIENTED_EDGE('',*,*,#278,.T.);
#215=ORIENTED_EDGE('',*,*,#276,.F.);
#216=ORIENTED_EDGE('',*,*,#267,.F.);
#217=ORIENTED_EDGE('',*,*,#285,.F.);
#218=ORIENTED_EDGE('',*,*,#283,.T.);
#219=ORIENTED_EDGE('',*,*,#261,.F.);
#220=ORIENTED_EDGE('',*,*,#273,.F.);
#221=ORIENTED_EDGE('',*,*,#282,.F.);
#222=ORIENTED_EDGE('',*,*,#286,.T.);
#223=ORIENTED_EDGE('',*,*,#274,.F.);
#224=ORIENTED_EDGE('',*,*,#263,.F.);
#225=ORIENTED_EDGE('',*,*,#287,.F.);
#226=ORIENTED_EDGE('',*,*,#288,.F.);
#227=ORIENTED_EDGE('',*,*,#287,.T.);
#228=ORIENTED_EDGE('',*,*,#289,.T.);
#229=ORIENTED_EDGE('',*,*,#288,.T.);
#230=ORIENTED_EDGE('',*,*,#289,.F.);
#231=VERTEX_POINT('',#435);
#232=VERTEX_POINT('',#437);
#233=VERTEX_POINT('',#440);
#234=VERTEX_POINT('',#442);
#235=VERTEX_POINT('',#446);
#236=VERTEX_POINT('',#447);
#237=VERTEX_POINT('',#452);
#238=VERTEX_POINT('',#454);
#239=VERTEX_POINT('',#459);
#240=VERTEX_POINT('',#461);
#241=VERTEX_POINT('',#466);
#242=VERTEX_POINT('',#468);
#243=VERTEX_POINT('',#473);
#244=VERTEX_POINT('',#475);
#245=VERTEX_POINT('',#480);
#246=VERTEX_POINT('',#482);
#247=VERTEX_POINT('',#490);
#248=VERTEX_POINT('',#494);
#249=VERTEX_POINT('',#498);
#250=VERTEX_POINT('',#502);
#251=VERTEX_POINT('',#507);
#252=VERTEX_POINT('',#510);
#253=VERTEX_POINT('',#521);
#254=VERTEX_POINT('',#524);
#255=VERTEX_POINT('',#527);
#256=EDGE_CURVE('',#231,#231,#290,.T.);
#257=EDGE_CURVE('',#232,#232,#291,.T.);
#258=EDGE_CURVE('',#233,#233,#292,.T.);
#259=EDGE_CURVE('',#234,#234,#293,.T.);
#260=EDGE_CURVE('',#235,#236,#294,.T.);
#261=EDGE_CURVE('',#235,#237,#95,.T.);
#262=EDGE_CURVE('',#237,#238,#295,.T.);
#263=EDGE_CURVE('',#238,#239,#96,.T.);
#264=EDGE_CURVE('',#240,#239,#296,.T.);
#265=EDGE_CURVE('',#240,#241,#97,.T.);
#266=EDGE_CURVE('',#241,#242,#297,.T.);
#267=EDGE_CURVE('',#242,#243,#98,.T.);
#268=EDGE_CURVE('',#244,#243,#298,.T.);
#269=EDGE_CURVE('',#244,#245,#99,.T.);
#270=EDGE_CURVE('',#245,#246,#299,.T.);
#271=EDGE_CURVE('',#246,#236,#100,.T.);
#272=EDGE_CURVE('',#236,#247,#39,.T.);
#273=EDGE_CURVE('',#247,#235,#40,.T.);
#274=EDGE_CURVE('',#239,#248,#41,.T.);
#275=EDGE_CURVE('',#248,#240,#42,.T.);
#276=EDGE_CURVE('',#243,#249,#43,.T.);
#277=EDGE_CURVE('',#249,#244,#44,.T.);
#278=EDGE_CURVE('',#250,#249,#45,.T.);
#279=EDGE_CURVE('',#250,#245,#46,.T.);
#280=EDGE_CURVE('',#250,#242,#47,.T.);
#281=EDGE_CURVE('',#251,#241,#48,.T.);
#282=EDGE_CURVE('',#251,#238,#49,.T.);
#283=EDGE_CURVE('',#252,#237,#50,.T.);
#284=EDGE_CURVE('',#252,#246,#51,.T.);
#285=EDGE_CURVE('',#252,#247,#52,.T.);
#286=EDGE_CURVE('',#251,#248,#53,.T.);
#287=EDGE_CURVE('',#253,#253,#300,.T.);
#288=EDGE_CURVE('',#254,#254,#301,.T.);
#289=EDGE_CURVE('',#255,#255,#302,.T.);
#290=CIRCLE('',#317,7.9375);
#291=CIRCLE('',#318,7.9375);
#292=CIRCLE('',#320,6.26794919243111);
#293=CIRCLE('',#321,6.);
#294=CIRCLE('',#324,6.);
#295=CIRCLE('',#325,6.);
#296=CIRCLE('',#326,6.);
#297=CIRCLE('',#327,6.);
#298=CIRCLE('',#328,6.);
#299=CIRCLE('',#329,6.);
#300=CIRCLE('',#342,6.9375);
#301=CIRCLE('',#344,7.9375);
#302=CIRCLE('',#346,7.9375);
#303=PRESENTATION_LAYER_ASSIGNMENT('1','Layer 1',(#316,#36));
#304=PRESENTATION_LAYER_ASSIGNMENT('2','Layer 2',(#35));
#305=STYLED_ITEM('',(#308),#316);
#306=STYLED_ITEM('',(#309),#35);
#307=STYLED_ITEM('',(#310),#36);
#308=PRESENTATION_STYLE_ASSIGNMENT((#311));
#309=PRESENTATION_STYLE_ASSIGNMENT((#25));
#310=PRESENTATION_STYLE_ASSIGNMENT((#26));
#311=CURVE_STYLE('',#314,POSITIVE_LENGTH_MEASURE(0.13),#312);
#312=COLOUR_RGB('Strong Stone',0.576470588235294,0.54508278019379,0.392156862745098);
#313=COLOUR_RGB('Medium Gray',0.490196078431373,0.490196078431373,0.490196078431373);
#314=DRAUGHTING_PRE_DEFINED_CURVE_FONT('continuous');
#315=AXIS2_PLACEMENT_3D('',#432,#349,#350);
#316=AXIS2_PLACEMENT_3D('',#433,#351,#352);
#317=AXIS2_PLACEMENT_3D('',#434,#353,#354);
#318=AXIS2_PLACEMENT_3D('',#436,#355,#356);
#319=AXIS2_PLACEMENT_3D('',#438,#357,#358);
#320=AXIS2_PLACEMENT_3D('',#439,#359,#360);
#321=AXIS2_PLACEMENT_3D('',#441,#361,#362);
#322=AXIS2_PLACEMENT_3D('',#443,#363,#364);
#323=AXIS2_PLACEMENT_3D('',#444,#365,#366);
#324=AXIS2_PLACEMENT_3D('',#445,#367,#368);
#325=AXIS2_PLACEMENT_3D('',#453,#369,#370);
#326=AXIS2_PLACEMENT_3D('',#460,#371,#372);
#327=AXIS2_PLACEMENT_3D('',#467,#373,#374);
#328=AXIS2_PLACEMENT_3D('',#474,#375,#376);
#329=AXIS2_PLACEMENT_3D('',#481,#377,#378);
#330=AXIS2_PLACEMENT_3D('',#487,#379,#380);
#331=AXIS2_PLACEMENT_3D('',#488,#381,#382);
#332=AXIS2_PLACEMENT_3D('',#492,#385,#386);
#333=AXIS2_PLACEMENT_3D('',#496,#389,#390);
#334=AXIS2_PLACEMENT_3D('',#500,#393,#394);
#335=AXIS2_PLACEMENT_3D('',#504,#397,#398);
#336=AXIS2_PLACEMENT_3D('',#512,#404,#405);
#337=AXIS2_PLACEMENT_3D('',#514,#407,#408);
#338=AXIS2_PLACEMENT_3D('',#516,#410,#411);
#339=AXIS2_PLACEMENT_3D('',#517,#412,#413);
#340=AXIS2_PLACEMENT_3D('',#518,#414,#415);
#341=AXIS2_PLACEMENT_3D('',#519,#416,#417);
#342=AXIS2_PLACEMENT_3D('',#520,#418,#419);
#343=AXIS2_PLACEMENT_3D('',#522,#420,#421);
#344=AXIS2_PLACEMENT_3D('',#523,#422,#423);
#345=AXIS2_PLACEMENT_3D('',#525,#424,#425);
#346=AXIS2_PLACEMENT_3D('',#526,#426,#427);
#347=AXIS2_PLACEMENT_3D('',#528,#428,#429);
#348=AXIS2_PLACEMENT_3D('',#529,#430,#431);
#349=DIRECTION('',(0.,0.,1.));
#350=DIRECTION('',(1.,0.,0.));
#351=DIRECTION('',(0.,0.,1.));
#352=DIRECTION('',(1.,0.,0.));
#353=DIRECTION('',(0.,0.,-1.));
#354=DIRECTION('',(1.,0.,0.));
#355=DIRECTION('',(0.,0.,-1.));
#356=DIRECTION('',(1.,0.,0.));
#357=DIRECTION('',(0.,0.,-1.));
#358=DIRECTION('',(-1.,0.,0.));
#359=DIRECTION('',(0.,0.,-1.));
#360=DIRECTION('',(1.,0.,0.));
#361=DIRECTION('',(0.,0.,-1.));
#362=DIRECTION('',(1.,0.,0.));
#363=DIRECTION('',(0.,0.,-1.));
#364=DIRECTION('',(-1.,0.,0.));
#365=DIRECTION('',(0.,0.,1.));
#366=DIRECTION('',(1.,0.,-7.40970325750497E-17));
#367=DIRECTION('',(0.,0.,-1.));
#368=DIRECTION('',(1.,0.,0.));
#369=DIRECTION('',(2.06005312680275E-15,-2.79712847036831E-15,1.));
#370=DIRECTION('',(-6.09794657174293E-31,-1.,-2.31296463463574E-15));
#371=DIRECTION('',(0.,0.,-1.));
#372=DIRECTION('',(1.,0.,0.));
#373=DIRECTION('',(1.39235774958627E-15,3.18262257614091E-15,1.));
#374=DIRECTION('',(-3.92967868910682E-31,-1.,3.46944695195361E-15));
#375=DIRECTION('',(0.,0.,-1.));
#376=DIRECTION('',(1.,0.,0.));
#377=DIRECTION('',(-3.45241087638903E-15,-3.85494105772624E-16,1.));
#378=DIRECTION('',(-1.,-1.9701920146928E-32,-3.46944695195361E-15));
#379=DIRECTION('',(0.,0.,-1.));
#380=DIRECTION('',(-1.,0.,0.));
#381=DIRECTION('',(0.,0.,1.));
#382=DIRECTION('',(-1.,0.,0.));
#383=DIRECTION('',(2.22565125738838E-16,1.,0.));
#384=DIRECTION('',(0.866025403784443,0.499999999999992,0.));
#385=DIRECTION('',(0.,0.,1.));
#386=DIRECTION('',(1.,0.,0.));
#387=DIRECTION('',(-0.866025403784443,-0.499999999999992,0.));
#388=DIRECTION('',(-0.866025403784436,0.500000000000004,0.));
#389=DIRECTION('',(0.,0.,1.));
#390=DIRECTION('',(1.,0.,0.));
#391=DIRECTION('',(0.866025403784436,-0.500000000000004,0.));
#392=DIRECTION('',(2.22565125738834E-16,-1.,0.));
#393=DIRECTION('',(0.,0.,1.));
#394=DIRECTION('',(1.,0.,0.));
#395=DIRECTION('',(-0.480384461415254,-0.277350098112619,-0.832050294337846));
#396=DIRECTION('',(0.,-1.,-3.85494105772624E-16));
#397=DIRECTION('',(-0.866025403784442,-1.92747052886309E-16,0.499999999999993));
#398=DIRECTION('',(0.499999999999993,0.,0.866025403784442));
#399=DIRECTION('',(-0.866025403784436,0.500000000000004,-3.85494105772624E-16));
#400=DIRECTION('',(-0.866025403784436,0.500000000000004,-3.85494105772624E-16));
#401=DIRECTION('',(0.866025403784443,0.499999999999992,-3.85494105772624E-16));
#402=DIRECTION('',(0.866025403784443,0.499999999999992,-3.85494105772624E-16));
#403=DIRECTION('',(0.,-1.,-3.85494105772624E-16));
#404=DIRECTION('',(-3.45241087638903E-15,-3.85494105772624E-16,1.));
#405=DIRECTION('',(1.,0.,3.4555691641458E-15));
#406=DIRECTION('',(0.480384461415262,-0.277350098112608,-0.832050294337846));
#407=DIRECTION('',(0.866025403784439,-1.92747052886312E-16,0.5));
#408=DIRECTION('',(0.5,0.,-0.866025403784439));
#409=DIRECTION('',(-3.73810077431601E-15,0.554700196225226,-0.832050294337846));
#410=DIRECTION('',(0.433012701892225,0.750000000000001,0.499999999999994));
#411=DIRECTION('',(2.40367621640036E-16,0.554700196225224,-0.832050294337847));
#412=DIRECTION('',(-0.433012701892223,-0.749999999999998,0.5));
#413=DIRECTION('',(9.62771529167128E-17,0.55470019622523,0.832050294337843));
#414=DIRECTION('',(0.433012701892215,-0.750000000000007,0.499999999999993));
#415=DIRECTION('',(-2.1618991319361E-16,0.55470019622522,0.83205029433785));
#416=DIRECTION('',(-0.433012701892212,0.750000000000004,0.5));
#417=DIRECTION('',(-2.83952548973954E-16,0.554700196225227,-0.832050294337845));
#418=DIRECTION('',(0.,0.,-1.));
#419=DIRECTION('',(1.,0.,0.));
#420=DIRECTION('',(0.,0.,-1.));
#421=DIRECTION('',(-1.,0.,0.));
#422=DIRECTION('',(0.,0.,-1.));
#423=DIRECTION('',(1.,0.,0.));
#424=DIRECTION('',(0.,0.,-1.));
#425=DIRECTION('',(-1.,0.,4.13465219275754E-17));
#426=DIRECTION('',(0.,0.,1.));
#427=DIRECTION('',(1.,0.,0.));
#428=DIRECTION('',(0.,0.,-1.));
#429=DIRECTION('',(-1.,0.,0.));
#430=DIRECTION('',(0.,0.,1.));
#431=DIRECTION('',(-1.,0.,0.));
#432=CARTESIAN_POINT('',(0.,0.,0.));
#433=CARTESIAN_POINT('',(0.,0.,0.));
#434=CARTESIAN_POINT('',(0.,0.,-6.1082531754731));
#435=CARTESIAN_POINT('',(7.9375,0.,-6.1082531754731));
#436=CARTESIAN_POINT('',(0.,0.,0.));
#437=CARTESIAN_POINT('',(7.9375,0.,0.));
#438=CARTESIAN_POINT('',(0.,0.,-1034.));
#439=CARTESIAN_POINT('',(0.,0.,-9.0000000000002));
#440=CARTESIAN_POINT('',(6.26794919243111,0.,-9.0000000000002));
#441=CARTESIAN_POINT('',(0.,0.,-10.0000000000001));
#442=CARTESIAN_POINT('',(6.,0.,-10.0000000000001));
#443=CARTESIAN_POINT('',(0.,0.,-10.0000000000001));
#444=CARTESIAN_POINT('',(0.,0.,-6.1082531754731));
#445=CARTESIAN_POINT('',(0.,0.,-46.3000000000001));
#446=CARTESIAN_POINT('',(5.71445282163714,1.82894203004997,-46.3000000000001));
#447=CARTESIAN_POINT('',(1.27331615074616,-5.86333232729043,-46.3000000000001));
#448=CARTESIAN_POINT('',(5.71445282163714,1.82894203004997,-46.3000000000001));
#449=CARTESIAN_POINT('',(5.66085003785992,1.99642168439144,-46.0023591460232));
#450=CARTESIAN_POINT('',(5.59994098877626,2.1613846523168,-45.7021659103083));
#451=CARTESIAN_POINT('',(5.53184329665982,2.32351237164768,-45.4000000000001));
#452=CARTESIAN_POINT('',(5.53184329665982,2.32351237164768,-45.4000000000001));
#453=CARTESIAN_POINT('',(0.,0.,-45.4000000000001));
#454=CARTESIAN_POINT('',(4.77814238818431,3.62896063883813,-45.4000000000001));
#455=CARTESIAN_POINT('',(4.77814238818431,3.62896063883813,-45.4000000000001));
#456=CARTESIAN_POINT('',(4.67178451064437,3.76899882981548,-45.7021659103083));
#457=CARTESIAN_POINT('',(4.55937691427916,3.90422909760496,-46.0023591460232));
#458=CARTESIAN_POINT('',(4.441136670891,4.03439029724036,-46.3000000000001));
#459=CARTESIAN_POINT('',(4.441136670891,4.03439029724036,-46.3000000000001));
#460=CARTESIAN_POINT('',(0.,0.,-46.3000000000001));
#461=CARTESIAN_POINT('',(-4.44113667089095,4.03439029724042,-46.3000000000001));
#462=CARTESIAN_POINT('',(-4.44113667089095,4.03439029724042,-46.3000000000001));
#463=CARTESIAN_POINT('',(-4.55937691427909,3.90422909760505,-46.0023591460232));
#464=CARTESIAN_POINT('',(-4.67178451064429,3.76899882981557,-45.7021659103083));
#465=CARTESIAN_POINT('',(-4.77814238818425,3.6289606388382,-45.4000000000001));
#466=CARTESIAN_POINT('',(-4.77814238818425,3.6289606388382,-45.4000000000001));
#467=CARTESIAN_POINT('',(0.,0.,-45.4000000000001));
#468=CARTESIAN_POINT('',(-5.53184329665978,2.32351237164776,-45.4000000000001));
#469=CARTESIAN_POINT('',(-5.53184329665978,2.32351237164776,-45.4000000000001));
#470=CARTESIAN_POINT('',(-5.59994098877623,2.16138465231686,-45.7021659103083));
#471=CARTESIAN_POINT('',(-5.6608500378599,1.99642168439151,-46.0023591460232));
#472=CARTESIAN_POINT('',(-5.71445282163712,1.82894203005005,-46.3000000000001));
#473=CARTESIAN_POINT('',(-5.71445282163712,1.82894203005005,-46.3000000000001));
#474=CARTESIAN_POINT('',(0.,0.,-46.3000000000001));
#475=CARTESIAN_POINT('',(-1.27331615074616,-5.86333232729043,-46.3000000000001));
#476=CARTESIAN_POINT('',(-1.27331615074616,-5.86333232729043,-46.3000000000001));
#477=CARTESIAN_POINT('',(-1.1014731235808,-5.90065078199652,-46.0023591460232));
#478=CARTESIAN_POINT('',(-0.928156478131932,-5.93038348213239,-45.7021659103083));
#479=CARTESIAN_POINT('',(-0.753700908475532,-5.95247301048591,-45.4000000000001));
#480=CARTESIAN_POINT('',(-0.753700908475532,-5.95247301048591,-45.4000000000001));
#481=CARTESIAN_POINT('',(0.,0.,-45.4000000000001));
#482=CARTESIAN_POINT('',(0.753700908475526,-5.95247301048591,-45.4000000000001));
#483=CARTESIAN_POINT('',(0.753700908475526,-5.95247301048591,-45.4000000000001));
#484=CARTESIAN_POINT('',(0.928156478131896,-5.9303834821324,-45.7021659103083));
#485=CARTESIAN_POINT('',(1.10147312358076,-5.90065078199653,-46.0023591460232));
#486=CARTESIAN_POINT('',(1.27331615074616,-5.86333232729043,-46.3000000000001));
#487=CARTESIAN_POINT('',(0.,0.,-1034.));
#488=CARTESIAN_POINT('',(0.,0.,0.));
#489=CARTESIAN_POINT('',(1.27331615074616,1.22291979375512E-15,-46.3));
#490=CARTESIAN_POINT('',(1.27331615074613,-0.735149422396787,-46.3));
#491=CARTESIAN_POINT('',(0.63665807537307,-1.10272413359519,-46.3));
#492=CARTESIAN_POINT('',(0.,1.50631556295124E-15,-46.3));
#493=CARTESIAN_POINT('',(-0.636658075373071,1.1027241335952,-46.3));
#494=CARTESIAN_POINT('',(1.47451495458029E-14,1.47029884479355,-46.3));
#495=CARTESIAN_POINT('',(0.636658075373083,1.10272413359519,-46.3));
#496=CARTESIAN_POINT('',(0.,1.50631556295124E-15,-46.3));
#497=CARTESIAN_POINT('',(-0.636658075373088,-1.10272413359519,-46.3));
#498=CARTESIAN_POINT('',(-1.27331615074613,-0.735149422396766,-46.3));
#499=CARTESIAN_POINT('',(-1.27331615074616,1.22291979375513E-15,-46.3));
#500=CARTESIAN_POINT('',(0.,1.50631556295124E-15,-46.3));
#501=CARTESIAN_POINT('',(-0.895575931773826,-0.517061005289352,-45.6457347486778));
#502=CARTESIAN_POINT('',(-0.753700908475535,-0.435149422396796,-45.4000000000001));
#503=CARTESIAN_POINT('',(-0.753700908475532,-1.5,-45.4000000000001));
#504=CARTESIAN_POINT('',(-0.753700908475532,-1.5,-45.4000000000001));
#505=CARTESIAN_POINT('',(-1.67588855991442,0.0972758664047925,-45.4000000000001));
#506=CARTESIAN_POINT('',(-0.922187651438887,1.40272413359523,-45.4000000000001));
#507=CARTESIAN_POINT('',(1.88651178012478E-14,0.870298844793624,-45.4000000000001));
#508=CARTESIAN_POINT('',(0.922187651438909,1.40272413359521,-45.4000000000001));
#509=CARTESIAN_POINT('',(1.67588855991443,0.0972758664047639,-45.4000000000001));
#510=CARTESIAN_POINT('',(0.753700908475522,-0.435149422396828,-45.4000000000001));
#511=CARTESIAN_POINT('',(0.753700908475526,-1.5,-45.4000000000001));
#512=CARTESIAN_POINT('',(0.753700908475526,-1.5,-45.4000000000001));
#513=CARTESIAN_POINT('',(0.89557593177382,-0.517061005289382,-45.6457347486778));
#514=CARTESIAN_POINT('',(1.30218366420567,-1.5,-46.3500000000001));
#515=CARTESIAN_POINT('',(1.74556549770166E-14,1.03412201057873,-45.6457347486778));
#516=CARTESIAN_POINT('',(-0.922187651438887,1.40272413359523,-45.4000000000001));
#517=CARTESIAN_POINT('',(-1.95012993777949,-0.377724133595204,-46.3500000000001));
#518=CARTESIAN_POINT('',(1.67588855991443,0.0972758664047639,-45.4000000000001));
#519=CARTESIAN_POINT('',(0.647946273573841,1.87772413359521,-46.3500000000001));
#520=CARTESIAN_POINT('',(0.,0.,48.));
#521=CARTESIAN_POINT('',(6.9375,0.,48.));
#522=CARTESIAN_POINT('',(0.,-6.9375,47.9999999999999));
#523=CARTESIAN_POINT('',(0.,0.,46.9999999999999));
#524=CARTESIAN_POINT('',(7.9375,0.,46.9999999999999));
#525=CARTESIAN_POINT('',(0.,0.,48.));
#526=CARTESIAN_POINT('',(0.,0.,0.));
#527=CARTESIAN_POINT('',(7.9375,0.,0.));
#528=CARTESIAN_POINT('',(0.,0.,-1034.));
#529=CARTESIAN_POINT('',(0.,0.,0.));
#530=MECHANICAL_DESIGN_GEOMETRIC_PRESENTATION_REPRESENTATION('',(#305,#306,
#307),#531);
#531=(
GEOMETRIC_REPRESENTATION_CONTEXT(3)
GLOBAL_UNCERTAINTY_ASSIGNED_CONTEXT((#532))
GLOBAL_UNIT_ASSIGNED_CONTEXT((#538,#534,#533))
REPRESENTATION_CONTEXT('335.14-062512','TOP_LEVEL_ASSEMBLY_PART')
);
#532=UNCERTAINTY_MEASURE_WITH_UNIT(LENGTH_MEASURE(2.E-5),#538,
'DISTANCE_ACCURACY_VALUE','Maximum Tolerance applied to model');
#533=(
NAMED_UNIT(*)
SI_UNIT($,.STERADIAN.)
SOLID_ANGLE_UNIT()
);
#534=(
CONVERSION_BASED_UNIT('DEGREE',#536)
NAMED_UNIT(#535)
PLANE_ANGLE_UNIT()
);
#535=DIMENSIONAL_EXPONENTS(0.,0.,0.,0.,0.,0.,0.);
#536=PLANE_ANGLE_MEASURE_WITH_UNIT(PLANE_ANGLE_MEASURE(0.0174532925),#537);
#537=(
NAMED_UNIT(*)
PLANE_ANGLE_UNIT()
SI_UNIT($,.RADIAN.)
);
#538=(
LENGTH_UNIT()
NAMED_UNIT(*)
SI_UNIT(.MILLI.,.METRE.)
);
ENDSEC;
END-ISO-10303-21;
