ISO-10303-21;
HEADER;
/* Generated by software containing ST-Developer
 * from STEP Tools, Inc. (www.steptools.com) 
 */
/* OPTION: using custom schema-name function */

FILE_DESCRIPTION(
/* description */ (''),
/* implementation_level */ '2;1');

FILE_NAME(
/* name */ '335.14-062509.0-126-394-E.stp',
/* time_stamp */ '2018-02-19T13:39:16+05:00',
/* author */ (''),
/* organization */ (''),
/* preprocessor_version */ 'ST-DEVELOPER v16',
/* originating_system */ 'SIEMENS PLM Software NX 11.0',
/* authorisation */ '');

FILE_SCHEMA (('AUTOMOTIVE_DESIGN { 1 0 10303 214 3 1 1 1 }'));
ENDSEC;

DATA;
#10=CONSTRUCTIVE_GEOMETRY_REPRESENTATION_RELATIONSHIP(
'supplemental geometry','',#24,#11);
#11=CONSTRUCTIVE_GEOMETRY_REPRESENTATION('supplemental geometry',(#349),
#591);
#12=SHAPE_REPRESENTATION_RELATIONSHIP('None',
'relationship between 335.14-062509.0-126-394-E-None and 335.14-062509.
0-126-394-E-None',#24,#13);
#13=ADVANCED_BREP_SHAPE_REPRESENTATION('335.14-062509.0-126-394-E-None',
(#35,#36),#591);
#14=SHAPE_DEFINITION_REPRESENTATION(#15,#24);
#15=PRODUCT_DEFINITION_SHAPE('','',#16);
#16=PRODUCT_DEFINITION(' ','',#18,#17);
#17=PRODUCT_DEFINITION_CONTEXT('part definition',#23,'design');
#18=PRODUCT_DEFINITION_FORMATION_WITH_SPECIFIED_SOURCE(' ',' ',#20,
 .NOT_KNOWN.);
#19=PRODUCT_RELATED_PRODUCT_CATEGORY('part','',(#20));
#20=PRODUCT('335.14-062509.0-126-394-E','335.14-062509.0-126-394-E',' ',
(#21));
#21=PRODUCT_CONTEXT(' ',#23,'mechanical');
#22=APPLICATION_PROTOCOL_DEFINITION('international standard',
'automotive_design',2010,#23);
#23=APPLICATION_CONTEXT(
'core data for automotive mechanical design processes');
#24=SHAPE_REPRESENTATION('335.14-062509.0-126-394-E-None',(#348),#591);
#25=SURFACE_STYLE_USAGE(.BOTH.,#27);
#26=SURFACE_STYLE_USAGE(.BOTH.,#28);
#27=SURFACE_SIDE_STYLE('',(#29));
#28=SURFACE_SIDE_STYLE('',(#30));
#29=SURFACE_STYLE_FILL_AREA(#31);
#30=SURFACE_STYLE_FILL_AREA(#32);
#31=FILL_AREA_STYLE('',(#33));
#32=FILL_AREA_STYLE('',(#34));
#33=FILL_AREA_STYLE_COLOUR('',#346);
#34=FILL_AREA_STYLE_COLOUR('',#346);
#35=MANIFOLD_SOLID_BREP('NOCUT',#37);
#36=MANIFOLD_SOLID_BREP('NOCUT',#38);
#37=CLOSED_SHELL('',(#106,#107,#108,#109,#110,#111,#112,#113,#114,#115,
#116,#117,#118,#119,#120,#121,#122,#123));
#38=CLOSED_SHELL('',(#124,#125,#126,#127));
#39=FACE_OUTER_BOUND('',#164,.T.);
#40=FACE_OUTER_BOUND('',#165,.T.);
#41=FACE_OUTER_BOUND('',#166,.T.);
#42=FACE_OUTER_BOUND('',#167,.T.);
#43=FACE_OUTER_BOUND('',#168,.T.);
#44=FACE_OUTER_BOUND('',#169,.T.);
#45=FACE_OUTER_BOUND('',#170,.T.);
#46=FACE_OUTER_BOUND('',#171,.T.);
#47=FACE_OUTER_BOUND('',#172,.T.);
#48=FACE_OUTER_BOUND('',#173,.T.);
#49=FACE_OUTER_BOUND('',#174,.T.);
#50=FACE_OUTER_BOUND('',#175,.T.);
#51=FACE_OUTER_BOUND('',#180,.T.);
#52=LINE('',#548,#67);
#53=LINE('',#550,#68);
#54=LINE('',#552,#69);
#55=LINE('',#554,#70);
#56=LINE('',#556,#71);
#57=LINE('',#558,#72);
#58=LINE('',#560,#73);
#59=LINE('',#562,#74);
#60=LINE('',#564,#75);
#61=LINE('',#566,#76);
#62=LINE('',#568,#77);
#63=LINE('',#569,#78);
#64=LINE('',#571,#79);
#65=LINE('',#572,#80);
#66=LINE('',#575,#81);
#67=VECTOR('',#432,1.);
#68=VECTOR('',#433,1.);
#69=VECTOR('',#436,1.);
#70=VECTOR('',#437,1.);
#71=VECTOR('',#440,1.);
#72=VECTOR('',#441,1.);
#73=VECTOR('',#444,1.);
#74=VECTOR('',#445,1.);
#75=VECTOR('',#448,1.);
#76=VECTOR('',#449,1.);
#77=VECTOR('',#452,1.);
#78=VECTOR('',#453,1.);
#79=VECTOR('',#454,1.);
#80=VECTOR('',#455,1.);
#81=VECTOR('',#460,1.);
#82=(
BOUNDED_CURVE()
B_SPLINE_CURVE(3,(#508,#509,#510,#511),.UNSPECIFIED.,.F.,.F.)
B_SPLINE_CURVE_WITH_KNOTS((4,4),(0.,1.),.UNSPECIFIED.)
CURVE()
GEOMETRIC_REPRESENTATION_ITEM()
RATIONAL_B_SPLINE_CURVE((1.,0.998833702019981,0.998833702019981,1.))
REPRESENTATION_ITEM('')
);
#83=(
BOUNDED_CURVE()
B_SPLINE_CURVE(3,(#515,#516,#517,#518),.UNSPECIFIED.,.F.,.F.)
B_SPLINE_CURVE_WITH_KNOTS((4,4),(0.,1.),.UNSPECIFIED.)
CURVE()
GEOMETRIC_REPRESENTATION_ITEM()
RATIONAL_B_SPLINE_CURVE((1.,0.998833702019981,0.998833702019981,1.))
REPRESENTATION_ITEM('')
);
#84=(
BOUNDED_CURVE()
B_SPLINE_CURVE(3,(#522,#523,#524,#525),.UNSPECIFIED.,.F.,.F.)
B_SPLINE_CURVE_WITH_KNOTS((4,4),(0.,1.),.UNSPECIFIED.)
CURVE()
GEOMETRIC_REPRESENTATION_ITEM()
RATIONAL_B_SPLINE_CURVE((1.,0.998833702019981,0.998833702019981,1.))
REPRESENTATION_ITEM('')
);
#85=(
BOUNDED_CURVE()
B_SPLINE_CURVE(3,(#529,#530,#531,#532),.UNSPECIFIED.,.F.,.F.)
B_SPLINE_CURVE_WITH_KNOTS((4,4),(0.,1.),.UNSPECIFIED.)
CURVE()
GEOMETRIC_REPRESENTATION_ITEM()
RATIONAL_B_SPLINE_CURVE((1.,0.998833702019981,0.998833702019981,1.))
REPRESENTATION_ITEM('')
);
#86=(
BOUNDED_CURVE()
B_SPLINE_CURVE(3,(#536,#537,#538,#539),.UNSPECIFIED.,.F.,.F.)
B_SPLINE_CURVE_WITH_KNOTS((4,4),(0.,1.),.UNSPECIFIED.)
CURVE()
GEOMETRIC_REPRESENTATION_ITEM()
RATIONAL_B_SPLINE_CURVE((1.,0.998833702019981,0.998833702019981,1.))
REPRESENTATION_ITEM('')
);
#87=(
BOUNDED_CURVE()
B_SPLINE_CURVE(3,(#543,#544,#545,#546),.UNSPECIFIED.,.F.,.F.)
B_SPLINE_CURVE_WITH_KNOTS((4,4),(0.,1.),.UNSPECIFIED.)
CURVE()
GEOMETRIC_REPRESENTATION_ITEM()
RATIONAL_B_SPLINE_CURVE((1.,0.998833702019981,0.998833702019981,1.))
REPRESENTATION_ITEM('')
);
#88=PLANE('',#362);
#89=PLANE('',#370);
#90=PLANE('',#371);
#91=PLANE('',#372);
#92=PLANE('',#373);
#93=PLANE('',#374);
#94=PLANE('',#375);
#95=PLANE('',#376);
#96=PLANE('',#377);
#97=PLANE('',#378);
#98=PLANE('',#379);
#99=PLANE('',#380);
#100=PLANE('',#382);
#101=PLANE('',#387);
#102=TOROIDAL_SURFACE('',#360,6.5,2.);
#103=CONICAL_SURFACE('',#355,1.14440758609867,20.);
#104=CONICAL_SURFACE('',#357,7.9375,30.0000000000003);
#105=CONICAL_SURFACE('',#384,6.9375,45.);
#106=ADVANCED_FACE('',(#132,#133),#128,.T.);
#107=ADVANCED_FACE('',(#134,#135),#103,.T.);
#108=ADVANCED_FACE('',(#136,#137),#104,.T.);
#109=ADVANCED_FACE('',(#138,#139),#129,.T.);
#110=ADVANCED_FACE('',(#140,#141),#102,.F.);
#111=ADVANCED_FACE('',(#142,#143),#88,.F.);
#112=ADVANCED_FACE('',(#144,#145),#130,.T.);
#113=ADVANCED_FACE('',(#39),#89,.F.);
#114=ADVANCED_FACE('',(#40),#90,.F.);
#115=ADVANCED_FACE('',(#41),#91,.F.);
#116=ADVANCED_FACE('',(#42),#92,.F.);
#117=ADVANCED_FACE('',(#43),#93,.F.);
#118=ADVANCED_FACE('',(#44),#94,.F.);
#119=ADVANCED_FACE('',(#45),#95,.F.);
#120=ADVANCED_FACE('',(#46),#96,.F.);
#121=ADVANCED_FACE('',(#47),#97,.F.);
#122=ADVANCED_FACE('',(#48),#98,.F.);
#123=ADVANCED_FACE('',(#49),#99,.T.);
#124=ADVANCED_FACE('',(#50),#100,.F.);
#125=ADVANCED_FACE('',(#146,#147),#105,.T.);
#126=ADVANCED_FACE('',(#148,#149),#131,.T.);
#127=ADVANCED_FACE('',(#51),#101,.F.);
#128=CYLINDRICAL_SURFACE('',#352,7.9375);
#129=CYLINDRICAL_SURFACE('',#359,4.5);
#130=CYLINDRICAL_SURFACE('',#369,4.5);
#131=CYLINDRICAL_SURFACE('',#386,7.9375);
#132=FACE_BOUND('',#150,.T.);
#133=FACE_BOUND('',#151,.T.);
#134=FACE_BOUND('',#152,.T.);
#135=FACE_BOUND('',#153,.T.);
#136=FACE_BOUND('',#154,.T.);
#137=FACE_BOUND('',#155,.T.);
#138=FACE_BOUND('',#156,.T.);
#139=FACE_BOUND('',#157,.T.);
#140=FACE_BOUND('',#158,.T.);
#141=FACE_BOUND('',#159,.T.);
#142=FACE_BOUND('',#160,.T.);
#143=FACE_BOUND('',#161,.T.);
#144=FACE_BOUND('',#162,.T.);
#145=FACE_BOUND('',#163,.T.);
#146=FACE_BOUND('',#176,.T.);
#147=FACE_BOUND('',#177,.T.);
#148=FACE_BOUND('',#178,.T.);
#149=FACE_BOUND('',#179,.T.);
#150=EDGE_LOOP('',(#181));
#151=EDGE_LOOP('',(#182));
#152=EDGE_LOOP('',(#183));
#153=EDGE_LOOP('',(#184));
#154=EDGE_LOOP('',(#185));
#155=EDGE_LOOP('',(#186));
#156=EDGE_LOOP('',(#187));
#157=EDGE_LOOP('',(#188));
#158=EDGE_LOOP('',(#189));
#159=EDGE_LOOP('',(#190));
#160=EDGE_LOOP('',(#191));
#161=EDGE_LOOP('',(#192));
#162=EDGE_LOOP('',(#193,#194,#195,#196,#197,#198,#199,#200,#201,#202,#203,
#204));
#163=EDGE_LOOP('',(#205));
#164=EDGE_LOOP('',(#206,#207,#208));
#165=EDGE_LOOP('',(#209,#210,#211));
#166=EDGE_LOOP('',(#212,#213,#214));
#167=EDGE_LOOP('',(#215,#216,#217,#218));
#168=EDGE_LOOP('',(#219,#220,#221,#222));
#169=EDGE_LOOP('',(#223,#224,#225,#226,#227,#228,#229,#230,#231));
#170=EDGE_LOOP('',(#232,#233,#234,#235));
#171=EDGE_LOOP('',(#236,#237,#238,#239));
#172=EDGE_LOOP('',(#240,#241,#242,#243));
#173=EDGE_LOOP('',(#244,#245,#246,#247));
#174=EDGE_LOOP('',(#248));
#175=EDGE_LOOP('',(#249));
#176=EDGE_LOOP('',(#250));
#177=EDGE_LOOP('',(#251));
#178=EDGE_LOOP('',(#252));
#179=EDGE_LOOP('',(#253));
#180=EDGE_LOOP('',(#254));
#181=ORIENTED_EDGE('',*,*,#283,.F.);
#182=ORIENTED_EDGE('',*,*,#284,.T.);
#183=ORIENTED_EDGE('',*,*,#285,.F.);
#184=ORIENTED_EDGE('',*,*,#286,.T.);
#185=ORIENTED_EDGE('',*,*,#283,.T.);
#186=ORIENTED_EDGE('',*,*,#287,.F.);
#187=ORIENTED_EDGE('',*,*,#285,.T.);
#188=ORIENTED_EDGE('',*,*,#288,.T.);
#189=ORIENTED_EDGE('',*,*,#287,.T.);
#190=ORIENTED_EDGE('',*,*,#288,.F.);
#191=ORIENTED_EDGE('',*,*,#286,.F.);
#192=ORIENTED_EDGE('',*,*,#289,.F.);
#193=ORIENTED_EDGE('',*,*,#290,.F.);
#194=ORIENTED_EDGE('',*,*,#291,.T.);
#195=ORIENTED_EDGE('',*,*,#292,.T.);
#196=ORIENTED_EDGE('',*,*,#293,.T.);
#197=ORIENTED_EDGE('',*,*,#294,.F.);
#198=ORIENTED_EDGE('',*,*,#295,.T.);
#199=ORIENTED_EDGE('',*,*,#296,.T.);
#200=ORIENTED_EDGE('',*,*,#297,.T.);
#201=ORIENTED_EDGE('',*,*,#298,.F.);
#202=ORIENTED_EDGE('',*,*,#299,.T.);
#203=ORIENTED_EDGE('',*,*,#300,.T.);
#204=ORIENTED_EDGE('',*,*,#301,.T.);
#205=ORIENTED_EDGE('',*,*,#289,.T.);
#206=ORIENTED_EDGE('',*,*,#302,.T.);
#207=ORIENTED_EDGE('',*,*,#303,.T.);
#208=ORIENTED_EDGE('',*,*,#294,.T.);
#209=ORIENTED_EDGE('',*,*,#304,.T.);
#210=ORIENTED_EDGE('',*,*,#305,.T.);
#211=ORIENTED_EDGE('',*,*,#290,.T.);
#212=ORIENTED_EDGE('',*,*,#306,.T.);
#213=ORIENTED_EDGE('',*,*,#307,.T.);
#214=ORIENTED_EDGE('',*,*,#298,.T.);
#215=ORIENTED_EDGE('',*,*,#308,.T.);
#216=ORIENTED_EDGE('',*,*,#304,.F.);
#217=ORIENTED_EDGE('',*,*,#301,.F.);
#218=ORIENTED_EDGE('',*,*,#309,.F.);
#219=ORIENTED_EDGE('',*,*,#310,.F.);
#220=ORIENTED_EDGE('',*,*,#311,.T.);
#221=ORIENTED_EDGE('',*,*,#299,.F.);
#222=ORIENTED_EDGE('',*,*,#307,.F.);
#223=ORIENTED_EDGE('',*,*,#311,.F.);
#224=ORIENTED_EDGE('',*,*,#312,.T.);
#225=ORIENTED_EDGE('',*,*,#296,.F.);
#226=ORIENTED_EDGE('',*,*,#313,.F.);
#227=ORIENTED_EDGE('',*,*,#314,.T.);
#228=ORIENTED_EDGE('',*,*,#292,.F.);
#229=ORIENTED_EDGE('',*,*,#315,.F.);
#230=ORIENTED_EDGE('',*,*,#309,.T.);
#231=ORIENTED_EDGE('',*,*,#300,.F.);
#232=ORIENTED_EDGE('',*,*,#310,.T.);
#233=ORIENTED_EDGE('',*,*,#306,.F.);
#234=ORIENTED_EDGE('',*,*,#297,.F.);
#235=ORIENTED_EDGE('',*,*,#312,.F.);
#236=ORIENTED_EDGE('',*,*,#316,.F.);
#237=ORIENTED_EDGE('',*,*,#313,.T.);
#238=ORIENTED_EDGE('',*,*,#295,.F.);
#239=ORIENTED_EDGE('',*,*,#303,.F.);
#240=ORIENTED_EDGE('',*,*,#314,.F.);
#241=ORIENTED_EDGE('',*,*,#316,.T.);
#242=ORIENTED_EDGE('',*,*,#302,.F.);
#243=ORIENTED_EDGE('',*,*,#293,.F.);
#244=ORIENTED_EDGE('',*,*,#308,.F.);
#245=ORIENTED_EDGE('',*,*,#315,.T.);
#246=ORIENTED_EDGE('',*,*,#291,.F.);
#247=ORIENTED_EDGE('',*,*,#305,.F.);
#248=ORIENTED_EDGE('',*,*,#284,.F.);
#249=ORIENTED_EDGE('',*,*,#317,.F.);
#250=ORIENTED_EDGE('',*,*,#318,.F.);
#251=ORIENTED_EDGE('',*,*,#317,.T.);
#252=ORIENTED_EDGE('',*,*,#319,.T.);
#253=ORIENTED_EDGE('',*,*,#318,.T.);
#254=ORIENTED_EDGE('',*,*,#319,.F.);
#255=VERTEX_POINT('',#486);
#256=VERTEX_POINT('',#488);
#257=VERTEX_POINT('',#491);
#258=VERTEX_POINT('',#493);
#259=VERTEX_POINT('',#496);
#260=VERTEX_POINT('',#499);
#261=VERTEX_POINT('',#503);
#262=VERTEX_POINT('',#506);
#263=VERTEX_POINT('',#507);
#264=VERTEX_POINT('',#512);
#265=VERTEX_POINT('',#514);
#266=VERTEX_POINT('',#519);
#267=VERTEX_POINT('',#521);
#268=VERTEX_POINT('',#526);
#269=VERTEX_POINT('',#528);
#270=VERTEX_POINT('',#533);
#271=VERTEX_POINT('',#535);
#272=VERTEX_POINT('',#540);
#273=VERTEX_POINT('',#542);
#274=VERTEX_POINT('',#549);
#275=VERTEX_POINT('',#553);
#276=VERTEX_POINT('',#557);
#277=VERTEX_POINT('',#561);
#278=VERTEX_POINT('',#565);
#279=VERTEX_POINT('',#570);
#280=VERTEX_POINT('',#581);
#281=VERTEX_POINT('',#584);
#282=VERTEX_POINT('',#587);
#283=EDGE_CURVE('',#255,#255,#320,.T.);
#284=EDGE_CURVE('',#256,#256,#321,.T.);
#285=EDGE_CURVE('',#257,#257,#322,.T.);
#286=EDGE_CURVE('',#258,#258,#323,.T.);
#287=EDGE_CURVE('',#259,#259,#324,.T.);
#288=EDGE_CURVE('',#260,#260,#325,.T.);
#289=EDGE_CURVE('',#261,#261,#326,.T.);
#290=EDGE_CURVE('',#262,#263,#327,.T.);
#291=EDGE_CURVE('',#262,#264,#82,.T.);
#292=EDGE_CURVE('',#264,#265,#328,.T.);
#293=EDGE_CURVE('',#265,#266,#83,.T.);
#294=EDGE_CURVE('',#267,#266,#329,.T.);
#295=EDGE_CURVE('',#267,#268,#84,.T.);
#296=EDGE_CURVE('',#268,#269,#330,.T.);
#297=EDGE_CURVE('',#269,#270,#85,.T.);
#298=EDGE_CURVE('',#271,#270,#331,.T.);
#299=EDGE_CURVE('',#271,#272,#86,.T.);
#300=EDGE_CURVE('',#272,#273,#332,.T.);
#301=EDGE_CURVE('',#273,#263,#87,.T.);
#302=EDGE_CURVE('',#266,#274,#52,.T.);
#303=EDGE_CURVE('',#274,#267,#53,.T.);
#304=EDGE_CURVE('',#263,#275,#54,.T.);
#305=EDGE_CURVE('',#275,#262,#55,.T.);
#306=EDGE_CURVE('',#270,#276,#56,.T.);
#307=EDGE_CURVE('',#276,#271,#57,.T.);
#308=EDGE_CURVE('',#277,#275,#58,.T.);
#309=EDGE_CURVE('',#277,#273,#59,.T.);
#310=EDGE_CURVE('',#278,#276,#60,.T.);
#311=EDGE_CURVE('',#278,#272,#61,.T.);
#312=EDGE_CURVE('',#278,#269,#62,.T.);
#313=EDGE_CURVE('',#279,#268,#63,.T.);
#314=EDGE_CURVE('',#279,#265,#64,.T.);
#315=EDGE_CURVE('',#277,#264,#65,.T.);
#316=EDGE_CURVE('',#279,#274,#66,.T.);
#317=EDGE_CURVE('',#280,#280,#333,.T.);
#318=EDGE_CURVE('',#281,#281,#334,.T.);
#319=EDGE_CURVE('',#282,#282,#335,.T.);
#320=CIRCLE('',#350,7.9375);
#321=CIRCLE('',#351,7.9375);
#322=CIRCLE('',#353,4.5);
#323=CIRCLE('',#354,4.48935822227527);
#324=CIRCLE('',#356,4.76794919243112);
#325=CIRCLE('',#358,4.5);
#326=CIRCLE('',#361,4.5);
#327=CIRCLE('',#363,4.5);
#328=CIRCLE('',#364,4.5);
#329=CIRCLE('',#365,4.5);
#330=CIRCLE('',#366,4.5);
#331=CIRCLE('',#367,4.5);
#332=CIRCLE('',#368,4.5);
#333=CIRCLE('',#381,6.9375);
#334=CIRCLE('',#383,7.9375);
#335=CIRCLE('',#385,7.9375);
#336=PRESENTATION_LAYER_ASSIGNMENT('1','Layer 1',(#349,#36));
#337=PRESENTATION_LAYER_ASSIGNMENT('2','Layer 2',(#35));
#338=STYLED_ITEM('',(#341),#349);
#339=STYLED_ITEM('',(#342),#35);
#340=STYLED_ITEM('',(#343),#36);
#341=PRESENTATION_STYLE_ASSIGNMENT((#344));
#342=PRESENTATION_STYLE_ASSIGNMENT((#25));
#343=PRESENTATION_STYLE_ASSIGNMENT((#26));
#344=CURVE_STYLE('',#347,POSITIVE_LENGTH_MEASURE(0.13),#345);
#345=COLOUR_RGB('Strong Stone',0.576470588235294,0.54508278019379,0.392156862745098);
#346=COLOUR_RGB('Medium Gray',0.490196078431373,0.490196078431373,0.490196078431373);
#347=DRAUGHTING_PRE_DEFINED_CURVE_FONT('continuous');
#348=AXIS2_PLACEMENT_3D('',#483,#388,#389);
#349=AXIS2_PLACEMENT_3D('',#484,#390,#391);
#350=AXIS2_PLACEMENT_3D('',#485,#392,#393);
#351=AXIS2_PLACEMENT_3D('',#487,#394,#395);
#352=AXIS2_PLACEMENT_3D('',#489,#396,#397);
#353=AXIS2_PLACEMENT_3D('',#490,#398,#399);
#354=AXIS2_PLACEMENT_3D('',#492,#400,#401);
#355=AXIS2_PLACEMENT_3D('',#494,#402,#403);
#356=AXIS2_PLACEMENT_3D('',#495,#404,#405);
#357=AXIS2_PLACEMENT_3D('',#497,#406,#407);
#358=AXIS2_PLACEMENT_3D('',#498,#408,#409);
#359=AXIS2_PLACEMENT_3D('',#500,#410,#411);
#360=AXIS2_PLACEMENT_3D('',#501,#412,#413);
#361=AXIS2_PLACEMENT_3D('',#502,#414,#415);
#362=AXIS2_PLACEMENT_3D('',#504,#416,#417);
#363=AXIS2_PLACEMENT_3D('',#505,#418,#419);
#364=AXIS2_PLACEMENT_3D('',#513,#420,#421);
#365=AXIS2_PLACEMENT_3D('',#520,#422,#423);
#366=AXIS2_PLACEMENT_3D('',#527,#424,#425);
#367=AXIS2_PLACEMENT_3D('',#534,#426,#427);
#368=AXIS2_PLACEMENT_3D('',#541,#428,#429);
#369=AXIS2_PLACEMENT_3D('',#547,#430,#431);
#370=AXIS2_PLACEMENT_3D('',#551,#434,#435);
#371=AXIS2_PLACEMENT_3D('',#555,#438,#439);
#372=AXIS2_PLACEMENT_3D('',#559,#442,#443);
#373=AXIS2_PLACEMENT_3D('',#563,#446,#447);
#374=AXIS2_PLACEMENT_3D('',#567,#450,#451);
#375=AXIS2_PLACEMENT_3D('',#573,#456,#457);
#376=AXIS2_PLACEMENT_3D('',#574,#458,#459);
#377=AXIS2_PLACEMENT_3D('',#576,#461,#462);
#378=AXIS2_PLACEMENT_3D('',#577,#463,#464);
#379=AXIS2_PLACEMENT_3D('',#578,#465,#466);
#380=AXIS2_PLACEMENT_3D('',#579,#467,#468);
#381=AXIS2_PLACEMENT_3D('',#580,#469,#470);
#382=AXIS2_PLACEMENT_3D('',#582,#471,#472);
#383=AXIS2_PLACEMENT_3D('',#583,#473,#474);
#384=AXIS2_PLACEMENT_3D('',#585,#475,#476);
#385=AXIS2_PLACEMENT_3D('',#586,#477,#478);
#386=AXIS2_PLACEMENT_3D('',#588,#479,#480);
#387=AXIS2_PLACEMENT_3D('',#589,#481,#482);
#388=DIRECTION('',(0.,0.,1.));
#389=DIRECTION('',(1.,0.,0.));
#390=DIRECTION('',(0.,0.,1.));
#391=DIRECTION('',(1.,0.,0.));
#392=DIRECTION('',(0.,0.,-1.));
#393=DIRECTION('',(1.,0.,0.));
#394=DIRECTION('',(0.,0.,-1.));
#395=DIRECTION('',(1.,0.,0.));
#396=DIRECTION('',(0.,0.,-1.));
#397=DIRECTION('',(-1.,0.,0.));
#398=DIRECTION('',(0.,-1.33440267382832E-16,1.));
#399=DIRECTION('',(0.,-1.,0.));
#400=DIRECTION('',(0.,0.,1.));
#401=DIRECTION('',(-1.,0.,0.));
#402=DIRECTION('',(0.,-1.33440267382832E-16,1.));
#403=DIRECTION('',(0.,1.,-1.90046990958916E-17));
#404=DIRECTION('',(0.,0.,-1.));
#405=DIRECTION('',(1.,0.,0.));
#406=DIRECTION('',(0.,0.,1.));
#407=DIRECTION('',(1.,0.,-4.14943382420257E-17));
#408=DIRECTION('',(0.,0.,-1.));
#409=DIRECTION('',(1.,0.,0.));
#410=DIRECTION('',(0.,0.,-1.));
#411=DIRECTION('',(-1.,0.,0.));
#412=DIRECTION('',(0.,0.,-1.));
#413=DIRECTION('',(-1.,0.,0.));
#414=DIRECTION('',(0.,0.,-1.));
#415=DIRECTION('',(1.,0.,0.));
#416=DIRECTION('',(0.,0.,-1.));
#417=DIRECTION('',(1.,0.,0.));
#418=DIRECTION('',(0.,0.,-1.));
#419=DIRECTION('',(1.,0.,0.));
#420=DIRECTION('',(4.89550233456961E-15,-8.4792587720468E-15,1.));
#421=DIRECTION('',(3.79804270261903E-30,-1.,-7.70988211545248E-15));
#422=DIRECTION('',(0.,0.,-1.));
#423=DIRECTION('',(1.,0.,0.));
#424=DIRECTION('',(4.89550233456973E-15,8.47925877204673E-15,1.));
#425=DIRECTION('',(-3.79804270262018E-30,-1.,7.70988211545248E-15));
#426=DIRECTION('',(0.,0.,-1.));
#427=DIRECTION('',(1.,0.,0.));
#428=DIRECTION('',(-9.79100466913938E-15,0.,1.));
#429=DIRECTION('',(-1.,0.,-9.25185853854297E-15));
#430=DIRECTION('',(0.,0.,-1.));
#431=DIRECTION('',(-1.,0.,0.));
#432=DIRECTION('',(-0.866025403784443,-0.499999999999992,0.));
#433=DIRECTION('',(-0.866025403784436,0.500000000000004,0.));
#434=DIRECTION('',(0.,0.,1.));
#435=DIRECTION('',(1.,0.,0.));
#436=DIRECTION('',(0.,1.,0.));
#437=DIRECTION('',(0.866025403784443,0.499999999999992,0.));
#438=DIRECTION('',(0.,0.,1.));
#439=DIRECTION('',(1.,0.,0.));
#440=DIRECTION('',(0.866025403784436,-0.500000000000004,0.));
#441=DIRECTION('',(0.,-1.,0.));
#442=DIRECTION('',(0.,0.,1.));
#443=DIRECTION('',(1.,0.,0.));
#444=DIRECTION('',(0.480384461415268,-0.277350098112597,-0.832050294337846));
#445=DIRECTION('',(0.,-1.,0.));
#446=DIRECTION('',(0.866025403784436,0.,0.500000000000004));
#447=DIRECTION('',(0.500000000000004,0.,-0.866025403784436));
#448=DIRECTION('',(-0.480384461415248,-0.277350098112629,-0.832050294337847));
#449=DIRECTION('',(0.,-1.,0.));
#450=DIRECTION('',(-0.866025403784446,0.,0.499999999999988));
#451=DIRECTION('',(0.499999999999988,0.,0.866025403784446));
#452=DIRECTION('',(-0.866025403784436,0.500000000000004,0.));
#453=DIRECTION('',(-0.866025403784436,0.500000000000004,0.));
#454=DIRECTION('',(0.866025403784443,0.499999999999992,0.));
#455=DIRECTION('',(0.866025403784443,0.499999999999992,0.));
#456=DIRECTION('',(-9.79100466913938E-15,0.,1.));
#457=DIRECTION('',(1.,0.,9.7907792984131E-15));
#458=DIRECTION('',(-0.433012701892222,-0.749999999999996,0.500000000000004));
#459=DIRECTION('',(-4.81385764583564E-17,0.554700196225234,0.83205029433784));
#460=DIRECTION('',(-1.57155719508692E-14,0.554700196225224,-0.832050294337847));
#461=DIRECTION('',(0.433012701892226,0.750000000000004,0.499999999999988));
#462=DIRECTION('',(5.2583805365547E-17,0.554700196225218,-0.832050294337851));
#463=DIRECTION('',(-0.433012701892211,0.750000000000003,0.500000000000003));
#464=DIRECTION('',(2.16298333410858E-16,0.55470019622523,-0.832050294337843));
#465=DIRECTION('',(0.433012701892216,-0.75000000000001,0.499999999999988));
#466=DIRECTION('',(-2.1618991319361E-16,0.554700196225215,0.832050294337853));
#467=DIRECTION('',(0.,0.,1.));
#468=DIRECTION('',(-1.,0.,0.));
#469=DIRECTION('',(0.,0.,-1.));
#470=DIRECTION('',(1.,0.,0.));
#471=DIRECTION('',(0.,0.,-1.));
#472=DIRECTION('',(-1.,0.,0.));
#473=DIRECTION('',(0.,0.,-1.));
#474=DIRECTION('',(1.,0.,0.));
#475=DIRECTION('',(0.,0.,-1.));
#476=DIRECTION('',(-1.,0.,4.13465219275709E-17));
#477=DIRECTION('',(0.,0.,1.));
#478=DIRECTION('',(1.,0.,0.));
#479=DIRECTION('',(0.,0.,-1.));
#480=DIRECTION('',(-1.,0.,0.));
#481=DIRECTION('',(0.,0.,1.));
#482=DIRECTION('',(-1.,0.,0.));
#483=CARTESIAN_POINT('',(0.,0.,0.));
#484=CARTESIAN_POINT('',(0.,0.,0.));
#485=CARTESIAN_POINT('',(0.,0.,-13.5101769641198));
#486=CARTESIAN_POINT('',(7.9375,0.,-13.5101769641198));
#487=CARTESIAN_POINT('',(0.,0.,0.));
#488=CARTESIAN_POINT('',(7.9375,0.,0.));
#489=CARTESIAN_POINT('',(0.,0.,-952.));
#490=CARTESIAN_POINT('',(0.,9.34081871679812E-16,-27.));
#491=CARTESIAN_POINT('',(0.,-4.5,-27.));
#492=CARTESIAN_POINT('',(-1.44438001969523E-15,2.16432299247241E-15,-27.0292380440015));
#493=CARTESIAN_POINT('',(-4.48935822227527,2.16432299247241E-15,-27.0292380440015));
#494=CARTESIAN_POINT('',(0.,2.16432299247241E-15,-36.2194143860871));
#495=CARTESIAN_POINT('',(0.,0.,-18.9999999999999));
#496=CARTESIAN_POINT('',(4.76794919243112,0.,-18.9999999999999));
#497=CARTESIAN_POINT('',(0.,0.,-13.5101769641198));
#498=CARTESIAN_POINT('',(0.,0.,-20.0000000000001));
#499=CARTESIAN_POINT('',(4.5,0.,-20.0000000000001));
#500=CARTESIAN_POINT('',(0.,0.,-952.));
#501=CARTESIAN_POINT('',(0.,0.,-20.));
#502=CARTESIAN_POINT('',(0.,0.,-27.0292380440015));
#503=CARTESIAN_POINT('',(4.5,0.,-27.0292380440015));
#504=CARTESIAN_POINT('',(0.,0.,-27.0292380440015));
#505=CARTESIAN_POINT('',(0.,0.,-46.2499999999999));
#506=CARTESIAN_POINT('',(4.36328191640075,1.10080466841769,-46.2499999999999));
#507=CARTESIAN_POINT('',(1.22831615074623,-4.32911531768512,-46.2499999999999));
#508=CARTESIAN_POINT('',(4.36328191640075,1.10080466841769,-46.2499999999999));
#509=CARTESIAN_POINT('',(4.31984077994837,1.27299318700659,-45.9540960943796));
#510=CARTESIAN_POINT('',(4.26629489664545,1.4423119888315,-45.6537457964338));
#511=CARTESIAN_POINT('',(4.20283161785863,1.60816864536274,-45.35));
#512=CARTESIAN_POINT('',(4.20283161785863,1.60816864536274,-45.35));
#513=CARTESIAN_POINT('',(0.,0.,-45.3499999999999));
#514=CARTESIAN_POINT('',(3.49413070938311,2.83567462621258,-45.3499999999999));
#515=CARTESIAN_POINT('',(3.49413070938311,2.83567462621258,-45.3499999999999));
#516=CARTESIAN_POINT('',(3.38222627083366,2.97356376611512,-45.6537457964337));
#517=CARTESIAN_POINT('',(3.26236482876639,3.10459526223599,-45.9540960943796));
#518=CARTESIAN_POINT('',(3.13496576565457,3.22831064926748,-46.2499999999999));
#519=CARTESIAN_POINT('',(3.13496576565457,3.22831064926748,-46.2499999999999));
#520=CARTESIAN_POINT('',(0.,0.,-46.2499999999999));
#521=CARTESIAN_POINT('',(-3.13496576565457,3.22831064926749,-46.2499999999999));
#522=CARTESIAN_POINT('',(-3.13496576565457,3.22831064926749,-46.2499999999999));
#523=CARTESIAN_POINT('',(-3.26236482876638,3.104595262236,-45.9540960943796));
#524=CARTESIAN_POINT('',(-3.38222627083364,2.97356376611514,-45.6537457964338));
#525=CARTESIAN_POINT('',(-3.49413070938307,2.83567462621264,-45.35));
#526=CARTESIAN_POINT('',(-3.49413070938307,2.83567462621264,-45.35));
#527=CARTESIAN_POINT('',(0.,0.,-45.3499999999999));
#528=CARTESIAN_POINT('',(-4.2028316178586,1.6081686453628,-45.3499999999999));
#529=CARTESIAN_POINT('',(-4.2028316178586,1.6081686453628,-45.3499999999999));
#530=CARTESIAN_POINT('',(-4.26629489664546,1.44231198883148,-45.6537457964337));
#531=CARTESIAN_POINT('',(-4.31984077994838,1.27299318700655,-45.9540960943796));
#532=CARTESIAN_POINT('',(-4.36328191640077,1.10080466841763,-46.2499999999999));
#533=CARTESIAN_POINT('',(-4.36328191640077,1.10080466841763,-46.2499999999999));
#534=CARTESIAN_POINT('',(0.,0.,-46.2499999999999));
#535=CARTESIAN_POINT('',(-1.22831615074617,-4.32911531768514,-46.2499999999999));
#536=CARTESIAN_POINT('',(-1.22831615074617,-4.32911531768514,-46.2499999999999));
#537=CARTESIAN_POINT('',(-1.05747595118198,-4.37758844924256,-45.9540960943796));
#538=CARTESIAN_POINT('',(-0.884068625811801,-4.41587575494662,-45.6537457964338));
#539=CARTESIAN_POINT('',(-0.708700908475532,-4.4438432715754,-45.35));
#540=CARTESIAN_POINT('',(-0.708700908475532,-4.4438432715754,-45.35));
#541=CARTESIAN_POINT('',(0.,0.,-45.3499999999999));
#542=CARTESIAN_POINT('',(0.708700908475528,-4.4438432715754,-45.3499999999999));
#543=CARTESIAN_POINT('',(0.708700908475528,-4.4438432715754,-45.3499999999999));
#544=CARTESIAN_POINT('',(0.884068625811829,-4.41587575494661,-45.6537457964337));
#545=CARTESIAN_POINT('',(1.05747595118202,-4.37758844924255,-45.9540960943796));
#546=CARTESIAN_POINT('',(1.22831615074623,-4.32911531768512,-46.2499999999999));
#547=CARTESIAN_POINT('',(0.,0.,-952.));
#548=CARTESIAN_POINT('',(-0.614158075373103,1.06375299042495,-46.25));
#549=CARTESIAN_POINT('',(-1.0842021724855E-16,1.41833732056655,-46.25));
#550=CARTESIAN_POINT('',(0.614158075373105,1.06375299042492,-46.25));
#551=CARTESIAN_POINT('',(0.,1.61041054087877E-15,-46.25));
#552=CARTESIAN_POINT('',(1.22831615074623,1.61041054087877E-15,-46.25));
#553=CARTESIAN_POINT('',(1.2283161507462,-0.709168660283278,-46.25));
#554=CARTESIAN_POINT('',(0.614158075373091,-1.06375299042493,-46.25));
#555=CARTESIAN_POINT('',(0.,1.61041054087877E-15,-46.25));
#556=CARTESIAN_POINT('',(-0.614158075373119,-1.06375299042495,-46.25));
#557=CARTESIAN_POINT('',(-1.22831615074618,-0.709168660283283,-46.25));
#558=CARTESIAN_POINT('',(-1.2283161507462,1.61041054087877E-15,-46.25));
#559=CARTESIAN_POINT('',(0.,1.61041054087877E-15,-46.25));
#560=CARTESIAN_POINT('',(1.33368230925444,-0.770001840261484,-46.4324995399346));
#561=CARTESIAN_POINT('',(0.70870090847552,-0.409168660283293,-45.35));
#562=CARTESIAN_POINT('',(0.708700908475528,-1.3,-45.35));
#563=CARTESIAN_POINT('',(0.708700908475528,-1.3,-45.35));
#564=CARTESIAN_POINT('',(-1.33368230925442,-0.770001840261495,-46.4324995399346));
#565=CARTESIAN_POINT('',(-0.708700908475538,-0.409168660283269,-45.35));
#566=CARTESIAN_POINT('',(-0.708700908475532,-1.3,-45.35));
#567=CARTESIAN_POINT('',(-1.25718366420566,-1.3,-46.3));
#568=CARTESIAN_POINT('',(-1.48018347915753,0.0362470095750889,-45.35));
#569=CARTESIAN_POINT('',(-0.771482570681997,1.26375299042492,-45.35));
#570=CARTESIAN_POINT('',(1.72388145425195E-14,0.818337320566558,-45.35));
#571=CARTESIAN_POINT('',(0.771482570682017,1.26375299042491,-45.35));
#572=CARTESIAN_POINT('',(1.48018347915754,0.0362470095750646,-45.35));
#573=CARTESIAN_POINT('',(-0.708700908475532,-1.3,-45.35));
#574=CARTESIAN_POINT('',(-1.48018347915753,0.0362470095750889,-45.35));
#575=CARTESIAN_POINT('',(-3.79470760369927E-15,1.54000368052297,-46.4324995399346));
#576=CARTESIAN_POINT('',(-0.49724119281693,1.73875299042491,-46.3));
#577=CARTESIAN_POINT('',(0.771482570682017,1.26375299042491,-45.35));
#578=CARTESIAN_POINT('',(1.7544248570226,-0.438752990424925,-46.3));
#579=CARTESIAN_POINT('',(0.,0.,0.));
#580=CARTESIAN_POINT('',(0.,0.,48.));
#581=CARTESIAN_POINT('',(6.9375,0.,48.));
#582=CARTESIAN_POINT('',(0.,-6.9375,48.));
#583=CARTESIAN_POINT('',(0.,0.,47.));
#584=CARTESIAN_POINT('',(7.9375,0.,47.));
#585=CARTESIAN_POINT('',(0.,0.,48.));
#586=CARTESIAN_POINT('',(0.,0.,0.));
#587=CARTESIAN_POINT('',(7.9375,0.,0.));
#588=CARTESIAN_POINT('',(0.,0.,-952.));
#589=CARTESIAN_POINT('',(0.,0.,0.));
#590=MECHANICAL_DESIGN_GEOMETRIC_PRESENTATION_REPRESENTATION('',(#338,#339,
#340),#591);
#591=(
GEOMETRIC_REPRESENTATION_CONTEXT(3)
GLOBAL_UNCERTAINTY_ASSIGNED_CONTEXT((#592))
GLOBAL_UNIT_ASSIGNED_CONTEXT((#598,#594,#593))
REPRESENTATION_CONTEXT('335.14-062509','TOP_LEVEL_ASSEMBLY_PART')
);
#592=UNCERTAINTY_MEASURE_WITH_UNIT(LENGTH_MEASURE(2.E-5),#598,
'DISTANCE_ACCURACY_VALUE','Maximum Tolerance applied to model');
#593=(
NAMED_UNIT(*)
SI_UNIT($,.STERADIAN.)
SOLID_ANGLE_UNIT()
);
#594=(
CONVERSION_BASED_UNIT('DEGREE',#596)
NAMED_UNIT(#595)
PLANE_ANGLE_UNIT()
);
#595=DIMENSIONAL_EXPONENTS(0.,0.,0.,0.,0.,0.,0.);
#596=PLANE_ANGLE_MEASURE_WITH_UNIT(PLANE_ANGLE_MEASURE(0.0174532925),#597);
#597=(
NAMED_UNIT(*)
PLANE_ANGLE_UNIT()
SI_UNIT($,.RADIAN.)
);
#598=(
LENGTH_UNIT()
NAMED_UNIT(*)
SI_UNIT(.MILLI.,.METRE.)
);
ENDSEC;
END-ISO-10303-21;
