ISO-10303-21;
HEADER;
/* Generated by software containing ST-Developer
 * from STEP Tools, Inc. (www.steptools.com) 
 */
/* OPTION: using custom schema-name function */

FILE_DESCRIPTION(
/* description */ (''),
/* implementation_level */ '2;1');

FILE_NAME(
/* name */ '335.14-050008.0-220-472-E.stp',
/* time_stamp */ '2018-02-19T13:39:16+05:00',
/* author */ (''),
/* organization */ (''),
/* preprocessor_version */ 'ST-DEVELOPER v16',
/* originating_system */ 'SIEMENS PLM Software NX 11.0',
/* authorisation */ '');

FILE_SCHEMA (('AUTOMOTIVE_DESIGN { 1 0 10303 214 3 1 1 1 }'));
ENDSEC;

DATA;
#10=CONSTRUCTIVE_GEOMETRY_REPRESENTATION_RELATIONSHIP(
'supplemental geometry','',#24,#11);
#11=CONSTRUCTIVE_GEOMETRY_REPRESENTATION('supplemental geometry',(#349),
#591);
#12=SHAPE_REPRESENTATION_RELATIONSHIP('None',
'relationship between 335.14-050008.0-220-472-E-None and 335.14-050008.
0-220-472-E-None',#24,#13);
#13=ADVANCED_BREP_SHAPE_REPRESENTATION('335.14-050008.0-220-472-E-None',
(#35,#36),#591);
#14=SHAPE_DEFINITION_REPRESENTATION(#15,#24);
#15=PRODUCT_DEFINITION_SHAPE('','',#16);
#16=PRODUCT_DEFINITION(' ','',#18,#17);
#17=PRODUCT_DEFINITION_CONTEXT('part definition',#23,'design');
#18=PRODUCT_DEFINITION_FORMATION_WITH_SPECIFIED_SOURCE(' ',' ',#20,
 .NOT_KNOWN.);
#19=PRODUCT_RELATED_PRODUCT_CATEGORY('part','',(#20));
#20=PRODUCT('335.14-050008.0-220-472-E','335.14-050008.0-220-472-E',' ',
(#21));
#21=PRODUCT_CONTEXT(' ',#23,'mechanical');
#22=APPLICATION_PROTOCOL_DEFINITION('international standard',
'automotive_design',2010,#23);
#23=APPLICATION_CONTEXT(
'core data for automotive mechanical design processes');
#24=SHAPE_REPRESENTATION('335.14-050008.0-220-472-E-None',(#348),#591);
#25=SURFACE_STYLE_USAGE(.BOTH.,#27);
#26=SURFACE_STYLE_USAGE(.BOTH.,#28);
#27=SURFACE_SIDE_STYLE('',(#29));
#28=SURFACE_SIDE_STYLE('',(#30));
#29=SURFACE_STYLE_FILL_AREA(#31);
#30=SURFACE_STYLE_FILL_AREA(#32);
#31=FILL_AREA_STYLE('',(#33));
#32=FILL_AREA_STYLE('',(#34));
#33=FILL_AREA_STYLE_COLOUR('',#346);
#34=FILL_AREA_STYLE_COLOUR('',#346);
#35=MANIFOLD_SOLID_BREP('NOCUT',#37);
#36=MANIFOLD_SOLID_BREP('NOCUT',#38);
#37=CLOSED_SHELL('',(#106,#107,#108,#109,#110,#111,#112,#113,#114,#115,
#116,#117,#118,#119,#120,#121,#122,#123));
#38=CLOSED_SHELL('',(#124,#125,#126,#127));
#39=TOROIDAL_SURFACE('',#379,10.,6.);
#40=CONICAL_SURFACE('',#374,0.373758793403603,20.);
#41=CONICAL_SURFACE('',#376,6.35,30.000000000001);
#42=CONICAL_SURFACE('',#384,4.85,45.000000000001);
#43=FACE_OUTER_BOUND('',#156,.T.);
#44=FACE_OUTER_BOUND('',#157,.T.);
#45=FACE_OUTER_BOUND('',#158,.T.);
#46=FACE_OUTER_BOUND('',#159,.T.);
#47=FACE_OUTER_BOUND('',#160,.T.);
#48=FACE_OUTER_BOUND('',#161,.T.);
#49=FACE_OUTER_BOUND('',#162,.T.);
#50=FACE_OUTER_BOUND('',#163,.T.);
#51=FACE_OUTER_BOUND('',#164,.T.);
#52=FACE_OUTER_BOUND('',#165,.T.);
#53=FACE_OUTER_BOUND('',#174,.T.);
#54=FACE_OUTER_BOUND('',#175,.T.);
#55=FACE_OUTER_BOUND('',#180,.T.);
#56=LINE('',#538,#71);
#57=LINE('',#540,#72);
#58=LINE('',#542,#73);
#59=LINE('',#544,#74);
#60=LINE('',#546,#75);
#61=LINE('',#548,#76);
#62=LINE('',#550,#77);
#63=LINE('',#552,#78);
#64=LINE('',#554,#79);
#65=LINE('',#556,#80);
#66=LINE('',#558,#81);
#67=LINE('',#560,#82);
#68=LINE('',#561,#83);
#69=LINE('',#562,#84);
#70=LINE('',#565,#85);
#71=VECTOR('',#418,1.);
#72=VECTOR('',#419,1.);
#73=VECTOR('',#422,1.);
#74=VECTOR('',#423,1.);
#75=VECTOR('',#426,1.);
#76=VECTOR('',#427,1.);
#77=VECTOR('',#430,1.);
#78=VECTOR('',#431,1.);
#79=VECTOR('',#434,1.);
#80=VECTOR('',#435,1.);
#81=VECTOR('',#438,1.);
#82=VECTOR('',#439,1.);
#83=VECTOR('',#440,1.);
#84=VECTOR('',#441,1.);
#85=VECTOR('',#446,1.);
#86=(
BOUNDED_CURVE()
B_SPLINE_CURVE(3,(#498,#499,#500,#501),.UNSPECIFIED.,.F.,.F.)
B_SPLINE_CURVE_WITH_KNOTS((4,4),(0.,1.),.UNSPECIFIED.)
CURVE()
GEOMETRIC_REPRESENTATION_ITEM()
RATIONAL_B_SPLINE_CURVE((1.,0.99850407624205,0.99850407624205,1.))
REPRESENTATION_ITEM('')
);
#87=(
BOUNDED_CURVE()
B_SPLINE_CURVE(3,(#505,#506,#507,#508),.UNSPECIFIED.,.F.,.F.)
B_SPLINE_CURVE_WITH_KNOTS((4,4),(0.,1.),.UNSPECIFIED.)
CURVE()
GEOMETRIC_REPRESENTATION_ITEM()
RATIONAL_B_SPLINE_CURVE((1.,0.99850407624205,0.99850407624205,1.))
REPRESENTATION_ITEM('')
);
#88=(
BOUNDED_CURVE()
B_SPLINE_CURVE(3,(#512,#513,#514,#515),.UNSPECIFIED.,.F.,.F.)
B_SPLINE_CURVE_WITH_KNOTS((4,4),(0.,1.),.UNSPECIFIED.)
CURVE()
GEOMETRIC_REPRESENTATION_ITEM()
RATIONAL_B_SPLINE_CURVE((1.,0.99850407624205,0.99850407624205,1.))
REPRESENTATION_ITEM('')
);
#89=(
BOUNDED_CURVE()
B_SPLINE_CURVE(3,(#519,#520,#521,#522),.UNSPECIFIED.,.F.,.F.)
B_SPLINE_CURVE_WITH_KNOTS((4,4),(0.,1.),.UNSPECIFIED.)
CURVE()
GEOMETRIC_REPRESENTATION_ITEM()
RATIONAL_B_SPLINE_CURVE((1.,0.99850407624205,0.99850407624205,1.))
REPRESENTATION_ITEM('')
);
#90=(
BOUNDED_CURVE()
B_SPLINE_CURVE(3,(#526,#527,#528,#529),.UNSPECIFIED.,.F.,.F.)
B_SPLINE_CURVE_WITH_KNOTS((4,4),(0.,1.),.UNSPECIFIED.)
CURVE()
GEOMETRIC_REPRESENTATION_ITEM()
RATIONAL_B_SPLINE_CURVE((1.,0.99850407624205,0.99850407624205,1.))
REPRESENTATION_ITEM('')
);
#91=(
BOUNDED_CURVE()
B_SPLINE_CURVE(3,(#533,#534,#535,#536),.UNSPECIFIED.,.F.,.F.)
B_SPLINE_CURVE_WITH_KNOTS((4,4),(0.,1.),.UNSPECIFIED.)
CURVE()
GEOMETRIC_REPRESENTATION_ITEM()
RATIONAL_B_SPLINE_CURVE((1.,0.99850407624205,0.99850407624205,1.))
REPRESENTATION_ITEM('')
);
#92=PLANE('',#355);
#93=PLANE('',#363);
#94=PLANE('',#364);
#95=PLANE('',#365);
#96=PLANE('',#366);
#97=PLANE('',#367);
#98=PLANE('',#368);
#99=PLANE('',#369);
#100=PLANE('',#370);
#101=PLANE('',#371);
#102=PLANE('',#372);
#103=PLANE('',#380);
#104=PLANE('',#382);
#105=PLANE('',#387);
#106=ADVANCED_FACE('',(#132,#133),#128,.T.);
#107=ADVANCED_FACE('',(#134,#135),#92,.F.);
#108=ADVANCED_FACE('',(#136,#137),#129,.T.);
#109=ADVANCED_FACE('',(#43),#93,.F.);
#110=ADVANCED_FACE('',(#44),#94,.F.);
#111=ADVANCED_FACE('',(#45),#95,.F.);
#112=ADVANCED_FACE('',(#46),#96,.F.);
#113=ADVANCED_FACE('',(#47),#97,.F.);
#114=ADVANCED_FACE('',(#48),#98,.F.);
#115=ADVANCED_FACE('',(#49),#99,.F.);
#116=ADVANCED_FACE('',(#50),#100,.F.);
#117=ADVANCED_FACE('',(#51),#101,.F.);
#118=ADVANCED_FACE('',(#52),#102,.F.);
#119=ADVANCED_FACE('',(#138,#139),#40,.T.);
#120=ADVANCED_FACE('',(#140,#141),#41,.T.);
#121=ADVANCED_FACE('',(#142,#143),#130,.T.);
#122=ADVANCED_FACE('',(#144,#145),#39,.F.);
#123=ADVANCED_FACE('',(#53),#103,.T.);
#124=ADVANCED_FACE('',(#54),#104,.F.);
#125=ADVANCED_FACE('',(#146,#147),#42,.T.);
#126=ADVANCED_FACE('',(#148,#149),#131,.T.);
#127=ADVANCED_FACE('',(#55),#105,.F.);
#128=CYLINDRICAL_SURFACE('',#352,6.35);
#129=CYLINDRICAL_SURFACE('',#362,4.);
#130=CYLINDRICAL_SURFACE('',#378,4.);
#131=CYLINDRICAL_SURFACE('',#386,6.35);
#132=FACE_BOUND('',#150,.T.);
#133=FACE_BOUND('',#151,.T.);
#134=FACE_BOUND('',#152,.T.);
#135=FACE_BOUND('',#153,.T.);
#136=FACE_BOUND('',#154,.T.);
#137=FACE_BOUND('',#155,.T.);
#138=FACE_BOUND('',#166,.T.);
#139=FACE_BOUND('',#167,.T.);
#140=FACE_BOUND('',#168,.T.);
#141=FACE_BOUND('',#169,.T.);
#142=FACE_BOUND('',#170,.T.);
#143=FACE_BOUND('',#171,.T.);
#144=FACE_BOUND('',#172,.T.);
#145=FACE_BOUND('',#173,.T.);
#146=FACE_BOUND('',#176,.T.);
#147=FACE_BOUND('',#177,.T.);
#148=FACE_BOUND('',#178,.T.);
#149=FACE_BOUND('',#179,.T.);
#150=EDGE_LOOP('',(#181));
#151=EDGE_LOOP('',(#182));
#152=EDGE_LOOP('',(#183));
#153=EDGE_LOOP('',(#184));
#154=EDGE_LOOP('',(#185,#186,#187,#188,#189,#190,#191,#192,#193,#194,#195,
#196));
#155=EDGE_LOOP('',(#197));
#156=EDGE_LOOP('',(#198,#199,#200));
#157=EDGE_LOOP('',(#201,#202,#203));
#158=EDGE_LOOP('',(#204,#205,#206));
#159=EDGE_LOOP('',(#207,#208,#209,#210));
#160=EDGE_LOOP('',(#211,#212,#213,#214));
#161=EDGE_LOOP('',(#215,#216,#217,#218,#219,#220,#221,#222,#223));
#162=EDGE_LOOP('',(#224,#225,#226,#227));
#163=EDGE_LOOP('',(#228,#229,#230,#231));
#164=EDGE_LOOP('',(#232,#233,#234,#235));
#165=EDGE_LOOP('',(#236,#237,#238,#239));
#166=EDGE_LOOP('',(#240));
#167=EDGE_LOOP('',(#241));
#168=EDGE_LOOP('',(#242));
#169=EDGE_LOOP('',(#243));
#170=EDGE_LOOP('',(#244));
#171=EDGE_LOOP('',(#245));
#172=EDGE_LOOP('',(#246));
#173=EDGE_LOOP('',(#247));
#174=EDGE_LOOP('',(#248));
#175=EDGE_LOOP('',(#249));
#176=EDGE_LOOP('',(#250));
#177=EDGE_LOOP('',(#251));
#178=EDGE_LOOP('',(#252));
#179=EDGE_LOOP('',(#253));
#180=EDGE_LOOP('',(#254));
#181=ORIENTED_EDGE('',*,*,#283,.F.);
#182=ORIENTED_EDGE('',*,*,#284,.T.);
#183=ORIENTED_EDGE('',*,*,#285,.T.);
#184=ORIENTED_EDGE('',*,*,#286,.F.);
#185=ORIENTED_EDGE('',*,*,#287,.F.);
#186=ORIENTED_EDGE('',*,*,#288,.T.);
#187=ORIENTED_EDGE('',*,*,#289,.T.);
#188=ORIENTED_EDGE('',*,*,#290,.T.);
#189=ORIENTED_EDGE('',*,*,#291,.F.);
#190=ORIENTED_EDGE('',*,*,#292,.T.);
#191=ORIENTED_EDGE('',*,*,#293,.T.);
#192=ORIENTED_EDGE('',*,*,#294,.T.);
#193=ORIENTED_EDGE('',*,*,#295,.F.);
#194=ORIENTED_EDGE('',*,*,#296,.T.);
#195=ORIENTED_EDGE('',*,*,#297,.T.);
#196=ORIENTED_EDGE('',*,*,#298,.T.);
#197=ORIENTED_EDGE('',*,*,#286,.T.);
#198=ORIENTED_EDGE('',*,*,#299,.T.);
#199=ORIENTED_EDGE('',*,*,#300,.T.);
#200=ORIENTED_EDGE('',*,*,#291,.T.);
#201=ORIENTED_EDGE('',*,*,#301,.T.);
#202=ORIENTED_EDGE('',*,*,#302,.T.);
#203=ORIENTED_EDGE('',*,*,#287,.T.);
#204=ORIENTED_EDGE('',*,*,#303,.T.);
#205=ORIENTED_EDGE('',*,*,#304,.T.);
#206=ORIENTED_EDGE('',*,*,#295,.T.);
#207=ORIENTED_EDGE('',*,*,#298,.F.);
#208=ORIENTED_EDGE('',*,*,#305,.F.);
#209=ORIENTED_EDGE('',*,*,#306,.F.);
#210=ORIENTED_EDGE('',*,*,#301,.F.);
#211=ORIENTED_EDGE('',*,*,#304,.F.);
#212=ORIENTED_EDGE('',*,*,#307,.T.);
#213=ORIENTED_EDGE('',*,*,#308,.T.);
#214=ORIENTED_EDGE('',*,*,#296,.F.);
#215=ORIENTED_EDGE('',*,*,#309,.F.);
#216=ORIENTED_EDGE('',*,*,#310,.T.);
#217=ORIENTED_EDGE('',*,*,#289,.F.);
#218=ORIENTED_EDGE('',*,*,#311,.F.);
#219=ORIENTED_EDGE('',*,*,#305,.T.);
#220=ORIENTED_EDGE('',*,*,#297,.F.);
#221=ORIENTED_EDGE('',*,*,#308,.F.);
#222=ORIENTED_EDGE('',*,*,#312,.T.);
#223=ORIENTED_EDGE('',*,*,#293,.F.);
#224=ORIENTED_EDGE('',*,*,#312,.F.);
#225=ORIENTED_EDGE('',*,*,#307,.F.);
#226=ORIENTED_EDGE('',*,*,#303,.F.);
#227=ORIENTED_EDGE('',*,*,#294,.F.);
#228=ORIENTED_EDGE('',*,*,#309,.T.);
#229=ORIENTED_EDGE('',*,*,#292,.F.);
#230=ORIENTED_EDGE('',*,*,#300,.F.);
#231=ORIENTED_EDGE('',*,*,#313,.T.);
#232=ORIENTED_EDGE('',*,*,#310,.F.);
#233=ORIENTED_EDGE('',*,*,#313,.F.);
#234=ORIENTED_EDGE('',*,*,#299,.F.);
#235=ORIENTED_EDGE('',*,*,#290,.F.);
#236=ORIENTED_EDGE('',*,*,#311,.T.);
#237=ORIENTED_EDGE('',*,*,#288,.F.);
#238=ORIENTED_EDGE('',*,*,#302,.F.);
#239=ORIENTED_EDGE('',*,*,#306,.T.);
#240=ORIENTED_EDGE('',*,*,#314,.F.);
#241=ORIENTED_EDGE('',*,*,#285,.F.);
#242=ORIENTED_EDGE('',*,*,#283,.T.);
#243=ORIENTED_EDGE('',*,*,#315,.F.);
#244=ORIENTED_EDGE('',*,*,#314,.T.);
#245=ORIENTED_EDGE('',*,*,#316,.T.);
#246=ORIENTED_EDGE('',*,*,#315,.T.);
#247=ORIENTED_EDGE('',*,*,#316,.F.);
#248=ORIENTED_EDGE('',*,*,#284,.F.);
#249=ORIENTED_EDGE('',*,*,#317,.F.);
#250=ORIENTED_EDGE('',*,*,#318,.F.);
#251=ORIENTED_EDGE('',*,*,#317,.T.);
#252=ORIENTED_EDGE('',*,*,#319,.T.);
#253=ORIENTED_EDGE('',*,*,#318,.T.);
#254=ORIENTED_EDGE('',*,*,#319,.F.);
#255=VERTEX_POINT('',#486);
#256=VERTEX_POINT('',#488);
#257=VERTEX_POINT('',#491);
#258=VERTEX_POINT('',#493);
#259=VERTEX_POINT('',#496);
#260=VERTEX_POINT('',#497);
#261=VERTEX_POINT('',#502);
#262=VERTEX_POINT('',#504);
#263=VERTEX_POINT('',#509);
#264=VERTEX_POINT('',#511);
#265=VERTEX_POINT('',#516);
#266=VERTEX_POINT('',#518);
#267=VERTEX_POINT('',#523);
#268=VERTEX_POINT('',#525);
#269=VERTEX_POINT('',#530);
#270=VERTEX_POINT('',#532);
#271=VERTEX_POINT('',#539);
#272=VERTEX_POINT('',#543);
#273=VERTEX_POINT('',#547);
#274=VERTEX_POINT('',#551);
#275=VERTEX_POINT('',#555);
#276=VERTEX_POINT('',#559);
#277=VERTEX_POINT('',#570);
#278=VERTEX_POINT('',#573);
#279=VERTEX_POINT('',#576);
#280=VERTEX_POINT('',#581);
#281=VERTEX_POINT('',#584);
#282=VERTEX_POINT('',#587);
#283=EDGE_CURVE('',#255,#255,#320,.T.);
#284=EDGE_CURVE('',#256,#256,#321,.T.);
#285=EDGE_CURVE('',#257,#257,#322,.T.);
#286=EDGE_CURVE('',#258,#258,#323,.T.);
#287=EDGE_CURVE('',#259,#260,#324,.T.);
#288=EDGE_CURVE('',#259,#261,#86,.T.);
#289=EDGE_CURVE('',#261,#262,#325,.T.);
#290=EDGE_CURVE('',#262,#263,#87,.T.);
#291=EDGE_CURVE('',#264,#263,#326,.T.);
#292=EDGE_CURVE('',#264,#265,#88,.T.);
#293=EDGE_CURVE('',#265,#266,#327,.T.);
#294=EDGE_CURVE('',#266,#267,#89,.T.);
#295=EDGE_CURVE('',#268,#267,#328,.T.);
#296=EDGE_CURVE('',#268,#269,#90,.T.);
#297=EDGE_CURVE('',#269,#270,#329,.T.);
#298=EDGE_CURVE('',#270,#260,#91,.T.);
#299=EDGE_CURVE('',#263,#271,#56,.T.);
#300=EDGE_CURVE('',#271,#264,#57,.T.);
#301=EDGE_CURVE('',#260,#272,#58,.T.);
#302=EDGE_CURVE('',#272,#259,#59,.T.);
#303=EDGE_CURVE('',#267,#273,#60,.T.);
#304=EDGE_CURVE('',#273,#268,#61,.T.);
#305=EDGE_CURVE('',#274,#270,#62,.T.);
#306=EDGE_CURVE('',#272,#274,#63,.T.);
#307=EDGE_CURVE('',#273,#275,#64,.T.);
#308=EDGE_CURVE('',#275,#269,#65,.T.);
#309=EDGE_CURVE('',#276,#265,#66,.T.);
#310=EDGE_CURVE('',#276,#262,#67,.T.);
#311=EDGE_CURVE('',#274,#261,#68,.T.);
#312=EDGE_CURVE('',#275,#266,#69,.T.);
#313=EDGE_CURVE('',#271,#276,#70,.T.);
#314=EDGE_CURVE('',#277,#277,#330,.T.);
#315=EDGE_CURVE('',#278,#278,#331,.T.);
#316=EDGE_CURVE('',#279,#279,#332,.T.);
#317=EDGE_CURVE('',#280,#280,#333,.T.);
#318=EDGE_CURVE('',#281,#281,#334,.T.);
#319=EDGE_CURVE('',#282,#282,#335,.T.);
#320=CIRCLE('',#350,6.35);
#321=CIRCLE('',#351,6.35);
#322=CIRCLE('',#353,3.98935822227504);
#323=CIRCLE('',#354,4.);
#324=CIRCLE('',#356,4.);
#325=CIRCLE('',#357,4.);
#326=CIRCLE('',#358,4.);
#327=CIRCLE('',#359,4.);
#328=CIRCLE('',#360,4.);
#329=CIRCLE('',#361,4.);
#330=CIRCLE('',#373,4.);
#331=CIRCLE('',#375,4.80384757729337);
#332=CIRCLE('',#377,4.);
#333=CIRCLE('',#381,4.85);
#334=CIRCLE('',#383,6.35);
#335=CIRCLE('',#385,6.35);
#336=PRESENTATION_LAYER_ASSIGNMENT('1','Layer 1',(#349,#36));
#337=PRESENTATION_LAYER_ASSIGNMENT('2','Layer 2',(#35));
#338=STYLED_ITEM('',(#341),#349);
#339=STYLED_ITEM('',(#342),#35);
#340=STYLED_ITEM('',(#343),#36);
#341=PRESENTATION_STYLE_ASSIGNMENT((#344));
#342=PRESENTATION_STYLE_ASSIGNMENT((#25));
#343=PRESENTATION_STYLE_ASSIGNMENT((#26));
#344=CURVE_STYLE('',#347,POSITIVE_LENGTH_MEASURE(0.13),#345);
#345=COLOUR_RGB('Strong Stone',0.576470588235294,0.54508278019379,0.392156862745098);
#346=COLOUR_RGB('Medium Gray',0.490196078431373,0.490196078431373,0.490196078431373);
#347=DRAUGHTING_PRE_DEFINED_CURVE_FONT('continuous');
#348=AXIS2_PLACEMENT_3D('',#483,#388,#389);
#349=AXIS2_PLACEMENT_3D('',#484,#390,#391);
#350=AXIS2_PLACEMENT_3D('',#485,#392,#393);
#351=AXIS2_PLACEMENT_3D('',#487,#394,#395);
#352=AXIS2_PLACEMENT_3D('',#489,#396,#397);
#353=AXIS2_PLACEMENT_3D('',#490,#398,#399);
#354=AXIS2_PLACEMENT_3D('',#492,#400,#401);
#355=AXIS2_PLACEMENT_3D('',#494,#402,#403);
#356=AXIS2_PLACEMENT_3D('',#495,#404,#405);
#357=AXIS2_PLACEMENT_3D('',#503,#406,#407);
#358=AXIS2_PLACEMENT_3D('',#510,#408,#409);
#359=AXIS2_PLACEMENT_3D('',#517,#410,#411);
#360=AXIS2_PLACEMENT_3D('',#524,#412,#413);
#361=AXIS2_PLACEMENT_3D('',#531,#414,#415);
#362=AXIS2_PLACEMENT_3D('',#537,#416,#417);
#363=AXIS2_PLACEMENT_3D('',#541,#420,#421);
#364=AXIS2_PLACEMENT_3D('',#545,#424,#425);
#365=AXIS2_PLACEMENT_3D('',#549,#428,#429);
#366=AXIS2_PLACEMENT_3D('',#553,#432,#433);
#367=AXIS2_PLACEMENT_3D('',#557,#436,#437);
#368=AXIS2_PLACEMENT_3D('',#563,#442,#443);
#369=AXIS2_PLACEMENT_3D('',#564,#444,#445);
#370=AXIS2_PLACEMENT_3D('',#566,#447,#448);
#371=AXIS2_PLACEMENT_3D('',#567,#449,#450);
#372=AXIS2_PLACEMENT_3D('',#568,#451,#452);
#373=AXIS2_PLACEMENT_3D('',#569,#453,#454);
#374=AXIS2_PLACEMENT_3D('',#571,#455,#456);
#375=AXIS2_PLACEMENT_3D('',#572,#457,#458);
#376=AXIS2_PLACEMENT_3D('',#574,#459,#460);
#377=AXIS2_PLACEMENT_3D('',#575,#461,#462);
#378=AXIS2_PLACEMENT_3D('',#577,#463,#464);
#379=AXIS2_PLACEMENT_3D('',#578,#465,#466);
#380=AXIS2_PLACEMENT_3D('',#579,#467,#468);
#381=AXIS2_PLACEMENT_3D('',#580,#469,#470);
#382=AXIS2_PLACEMENT_3D('',#582,#471,#472);
#383=AXIS2_PLACEMENT_3D('',#583,#473,#474);
#384=AXIS2_PLACEMENT_3D('',#585,#475,#476);
#385=AXIS2_PLACEMENT_3D('',#586,#477,#478);
#386=AXIS2_PLACEMENT_3D('',#588,#479,#480);
#387=AXIS2_PLACEMENT_3D('',#589,#481,#482);
#388=DIRECTION('',(0.,0.,1.));
#389=DIRECTION('',(1.,0.,0.));
#390=DIRECTION('',(0.,0.,1.));
#391=DIRECTION('',(1.,0.,0.));
#392=DIRECTION('',(0.,0.,-1.));
#393=DIRECTION('',(1.,0.,0.));
#394=DIRECTION('',(0.,0.,-1.));
#395=DIRECTION('',(1.,0.,0.));
#396=DIRECTION('',(0.,0.,-1.));
#397=DIRECTION('',(-1.,0.,0.));
#398=DIRECTION('',(0.,0.,-1.));
#399=DIRECTION('',(-1.,0.,0.));
#400=DIRECTION('',(0.,0.,-1.));
#401=DIRECTION('',(1.,0.,0.));
#402=DIRECTION('',(0.,0.,-1.));
#403=DIRECTION('',(1.,0.,0.));
#404=DIRECTION('',(0.,0.,-1.));
#405=DIRECTION('',(1.,0.,0.));
#406=DIRECTION('',(4.89550233456961E-15,-8.4792587720468E-15,1.));
#407=DIRECTION('',(-2.26225794241989E-29,-1.,-6.93889390390723E-15));
#408=DIRECTION('',(0.,0.,-1.));
#409=DIRECTION('',(1.,0.,0.));
#410=DIRECTION('',(4.89550233456973E-15,8.47925877204673E-15,1.));
#411=DIRECTION('',(2.26225794241983E-29,-1.,6.93889390390723E-15));
#412=DIRECTION('',(0.,0.,-1.));
#413=DIRECTION('',(1.,0.,0.));
#414=DIRECTION('',(-9.79100466913938E-15,0.,1.));
#415=DIRECTION('',(-1.,0.,-1.04083408558608E-14));
#416=DIRECTION('',(0.,0.,-1.));
#417=DIRECTION('',(-1.,0.,0.));
#418=DIRECTION('',(-0.866025403784443,-0.499999999999992,0.));
#419=DIRECTION('',(-0.866025403784436,0.500000000000004,0.));
#420=DIRECTION('',(0.,0.,1.));
#421=DIRECTION('',(1.,0.,0.));
#422=DIRECTION('',(0.,1.,0.));
#423=DIRECTION('',(0.866025403784443,0.499999999999992,0.));
#424=DIRECTION('',(0.,0.,1.));
#425=DIRECTION('',(1.,0.,0.));
#426=DIRECTION('',(0.866025403784436,-0.500000000000004,0.));
#427=DIRECTION('',(0.,-1.,0.));
#428=DIRECTION('',(0.,0.,1.));
#429=DIRECTION('',(1.,0.,0.));
#430=DIRECTION('',(0.,-1.,0.));
#431=DIRECTION('',(-0.480384461415268,0.277350098112597,0.832050294337846));
#432=DIRECTION('',(0.866025403784436,0.,0.500000000000004));
#433=DIRECTION('',(0.500000000000004,0.,-0.866025403784436));
#434=DIRECTION('',(0.480384461415248,0.277350098112629,0.832050294337847));
#435=DIRECTION('',(0.,-1.,0.));
#436=DIRECTION('',(-0.866025403784446,0.,0.499999999999988));
#437=DIRECTION('',(0.499999999999988,0.,0.866025403784446));
#438=DIRECTION('',(-0.866025403784436,0.500000000000004,0.));
#439=DIRECTION('',(0.866025403784443,0.499999999999992,0.));
#440=DIRECTION('',(0.866025403784443,0.499999999999992,0.));
#441=DIRECTION('',(-0.866025403784436,0.500000000000004,0.));
#442=DIRECTION('',(-9.79100466913938E-15,0.,1.));
#443=DIRECTION('',(1.,0.,9.79771819231701E-15));
#444=DIRECTION('',(-0.433012701892222,-0.749999999999996,0.500000000000004));
#445=DIRECTION('',(-6.76542155630955E-17,0.554700196225234,0.83205029433784));
#446=DIRECTION('',(1.66708094062245E-14,-0.554700196225224,0.832050294337847));
#447=DIRECTION('',(0.433012701892226,0.750000000000004,0.499999999999987));
#448=DIRECTION('',(-6.76135579816273E-17,0.554700196225217,-0.832050294337852));
#449=DIRECTION('',(-0.433012701892211,0.750000000000003,0.500000000000003));
#450=DIRECTION('',(2.16352543519482E-16,0.55470019622523,-0.832050294337843));
#451=DIRECTION('',(0.433012701892216,-0.75000000000001,0.499999999999988));
#452=DIRECTION('',(-2.1618991319361E-16,0.554700196225215,0.832050294337853));
#453=DIRECTION('',(0.,-1.08420217248551E-16,1.));
#454=DIRECTION('',(0.,-1.,0.));
#455=DIRECTION('',(0.,-1.08420217248551E-16,1.));
#456=DIRECTION('',(0.,1.,3.80897944584586E-17));
#457=DIRECTION('',(0.,0.,-1.));
#458=DIRECTION('',(1.,0.,0.));
#459=DIRECTION('',(0.,0.,1.));
#460=DIRECTION('',(1.,0.,-4.75510755788446E-17));
#461=DIRECTION('',(0.,0.,-1.));
#462=DIRECTION('',(1.,0.,0.));
#463=DIRECTION('',(0.,0.,-1.));
#464=DIRECTION('',(-1.,0.,0.));
#465=DIRECTION('',(0.,0.,-1.));
#466=DIRECTION('',(-1.,0.,0.));
#467=DIRECTION('',(0.,0.,1.));
#468=DIRECTION('',(-1.,0.,0.));
#469=DIRECTION('',(0.,0.,-1.));
#470=DIRECTION('',(1.,0.,0.));
#471=DIRECTION('',(0.,0.,-1.));
#472=DIRECTION('',(-1.,0.,0.));
#473=DIRECTION('',(0.,0.,-1.));
#474=DIRECTION('',(1.,0.,0.));
#475=DIRECTION('',(0.,0.,-1.));
#476=DIRECTION('',(-1.,0.,4.14324162048484E-17));
#477=DIRECTION('',(0.,0.,1.));
#478=DIRECTION('',(1.,0.,0.));
#479=DIRECTION('',(0.,0.,-1.));
#480=DIRECTION('',(-1.,0.,0.));
#481=DIRECTION('',(0.,0.,1.));
#482=DIRECTION('',(-1.,0.,0.));
#483=CARTESIAN_POINT('',(0.,0.,0.));
#484=CARTESIAN_POINT('',(0.,0.,0.));
#485=CARTESIAN_POINT('',(0.,0.,-13.3219854476265));
#486=CARTESIAN_POINT('',(6.35,0.,-13.3219854476265));
#487=CARTESIAN_POINT('',(0.,0.,0.));
#488=CARTESIAN_POINT('',(6.35,0.,0.));
#489=CARTESIAN_POINT('',(0.,0.,-955.));
#490=CARTESIAN_POINT('',(-1.23444933044609E-15,4.76647972747407E-15,-53.0292380440017));
#491=CARTESIAN_POINT('',(-3.98935822227504,4.76647972747407E-15,-53.0292380440017));
#492=CARTESIAN_POINT('',(0.,0.,-53.0292380440017));
#493=CARTESIAN_POINT('',(4.,0.,-53.0292380440017));
#494=CARTESIAN_POINT('',(0.,0.,-53.0292380440017));
#495=CARTESIAN_POINT('',(0.,0.,-70.5));
#496=CARTESIAN_POINT('',(3.9108882092121,0.839615039792492,-70.5));
#497=CARTESIAN_POINT('',(1.22831615074623,-3.80673606043497,-70.5));
#498=CARTESIAN_POINT('',(3.9108882092121,0.839615039792492,-70.5));
#499=CARTESIAN_POINT('',(3.87335543192641,1.01444098881535,-70.205256737862));
#500=CARTESIAN_POINT('',(3.82420171030199,1.18636170738349,-69.904807288392));
#501=CARTESIAN_POINT('',(3.76364763499871,1.3546056546348,-69.6));
#502=CARTESIAN_POINT('',(3.76364763499871,1.3546056546348,-69.6));
#503=CARTESIAN_POINT('',(0.,0.,-69.6));
#504=CARTESIAN_POINT('',(3.0549467265232,2.58211163548465,-69.6));
#505=CARTESIAN_POINT('',(3.0549467265232,2.58211163548465,-69.6));
#506=CARTESIAN_POINT('',(2.93952023182225,2.7186749766256,-69.904807288392));
#507=CARTESIAN_POINT('',(2.81520938291757,2.84720370752698,-70.205256737862));
#508=CARTESIAN_POINT('',(2.68257205846589,2.96712102064241,-70.5));
#509=CARTESIAN_POINT('',(2.68257205846589,2.96712102064241,-70.5));
#510=CARTESIAN_POINT('',(0.,0.,-70.5));
#511=CARTESIAN_POINT('',(-2.68257205846585,2.96712102064245,-70.5));
#512=CARTESIAN_POINT('',(-2.68257205846585,2.96712102064245,-70.5));
#513=CARTESIAN_POINT('',(-2.81520938291752,2.84720370752704,-70.205256737862));
#514=CARTESIAN_POINT('',(-2.93952023182219,2.71867497662566,-69.904807288392));
#515=CARTESIAN_POINT('',(-3.05494672652316,2.58211163548469,-69.6));
#516=CARTESIAN_POINT('',(-3.05494672652316,2.58211163548469,-69.6));
#517=CARTESIAN_POINT('',(0.,0.,-69.6));
#518=CARTESIAN_POINT('',(-3.76364763499869,1.35460565463486,-69.6));
#519=CARTESIAN_POINT('',(-3.76364763499869,1.35460565463486,-69.6));
#520=CARTESIAN_POINT('',(-3.82420171030195,1.18636170738362,-69.904807288392));
#521=CARTESIAN_POINT('',(-3.87335543192638,1.01444098881548,-70.205256737862));
#522=CARTESIAN_POINT('',(-3.91088820921208,0.839615039792623,-70.5));
#523=CARTESIAN_POINT('',(-3.91088820921208,0.839615039792623,-70.5));
#524=CARTESIAN_POINT('',(0.,0.,-70.5));
#525=CARTESIAN_POINT('',(-1.22831615074624,-3.80673606043497,-70.5));
#526=CARTESIAN_POINT('',(-1.22831615074624,-3.80673606043497,-70.5));
#527=CARTESIAN_POINT('',(-1.05814604900888,-3.86164469634241,-70.205256737862));
#528=CARTESIAN_POINT('',(-0.884681478479771,-3.90503668400917,-69.904807288392));
#529=CARTESIAN_POINT('',(-0.708700908475532,-3.93671729011952,-69.6));
#530=CARTESIAN_POINT('',(-0.708700908475532,-3.93671729011952,-69.6));
#531=CARTESIAN_POINT('',(0.,0.,-69.6));
#532=CARTESIAN_POINT('',(0.708700908475528,-3.93671729011952,-69.6));
#533=CARTESIAN_POINT('',(0.708700908475528,-3.93671729011952,-69.6));
#534=CARTESIAN_POINT('',(0.884681478479747,-3.90503668400918,-69.904807288392));
#535=CARTESIAN_POINT('',(1.05814604900886,-3.86164469634241,-70.205256737862));
#536=CARTESIAN_POINT('',(1.22831615074623,-3.80673606043497,-70.5));
#537=CARTESIAN_POINT('',(0.,0.,-955.));
#538=CARTESIAN_POINT('',(-0.614158075373103,1.06375299042495,-70.5));
#539=CARTESIAN_POINT('',(-3.72694496791892E-15,1.41833732056656,-70.5));
#540=CARTESIAN_POINT('',(0.614158075373105,1.06375299042492,-70.5));
#541=CARTESIAN_POINT('',(0.,1.39609735102798E-15,-70.5));
#542=CARTESIAN_POINT('',(1.22831615074623,1.39609735102798E-15,-70.5));
#543=CARTESIAN_POINT('',(1.2283161507462,-0.709168660283274,-70.5));
#544=CARTESIAN_POINT('',(0.614158075373091,-1.06375299042493,-70.5));
#545=CARTESIAN_POINT('',(0.,1.39609735102798E-15,-70.5));
#546=CARTESIAN_POINT('',(-0.614158075373119,-1.06375299042495,-70.5));
#547=CARTESIAN_POINT('',(-1.22831615074618,-0.709168660283296,-70.5));
#548=CARTESIAN_POINT('',(-1.2283161507462,1.39609735102798E-15,-70.5));
#549=CARTESIAN_POINT('',(0.,1.39609735102798E-15,-70.5));
#550=CARTESIAN_POINT('',(0.708700908475528,-0.8,-69.6));
#551=CARTESIAN_POINT('',(0.70870090847552,-0.409168660283285,-69.6));
#552=CARTESIAN_POINT('',(0.760773195981645,-0.439232609492264,-69.6901918476269));
#553=CARTESIAN_POINT('',(0.708700908475528,-0.8,-69.6));
#554=CARTESIAN_POINT('',(-0.760773195981646,-0.439232609492256,-69.6901918476269));
#555=CARTESIAN_POINT('',(-0.70870090847553,-0.409168660283278,-69.6));
#556=CARTESIAN_POINT('',(-0.708700908475532,-0.8,-69.6));
#557=CARTESIAN_POINT('',(-1.25718366420566,-0.8,-70.55));
#558=CARTESIAN_POINT('',(-0.338469868789781,1.01375299042492,-69.6));
#559=CARTESIAN_POINT('',(1.45283091113058E-14,0.818337320566552,-69.6));
#560=CARTESIAN_POINT('',(0.338469868789796,1.01375299042491,-69.6));
#561=CARTESIAN_POINT('',(1.04717077726531,-0.213752990424931,-69.6));
#562=CARTESIAN_POINT('',(-1.04717077726532,-0.213752990424913,-69.6));
#563=CARTESIAN_POINT('',(-0.708700908475532,-0.8,-69.6));
#564=CARTESIAN_POINT('',(-1.04717077726532,-0.213752990424913,-69.6));
#565=CARTESIAN_POINT('',(1.25225350922076E-14,0.878465218984507,-69.6901918476269));
#566=CARTESIAN_POINT('',(-0.0642284909247136,1.48875299042491,-70.55));
#567=CARTESIAN_POINT('',(0.338469868789796,1.01375299042491,-69.6));
#568=CARTESIAN_POINT('',(1.32141215513038,-0.688752990424921,-70.55));
#569=CARTESIAN_POINT('',(0.,3.68628738645071E-15,-53.));
#570=CARTESIAN_POINT('',(0.,-4.,-53.));
#571=CARTESIAN_POINT('',(0.,4.76647972747407E-15,-62.963015832619));
#572=CARTESIAN_POINT('',(0.,0.,-15.9999999999999));
#573=CARTESIAN_POINT('',(4.80384757729337,0.,-15.9999999999999));
#574=CARTESIAN_POINT('',(0.,0.,-13.3219854476265));
#575=CARTESIAN_POINT('',(0.,0.,-19.0000000000001));
#576=CARTESIAN_POINT('',(4.,0.,-19.0000000000001));
#577=CARTESIAN_POINT('',(0.,0.,-955.));
#578=CARTESIAN_POINT('',(0.,0.,-19.));
#579=CARTESIAN_POINT('',(0.,0.,0.));
#580=CARTESIAN_POINT('',(0.,0.,45.));
#581=CARTESIAN_POINT('',(4.85,0.,45.));
#582=CARTESIAN_POINT('',(0.,-4.85,45.));
#583=CARTESIAN_POINT('',(0.,0.,43.5));
#584=CARTESIAN_POINT('',(6.35,0.,43.5));
#585=CARTESIAN_POINT('',(0.,0.,45.));
#586=CARTESIAN_POINT('',(0.,0.,0.));
#587=CARTESIAN_POINT('',(6.35,0.,0.));
#588=CARTESIAN_POINT('',(0.,0.,-955.));
#589=CARTESIAN_POINT('',(0.,0.,0.));
#590=MECHANICAL_DESIGN_GEOMETRIC_PRESENTATION_REPRESENTATION('',(#338,#339,
#340),#591);
#591=(
GEOMETRIC_REPRESENTATION_CONTEXT(3)
GLOBAL_UNCERTAINTY_ASSIGNED_CONTEXT((#592))
GLOBAL_UNIT_ASSIGNED_CONTEXT((#598,#594,#593))
REPRESENTATION_CONTEXT('335.14-050008','TOP_LEVEL_ASSEMBLY_PART')
);
#592=UNCERTAINTY_MEASURE_WITH_UNIT(LENGTH_MEASURE(2.E-5),#598,
'DISTANCE_ACCURACY_VALUE','Maximum Tolerance applied to model');
#593=(
NAMED_UNIT(*)
SI_UNIT($,.STERADIAN.)
SOLID_ANGLE_UNIT()
);
#594=(
CONVERSION_BASED_UNIT('DEGREE',#596)
NAMED_UNIT(#595)
PLANE_ANGLE_UNIT()
);
#595=DIMENSIONAL_EXPONENTS(0.,0.,0.,0.,0.,0.,0.);
#596=PLANE_ANGLE_MEASURE_WITH_UNIT(PLANE_ANGLE_MEASURE(0.0174532925),#597);
#597=(
NAMED_UNIT(*)
PLANE_ANGLE_UNIT()
SI_UNIT($,.RADIAN.)
);
#598=(
LENGTH_UNIT()
NAMED_UNIT(*)
SI_UNIT(.MILLI.,.METRE.)
);
ENDSEC;
END-ISO-10303-21;
