ISO-10303-21;
HEADER;
/* Generated by software containing ST-Developer
 * from STEP Tools, Inc. (www.steptools.com) 
 */
/* OPTION: using custom schema-name function */

FILE_DESCRIPTION(
/* description */ (''),
/* implementation_level */ '2;1');

FILE_NAME(
/* name */ '335.14-050008.0-114-374-E.stp',
/* time_stamp */ '2018-02-19T13:39:17+05:00',
/* author */ (''),
/* organization */ (''),
/* preprocessor_version */ 'ST-DEVELOPER v16',
/* originating_system */ 'SIEMENS PLM Software NX 11.0',
/* authorisation */ '');

FILE_SCHEMA (('AUTOMOTIVE_DESIGN { 1 0 10303 214 3 1 1 1 }'));
ENDSEC;

DATA;
#10=CONSTRUCTIVE_GEOMETRY_REPRESENTATION_RELATIONSHIP(
'supplemental geometry','',#24,#11);
#11=CONSTRUCTIVE_GEOMETRY_REPRESENTATION('supplemental geometry',(#349),
#591);
#12=SHAPE_REPRESENTATION_RELATIONSHIP('None',
'relationship between 335.14-050008.0-114-374-E-None and 335.14-050008.
0-114-374-E-None',#24,#13);
#13=ADVANCED_BREP_SHAPE_REPRESENTATION('335.14-050008.0-114-374-E-None',
(#35,#36),#591);
#14=SHAPE_DEFINITION_REPRESENTATION(#15,#24);
#15=PRODUCT_DEFINITION_SHAPE('','',#16);
#16=PRODUCT_DEFINITION(' ','',#18,#17);
#17=PRODUCT_DEFINITION_CONTEXT('part definition',#23,'design');
#18=PRODUCT_DEFINITION_FORMATION_WITH_SPECIFIED_SOURCE(' ',' ',#20,
 .NOT_KNOWN.);
#19=PRODUCT_RELATED_PRODUCT_CATEGORY('part','',(#20));
#20=PRODUCT('335.14-050008.0-114-374-E','335.14-050008.0-114-374-E',' ',
(#21));
#21=PRODUCT_CONTEXT(' ',#23,'mechanical');
#22=APPLICATION_PROTOCOL_DEFINITION('international standard',
'automotive_design',2010,#23);
#23=APPLICATION_CONTEXT(
'core data for automotive mechanical design processes');
#24=SHAPE_REPRESENTATION('335.14-050008.0-114-374-E-None',(#348),#591);
#25=SURFACE_STYLE_USAGE(.BOTH.,#27);
#26=SURFACE_STYLE_USAGE(.BOTH.,#28);
#27=SURFACE_SIDE_STYLE('',(#29));
#28=SURFACE_SIDE_STYLE('',(#30));
#29=SURFACE_STYLE_FILL_AREA(#31);
#30=SURFACE_STYLE_FILL_AREA(#32);
#31=FILL_AREA_STYLE('',(#33));
#32=FILL_AREA_STYLE('',(#34));
#33=FILL_AREA_STYLE_COLOUR('',#346);
#34=FILL_AREA_STYLE_COLOUR('',#346);
#35=MANIFOLD_SOLID_BREP('NOCUT',#37);
#36=MANIFOLD_SOLID_BREP('NOCUT',#38);
#37=CLOSED_SHELL('',(#96,#97,#98,#99,#100,#101,#102,#103,#104,#105,#106,
#107,#108,#109,#110,#111,#112,#113));
#38=CLOSED_SHELL('',(#114,#115,#116,#117));
#39=TOROIDAL_SURFACE('',#382,10.,6.00000000000001);
#40=CONICAL_SURFACE('',#374,0.612804932117875,20.);
#41=CONICAL_SURFACE('',#379,6.35,30.0000000000002);
#42=CONICAL_SURFACE('',#387,4.85,45.000000000001);
#43=FACE_OUTER_BOUND('',#154,.T.);
#44=FACE_OUTER_BOUND('',#155,.T.);
#45=FACE_OUTER_BOUND('',#156,.T.);
#46=FACE_OUTER_BOUND('',#157,.T.);
#47=FACE_OUTER_BOUND('',#158,.T.);
#48=FACE_OUTER_BOUND('',#159,.T.);
#49=FACE_OUTER_BOUND('',#160,.T.);
#50=FACE_OUTER_BOUND('',#161,.T.);
#51=FACE_OUTER_BOUND('',#162,.T.);
#52=FACE_OUTER_BOUND('',#163,.T.);
#53=FACE_OUTER_BOUND('',#174,.T.);
#54=FACE_OUTER_BOUND('',#175,.T.);
#55=FACE_OUTER_BOUND('',#180,.T.);
#56=LINE('',#533,#71);
#57=LINE('',#535,#72);
#58=LINE('',#537,#73);
#59=LINE('',#539,#74);
#60=LINE('',#541,#75);
#61=LINE('',#543,#76);
#62=LINE('',#545,#77);
#63=LINE('',#547,#78);
#64=LINE('',#549,#79);
#65=LINE('',#551,#80);
#66=LINE('',#553,#81);
#67=LINE('',#554,#82);
#68=LINE('',#556,#83);
#69=LINE('',#557,#84);
#70=LINE('',#560,#85);
#71=VECTOR('',#421,1.);
#72=VECTOR('',#422,1.);
#73=VECTOR('',#425,1.);
#74=VECTOR('',#426,1.);
#75=VECTOR('',#429,1.);
#76=VECTOR('',#430,1.);
#77=VECTOR('',#433,1.);
#78=VECTOR('',#434,1.);
#79=VECTOR('',#437,1.);
#80=VECTOR('',#438,1.);
#81=VECTOR('',#441,1.);
#82=VECTOR('',#442,1.);
#83=VECTOR('',#443,1.);
#84=VECTOR('',#444,1.);
#85=VECTOR('',#449,1.);
#86=CYLINDRICAL_SURFACE('',#362,4.);
#87=CYLINDRICAL_SURFACE('',#377,6.35);
#88=CYLINDRICAL_SURFACE('',#381,4.);
#89=CYLINDRICAL_SURFACE('',#389,6.35);
#90=ELLIPSE('',#355,7.99999999999994,4.);
#91=ELLIPSE('',#358,7.99999999999994,4.);
#92=ELLIPSE('',#360,8.0000000000002,4.);
#93=(
BOUNDED_CURVE()
B_SPLINE_CURVE(3,(#502,#503,#504,#505),.UNSPECIFIED.,.F.,.F.)
B_SPLINE_CURVE_WITH_KNOTS((4,4),(0.,1.),.UNSPECIFIED.)
CURVE()
GEOMETRIC_REPRESENTATION_ITEM()
RATIONAL_B_SPLINE_CURVE((1.,0.99850407624205,0.99850407624205,1.))
REPRESENTATION_ITEM('')
);
#94=(
BOUNDED_CURVE()
B_SPLINE_CURVE(3,(#513,#514,#515,#516),.UNSPECIFIED.,.F.,.F.)
B_SPLINE_CURVE_WITH_KNOTS((4,4),(0.,1.),.UNSPECIFIED.)
CURVE()
GEOMETRIC_REPRESENTATION_ITEM()
RATIONAL_B_SPLINE_CURVE((1.,0.99850407624205,0.99850407624205,1.))
REPRESENTATION_ITEM('')
);
#95=(
BOUNDED_CURVE()
B_SPLINE_CURVE(3,(#528,#529,#530,#531),.UNSPECIFIED.,.F.,.F.)
B_SPLINE_CURVE_WITH_KNOTS((4,4),(0.,1.),.UNSPECIFIED.)
CURVE()
GEOMETRIC_REPRESENTATION_ITEM()
RATIONAL_B_SPLINE_CURVE((1.,0.99850407624205,0.99850407624205,1.))
REPRESENTATION_ITEM('')
);
#96=ADVANCED_FACE('',(#132,#133),#118,.F.);
#97=ADVANCED_FACE('',(#134,#135),#86,.T.);
#98=ADVANCED_FACE('',(#43),#119,.F.);
#99=ADVANCED_FACE('',(#44),#120,.F.);
#100=ADVANCED_FACE('',(#45),#121,.F.);
#101=ADVANCED_FACE('',(#46),#122,.F.);
#102=ADVANCED_FACE('',(#47),#123,.F.);
#103=ADVANCED_FACE('',(#48),#124,.F.);
#104=ADVANCED_FACE('',(#49),#125,.F.);
#105=ADVANCED_FACE('',(#50),#126,.F.);
#106=ADVANCED_FACE('',(#51),#127,.F.);
#107=ADVANCED_FACE('',(#52),#128,.F.);
#108=ADVANCED_FACE('',(#136,#137),#40,.T.);
#109=ADVANCED_FACE('',(#138,#139),#87,.T.);
#110=ADVANCED_FACE('',(#140,#141),#41,.T.);
#111=ADVANCED_FACE('',(#142,#143),#88,.T.);
#112=ADVANCED_FACE('',(#144,#145),#39,.F.);
#113=ADVANCED_FACE('',(#53),#129,.T.);
#114=ADVANCED_FACE('',(#54),#130,.F.);
#115=ADVANCED_FACE('',(#146,#147),#42,.T.);
#116=ADVANCED_FACE('',(#148,#149),#89,.T.);
#117=ADVANCED_FACE('',(#55),#131,.F.);
#118=PLANE('',#352);
#119=PLANE('',#363);
#120=PLANE('',#364);
#121=PLANE('',#365);
#122=PLANE('',#366);
#123=PLANE('',#367);
#124=PLANE('',#368);
#125=PLANE('',#369);
#126=PLANE('',#370);
#127=PLANE('',#371);
#128=PLANE('',#372);
#129=PLANE('',#383);
#130=PLANE('',#385);
#131=PLANE('',#390);
#132=FACE_BOUND('',#150,.T.);
#133=FACE_BOUND('',#151,.T.);
#134=FACE_BOUND('',#152,.T.);
#135=FACE_BOUND('',#153,.T.);
#136=FACE_BOUND('',#164,.T.);
#137=FACE_BOUND('',#165,.T.);
#138=FACE_BOUND('',#166,.T.);
#139=FACE_BOUND('',#167,.T.);
#140=FACE_BOUND('',#168,.T.);
#141=FACE_BOUND('',#169,.T.);
#142=FACE_BOUND('',#170,.T.);
#143=FACE_BOUND('',#171,.T.);
#144=FACE_BOUND('',#172,.T.);
#145=FACE_BOUND('',#173,.T.);
#146=FACE_BOUND('',#176,.T.);
#147=FACE_BOUND('',#177,.T.);
#148=FACE_BOUND('',#178,.T.);
#149=FACE_BOUND('',#179,.T.);
#150=EDGE_LOOP('',(#181));
#151=EDGE_LOOP('',(#182));
#152=EDGE_LOOP('',(#183,#184,#185,#186,#187,#188,#189,#190,#191,#192,#193,
#194));
#153=EDGE_LOOP('',(#195));
#154=EDGE_LOOP('',(#196,#197,#198));
#155=EDGE_LOOP('',(#199,#200,#201));
#156=EDGE_LOOP('',(#202,#203,#204,#205));
#157=EDGE_LOOP('',(#206,#207,#208));
#158=EDGE_LOOP('',(#209,#210,#211,#212));
#159=EDGE_LOOP('',(#213,#214,#215,#216,#217,#218,#219,#220,#221));
#160=EDGE_LOOP('',(#222,#223,#224,#225));
#161=EDGE_LOOP('',(#226,#227,#228,#229));
#162=EDGE_LOOP('',(#230,#231,#232,#233));
#163=EDGE_LOOP('',(#234,#235,#236,#237));
#164=EDGE_LOOP('',(#238));
#165=EDGE_LOOP('',(#239));
#166=EDGE_LOOP('',(#240));
#167=EDGE_LOOP('',(#241));
#168=EDGE_LOOP('',(#242));
#169=EDGE_LOOP('',(#243));
#170=EDGE_LOOP('',(#244));
#171=EDGE_LOOP('',(#245));
#172=EDGE_LOOP('',(#246));
#173=EDGE_LOOP('',(#247));
#174=EDGE_LOOP('',(#248));
#175=EDGE_LOOP('',(#249));
#176=EDGE_LOOP('',(#250));
#177=EDGE_LOOP('',(#251));
#178=EDGE_LOOP('',(#252));
#179=EDGE_LOOP('',(#253));
#180=EDGE_LOOP('',(#254));
#181=ORIENTED_EDGE('',*,*,#283,.T.);
#182=ORIENTED_EDGE('',*,*,#284,.F.);
#183=ORIENTED_EDGE('',*,*,#285,.F.);
#184=ORIENTED_EDGE('',*,*,#286,.T.);
#185=ORIENTED_EDGE('',*,*,#287,.T.);
#186=ORIENTED_EDGE('',*,*,#288,.T.);
#187=ORIENTED_EDGE('',*,*,#289,.F.);
#188=ORIENTED_EDGE('',*,*,#290,.T.);
#189=ORIENTED_EDGE('',*,*,#291,.T.);
#190=ORIENTED_EDGE('',*,*,#292,.T.);
#191=ORIENTED_EDGE('',*,*,#293,.F.);
#192=ORIENTED_EDGE('',*,*,#294,.T.);
#193=ORIENTED_EDGE('',*,*,#295,.T.);
#194=ORIENTED_EDGE('',*,*,#296,.T.);
#195=ORIENTED_EDGE('',*,*,#284,.T.);
#196=ORIENTED_EDGE('',*,*,#297,.T.);
#197=ORIENTED_EDGE('',*,*,#298,.T.);
#198=ORIENTED_EDGE('',*,*,#289,.T.);
#199=ORIENTED_EDGE('',*,*,#299,.T.);
#200=ORIENTED_EDGE('',*,*,#300,.T.);
#201=ORIENTED_EDGE('',*,*,#293,.T.);
#202=ORIENTED_EDGE('',*,*,#301,.T.);
#203=ORIENTED_EDGE('',*,*,#299,.F.);
#204=ORIENTED_EDGE('',*,*,#292,.F.);
#205=ORIENTED_EDGE('',*,*,#302,.F.);
#206=ORIENTED_EDGE('',*,*,#303,.T.);
#207=ORIENTED_EDGE('',*,*,#304,.T.);
#208=ORIENTED_EDGE('',*,*,#285,.T.);
#209=ORIENTED_EDGE('',*,*,#305,.F.);
#210=ORIENTED_EDGE('',*,*,#306,.T.);
#211=ORIENTED_EDGE('',*,*,#303,.F.);
#212=ORIENTED_EDGE('',*,*,#296,.F.);
#213=ORIENTED_EDGE('',*,*,#307,.F.);
#214=ORIENTED_EDGE('',*,*,#302,.T.);
#215=ORIENTED_EDGE('',*,*,#291,.F.);
#216=ORIENTED_EDGE('',*,*,#308,.F.);
#217=ORIENTED_EDGE('',*,*,#309,.T.);
#218=ORIENTED_EDGE('',*,*,#287,.F.);
#219=ORIENTED_EDGE('',*,*,#310,.F.);
#220=ORIENTED_EDGE('',*,*,#305,.T.);
#221=ORIENTED_EDGE('',*,*,#295,.F.);
#222=ORIENTED_EDGE('',*,*,#301,.F.);
#223=ORIENTED_EDGE('',*,*,#307,.T.);
#224=ORIENTED_EDGE('',*,*,#294,.F.);
#225=ORIENTED_EDGE('',*,*,#300,.F.);
#226=ORIENTED_EDGE('',*,*,#311,.F.);
#227=ORIENTED_EDGE('',*,*,#308,.T.);
#228=ORIENTED_EDGE('',*,*,#290,.F.);
#229=ORIENTED_EDGE('',*,*,#298,.F.);
#230=ORIENTED_EDGE('',*,*,#306,.F.);
#231=ORIENTED_EDGE('',*,*,#310,.T.);
#232=ORIENTED_EDGE('',*,*,#286,.F.);
#233=ORIENTED_EDGE('',*,*,#304,.F.);
#234=ORIENTED_EDGE('',*,*,#309,.F.);
#235=ORIENTED_EDGE('',*,*,#311,.T.);
#236=ORIENTED_EDGE('',*,*,#297,.F.);
#237=ORIENTED_EDGE('',*,*,#288,.F.);
#238=ORIENTED_EDGE('',*,*,#312,.F.);
#239=ORIENTED_EDGE('',*,*,#283,.F.);
#240=ORIENTED_EDGE('',*,*,#313,.F.);
#241=ORIENTED_EDGE('',*,*,#314,.T.);
#242=ORIENTED_EDGE('',*,*,#313,.T.);
#243=ORIENTED_EDGE('',*,*,#315,.F.);
#244=ORIENTED_EDGE('',*,*,#312,.T.);
#245=ORIENTED_EDGE('',*,*,#316,.T.);
#246=ORIENTED_EDGE('',*,*,#315,.T.);
#247=ORIENTED_EDGE('',*,*,#316,.F.);
#248=ORIENTED_EDGE('',*,*,#314,.F.);
#249=ORIENTED_EDGE('',*,*,#317,.F.);
#250=ORIENTED_EDGE('',*,*,#318,.F.);
#251=ORIENTED_EDGE('',*,*,#317,.T.);
#252=ORIENTED_EDGE('',*,*,#319,.T.);
#253=ORIENTED_EDGE('',*,*,#318,.T.);
#254=ORIENTED_EDGE('',*,*,#319,.F.);
#255=VERTEX_POINT('',#495);
#256=VERTEX_POINT('',#497);
#257=VERTEX_POINT('',#500);
#258=VERTEX_POINT('',#501);
#259=VERTEX_POINT('',#506);
#260=VERTEX_POINT('',#508);
#261=VERTEX_POINT('',#510);
#262=VERTEX_POINT('',#512);
#263=VERTEX_POINT('',#517);
#264=VERTEX_POINT('',#519);
#265=VERTEX_POINT('',#521);
#266=VERTEX_POINT('',#523);
#267=VERTEX_POINT('',#525);
#268=VERTEX_POINT('',#527);
#269=VERTEX_POINT('',#534);
#270=VERTEX_POINT('',#538);
#271=VERTEX_POINT('',#542);
#272=VERTEX_POINT('',#546);
#273=VERTEX_POINT('',#550);
#274=VERTEX_POINT('',#555);
#275=VERTEX_POINT('',#565);
#276=VERTEX_POINT('',#568);
#277=VERTEX_POINT('',#570);
#278=VERTEX_POINT('',#573);
#279=VERTEX_POINT('',#576);
#280=VERTEX_POINT('',#581);
#281=VERTEX_POINT('',#584);
#282=VERTEX_POINT('',#587);
#283=EDGE_CURVE('',#255,#255,#320,.T.);
#284=EDGE_CURVE('',#256,#256,#321,.T.);
#285=EDGE_CURVE('',#257,#258,#322,.T.);
#286=EDGE_CURVE('',#257,#259,#93,.T.);
#287=EDGE_CURVE('',#259,#260,#323,.T.);
#288=EDGE_CURVE('',#260,#261,#90,.T.);
#289=EDGE_CURVE('',#262,#261,#324,.T.);
#290=EDGE_CURVE('',#262,#263,#94,.T.);
#291=EDGE_CURVE('',#263,#264,#325,.T.);
#292=EDGE_CURVE('',#264,#265,#91,.T.);
#293=EDGE_CURVE('',#266,#265,#326,.T.);
#294=EDGE_CURVE('',#266,#267,#92,.T.);
#295=EDGE_CURVE('',#267,#268,#327,.T.);
#296=EDGE_CURVE('',#268,#258,#95,.T.);
#297=EDGE_CURVE('',#261,#269,#56,.T.);
#298=EDGE_CURVE('',#269,#262,#57,.T.);
#299=EDGE_CURVE('',#265,#270,#58,.T.);
#300=EDGE_CURVE('',#270,#266,#59,.T.);
#301=EDGE_CURVE('',#271,#270,#60,.T.);
#302=EDGE_CURVE('',#271,#264,#61,.T.);
#303=EDGE_CURVE('',#258,#272,#62,.T.);
#304=EDGE_CURVE('',#272,#257,#63,.T.);
#305=EDGE_CURVE('',#273,#268,#64,.T.);
#306=EDGE_CURVE('',#273,#272,#65,.T.);
#307=EDGE_CURVE('',#271,#267,#66,.T.);
#308=EDGE_CURVE('',#274,#263,#67,.T.);
#309=EDGE_CURVE('',#274,#260,#68,.T.);
#310=EDGE_CURVE('',#273,#259,#69,.T.);
#311=EDGE_CURVE('',#274,#269,#70,.T.);
#312=EDGE_CURVE('',#275,#275,#328,.T.);
#313=EDGE_CURVE('',#276,#276,#329,.T.);
#314=EDGE_CURVE('',#277,#277,#330,.T.);
#315=EDGE_CURVE('',#278,#278,#331,.T.);
#316=EDGE_CURVE('',#279,#279,#332,.T.);
#317=EDGE_CURVE('',#280,#280,#333,.T.);
#318=EDGE_CURVE('',#281,#281,#334,.T.);
#319=EDGE_CURVE('',#282,#282,#335,.T.);
#320=CIRCLE('',#350,3.98935822227521);
#321=CIRCLE('',#351,4.);
#322=CIRCLE('',#353,4.);
#323=CIRCLE('',#354,4.);
#324=CIRCLE('',#356,4.);
#325=CIRCLE('',#357,4.);
#326=CIRCLE('',#359,4.);
#327=CIRCLE('',#361,4.);
#328=CIRCLE('',#373,4.);
#329=CIRCLE('',#375,6.35);
#330=CIRCLE('',#376,6.35);
#331=CIRCLE('',#378,4.80384757729336);
#332=CIRCLE('',#380,4.);
#333=CIRCLE('',#384,4.85);
#334=CIRCLE('',#386,6.35);
#335=CIRCLE('',#388,6.35);
#336=PRESENTATION_LAYER_ASSIGNMENT('1','Layer 1',(#349,#36));
#337=PRESENTATION_LAYER_ASSIGNMENT('2','Layer 2',(#35));
#338=STYLED_ITEM('',(#341),#349);
#339=STYLED_ITEM('',(#342),#35);
#340=STYLED_ITEM('',(#343),#36);
#341=PRESENTATION_STYLE_ASSIGNMENT((#344));
#342=PRESENTATION_STYLE_ASSIGNMENT((#25));
#343=PRESENTATION_STYLE_ASSIGNMENT((#26));
#344=CURVE_STYLE('',#347,POSITIVE_LENGTH_MEASURE(0.13),#345);
#345=COLOUR_RGB('Strong Stone',0.576470588235294,0.54508278019379,0.392156862745098);
#346=COLOUR_RGB('Medium Gray',0.490196078431373,0.490196078431373,0.490196078431373);
#347=DRAUGHTING_PRE_DEFINED_CURVE_FONT('continuous');
#348=AXIS2_PLACEMENT_3D('',#492,#391,#392);
#349=AXIS2_PLACEMENT_3D('',#493,#393,#394);
#350=AXIS2_PLACEMENT_3D('',#494,#395,#396);
#351=AXIS2_PLACEMENT_3D('',#496,#397,#398);
#352=AXIS2_PLACEMENT_3D('',#498,#399,#400);
#353=AXIS2_PLACEMENT_3D('',#499,#401,#402);
#354=AXIS2_PLACEMENT_3D('',#507,#403,#404);
#355=AXIS2_PLACEMENT_3D('',#509,#405,#406);
#356=AXIS2_PLACEMENT_3D('',#511,#407,#408);
#357=AXIS2_PLACEMENT_3D('',#518,#409,#410);
#358=AXIS2_PLACEMENT_3D('',#520,#411,#412);
#359=AXIS2_PLACEMENT_3D('',#522,#413,#414);
#360=AXIS2_PLACEMENT_3D('',#524,#415,#416);
#361=AXIS2_PLACEMENT_3D('',#526,#417,#418);
#362=AXIS2_PLACEMENT_3D('',#532,#419,#420);
#363=AXIS2_PLACEMENT_3D('',#536,#423,#424);
#364=AXIS2_PLACEMENT_3D('',#540,#427,#428);
#365=AXIS2_PLACEMENT_3D('',#544,#431,#432);
#366=AXIS2_PLACEMENT_3D('',#548,#435,#436);
#367=AXIS2_PLACEMENT_3D('',#552,#439,#440);
#368=AXIS2_PLACEMENT_3D('',#558,#445,#446);
#369=AXIS2_PLACEMENT_3D('',#559,#447,#448);
#370=AXIS2_PLACEMENT_3D('',#561,#450,#451);
#371=AXIS2_PLACEMENT_3D('',#562,#452,#453);
#372=AXIS2_PLACEMENT_3D('',#563,#454,#455);
#373=AXIS2_PLACEMENT_3D('',#564,#456,#457);
#374=AXIS2_PLACEMENT_3D('',#566,#458,#459);
#375=AXIS2_PLACEMENT_3D('',#567,#460,#461);
#376=AXIS2_PLACEMENT_3D('',#569,#462,#463);
#377=AXIS2_PLACEMENT_3D('',#571,#464,#465);
#378=AXIS2_PLACEMENT_3D('',#572,#466,#467);
#379=AXIS2_PLACEMENT_3D('',#574,#468,#469);
#380=AXIS2_PLACEMENT_3D('',#575,#470,#471);
#381=AXIS2_PLACEMENT_3D('',#577,#472,#473);
#382=AXIS2_PLACEMENT_3D('',#578,#474,#475);
#383=AXIS2_PLACEMENT_3D('',#579,#476,#477);
#384=AXIS2_PLACEMENT_3D('',#580,#478,#479);
#385=AXIS2_PLACEMENT_3D('',#582,#480,#481);
#386=AXIS2_PLACEMENT_3D('',#583,#482,#483);
#387=AXIS2_PLACEMENT_3D('',#585,#484,#485);
#388=AXIS2_PLACEMENT_3D('',#586,#486,#487);
#389=AXIS2_PLACEMENT_3D('',#588,#488,#489);
#390=AXIS2_PLACEMENT_3D('',#589,#490,#491);
#391=DIRECTION('',(0.,0.,1.));
#392=DIRECTION('',(1.,0.,0.));
#393=DIRECTION('',(0.,0.,1.));
#394=DIRECTION('',(1.,0.,0.));
#395=DIRECTION('',(0.,0.,-1.));
#396=DIRECTION('',(-1.,0.,0.));
#397=DIRECTION('',(0.,0.,-1.));
#398=DIRECTION('',(1.,0.,0.));
#399=DIRECTION('',(0.,0.,-1.));
#400=DIRECTION('',(1.,0.,0.));
#401=DIRECTION('',(0.,0.,-1.));
#402=DIRECTION('',(1.,0.,0.));
#403=DIRECTION('',(0.,0.,1.));
#404=DIRECTION('',(1.,0.,0.));
#405=DIRECTION('',(-0.433012701892211,0.750000000000002,0.500000000000004));
#406=DIRECTION('',(-0.249999999999998,0.433012701892225,-0.866025403784436));
#407=DIRECTION('',(0.,0.,-1.));
#408=DIRECTION('',(1.,0.,0.));
#409=DIRECTION('',(0.,0.,1.));
#410=DIRECTION('',(1.,0.,0.));
#411=DIRECTION('',(-0.433012701892222,-0.749999999999996,0.500000000000004));
#412=DIRECTION('',(-0.250000000000004,-0.433012701892221,-0.866025403784436));
#413=DIRECTION('',(0.,0.,-1.));
#414=DIRECTION('',(1.,0.,0.));
#415=DIRECTION('',(-0.866025403784446,0.,0.499999999999988));
#416=DIRECTION('',(-0.499999999999988,0.,-0.866025403784446));
#417=DIRECTION('',(0.,0.,1.));
#418=DIRECTION('',(1.,0.,0.));
#419=DIRECTION('',(0.,0.,-1.));
#420=DIRECTION('',(-1.,0.,0.));
#421=DIRECTION('',(-0.866025403784443,-0.499999999999992,0.));
#422=DIRECTION('',(-0.866025403784436,0.500000000000004,0.));
#423=DIRECTION('',(0.,0.,1.));
#424=DIRECTION('',(1.,0.,0.));
#425=DIRECTION('',(0.866025403784436,-0.500000000000004,0.));
#426=DIRECTION('',(0.,-1.,0.));
#427=DIRECTION('',(0.,0.,1.));
#428=DIRECTION('',(1.,0.,0.));
#429=DIRECTION('',(-0.480384461415248,-0.277350098112629,-0.832050294337847));
#430=DIRECTION('',(-0.866025403784436,0.500000000000004,0.));
#431=DIRECTION('',(-0.433012701892222,-0.749999999999996,0.500000000000004));
#432=DIRECTION('',(-6.76542155630955E-17,0.554700196225234,0.83205029433784));
#433=DIRECTION('',(0.,1.,0.));
#434=DIRECTION('',(0.866025403784443,0.499999999999992,0.));
#435=DIRECTION('',(0.,0.,1.));
#436=DIRECTION('',(1.,0.,0.));
#437=DIRECTION('',(0.,-1.,0.));
#438=DIRECTION('',(0.480384461415268,-0.277350098112597,-0.832050294337846));
#439=DIRECTION('',(0.866025403784436,0.,0.500000000000004));
#440=DIRECTION('',(0.500000000000004,0.,-0.866025403784436));
#441=DIRECTION('',(0.,-1.,0.));
#442=DIRECTION('',(-0.866025403784436,0.500000000000004,0.));
#443=DIRECTION('',(0.866025403784443,0.499999999999992,0.));
#444=DIRECTION('',(0.866025403784443,0.499999999999992,0.));
#445=DIRECTION('',(-9.79100466913938E-15,0.,1.));
#446=DIRECTION('',(1.,0.,9.7907792984131E-15));
#447=DIRECTION('',(-0.866025403784446,0.,0.499999999999988));
#448=DIRECTION('',(0.499999999999988,0.,0.866025403784446));
#449=DIRECTION('',(-1.66708094062245E-14,0.554700196225224,-0.832050294337847));
#450=DIRECTION('',(0.433012701892226,0.750000000000004,0.499999999999987));
#451=DIRECTION('',(-6.76135579816273E-17,0.554700196225217,-0.832050294337852));
#452=DIRECTION('',(0.433012701892216,-0.75000000000001,0.499999999999988));
#453=DIRECTION('',(-2.1618991319361E-16,0.554700196225215,0.832050294337853));
#454=DIRECTION('',(-0.433012701892211,0.750000000000003,0.500000000000003));
#455=DIRECTION('',(2.16352543519482E-16,0.55470019622523,-0.832050294337843));
#456=DIRECTION('',(0.,-1.33440267382832E-16,1.));
#457=DIRECTION('',(0.,-1.,0.));
#458=DIRECTION('',(0.,-1.33440267382832E-16,1.));
#459=DIRECTION('',(0.,1.,-1.90324100626434E-17));
#460=DIRECTION('',(0.,0.,-1.));
#461=DIRECTION('',(1.,0.,0.));
#462=DIRECTION('',(0.,0.,-1.));
#463=DIRECTION('',(1.,0.,0.));
#464=DIRECTION('',(0.,0.,-1.));
#465=DIRECTION('',(-1.,0.,0.));
#466=DIRECTION('',(0.,0.,-1.));
#467=DIRECTION('',(1.,0.,0.));
#468=DIRECTION('',(0.,0.,1.));
#469=DIRECTION('',(1.,0.,-1.18877688947115E-17));
#470=DIRECTION('',(0.,0.,-1.));
#471=DIRECTION('',(1.,0.,0.));
#472=DIRECTION('',(0.,0.,-1.));
#473=DIRECTION('',(-1.,0.,0.));
#474=DIRECTION('',(0.,0.,-1.));
#475=DIRECTION('',(-1.,0.,0.));
#476=DIRECTION('',(0.,0.,1.));
#477=DIRECTION('',(-1.,0.,0.));
#478=DIRECTION('',(0.,0.,-1.));
#479=DIRECTION('',(1.,0.,0.));
#480=DIRECTION('',(0.,0.,-1.));
#481=DIRECTION('',(-1.,0.,0.));
#482=DIRECTION('',(0.,0.,-1.));
#483=DIRECTION('',(1.,0.,0.));
#484=DIRECTION('',(0.,0.,-1.));
#485=DIRECTION('',(-1.,0.,4.14324162048484E-17));
#486=DIRECTION('',(0.,0.,1.));
#487=DIRECTION('',(1.,0.,0.));
#488=DIRECTION('',(0.,0.,-1.));
#489=DIRECTION('',(-1.,0.,0.));
#490=DIRECTION('',(0.,0.,1.));
#491=DIRECTION('',(-1.,0.,0.));
#492=CARTESIAN_POINT('',(0.,0.,0.));
#493=CARTESIAN_POINT('',(0.,0.,0.));
#494=CARTESIAN_POINT('',(-1.43168217225742E-15,2.17590928772456E-15,-28.0292380440016));
#495=CARTESIAN_POINT('',(-3.98935822227521,2.17590928772456E-15,-28.0292380440016));
#496=CARTESIAN_POINT('',(0.,0.,-28.0292380440016));
#497=CARTESIAN_POINT('',(4.,0.,-28.0292380440016));
#498=CARTESIAN_POINT('',(0.,0.,-28.0292380440016));
#499=CARTESIAN_POINT('',(0.,0.,-45.5));
#500=CARTESIAN_POINT('',(3.91088820921208,0.839615039792578,-45.5));
#501=CARTESIAN_POINT('',(1.22831615074618,-3.80673606043499,-45.5));
#502=CARTESIAN_POINT('',(3.91088820921208,0.839615039792578,-45.5));
#503=CARTESIAN_POINT('',(3.8733554319264,1.01444098881541,-45.2052567378617));
#504=CARTESIAN_POINT('',(3.82420171030197,1.18636170738355,-44.9048072883922));
#505=CARTESIAN_POINT('',(3.76364763499871,1.35460565463481,-44.6));
#506=CARTESIAN_POINT('',(3.76364763499871,1.35460565463481,-44.6));
#507=CARTESIAN_POINT('',(0.,0.,-44.6));
#508=CARTESIAN_POINT('',(3.05494672652321,2.58211163548464,-44.6));
#509=CARTESIAN_POINT('',(0.,0.,-43.3724940191503));
#510=CARTESIAN_POINT('',(2.68257205846594,2.96712102064237,-45.5));
#511=CARTESIAN_POINT('',(0.,0.,-45.5));
#512=CARTESIAN_POINT('',(-2.68257205846591,2.96712102064239,-45.5));
#513=CARTESIAN_POINT('',(-2.68257205846591,2.96712102064239,-45.5));
#514=CARTESIAN_POINT('',(-2.81520938291756,2.84720370752699,-45.2052567378617));
#515=CARTESIAN_POINT('',(-2.93952023182223,2.71867497662562,-44.9048072883922));
#516=CARTESIAN_POINT('',(-3.05494672652316,2.58211163548469,-44.6));
#517=CARTESIAN_POINT('',(-3.05494672652316,2.58211163548469,-44.6));
#518=CARTESIAN_POINT('',(0.,0.,-44.6));
#519=CARTESIAN_POINT('',(-3.7636476349987,1.35460565463484,-44.6));
#520=CARTESIAN_POINT('',(0.,0.,-43.3724940191502));
#521=CARTESIAN_POINT('',(-3.91088820921208,0.839615039792579,-45.5));
#522=CARTESIAN_POINT('',(0.,0.,-45.5));
#523=CARTESIAN_POINT('',(-1.22831615074616,-3.80673606043499,-45.5));
#524=CARTESIAN_POINT('',(0.,0.,-43.3724940191502));
#525=CARTESIAN_POINT('',(-0.708700908475534,-3.93671729011952,-44.6));
#526=CARTESIAN_POINT('',(0.,0.,-44.6));
#527=CARTESIAN_POINT('',(0.70870090847554,-3.93671729011951,-44.6));
#528=CARTESIAN_POINT('',(0.70870090847554,-3.93671729011951,-44.6));
#529=CARTESIAN_POINT('',(0.884681478479744,-3.90503668400918,-44.9048072883922));
#530=CARTESIAN_POINT('',(1.05814604900885,-3.86164469634241,-45.2052567378617));
#531=CARTESIAN_POINT('',(1.22831615074618,-3.80673606043499,-45.5));
#532=CARTESIAN_POINT('',(0.,0.,-955.));
#533=CARTESIAN_POINT('',(-0.614158075373079,1.06375299042491,-45.5));
#534=CARTESIAN_POINT('',(-5.97395397039513E-14,1.41833732056651,-45.5));
#535=CARTESIAN_POINT('',(0.614158075373081,1.06375299042488,-45.5));
#536=CARTESIAN_POINT('',(0.,1.39609735102798E-15,-45.5));
#537=CARTESIAN_POINT('',(-0.614158075373095,-1.0637529904249,-45.5));
#538=CARTESIAN_POINT('',(-1.22831615074612,-0.709168660283324,-45.5));
#539=CARTESIAN_POINT('',(-1.22831615074615,1.39609735102798E-15,-45.5));
#540=CARTESIAN_POINT('',(0.,1.39609735102798E-15,-45.5));
#541=CARTESIAN_POINT('',(-1.26706497050176,-0.731540301800025,-45.5671149245501));
#542=CARTESIAN_POINT('',(-0.708700908475474,-0.40916866028331,-44.6));
#543=CARTESIAN_POINT('',(-3.81845206937551,1.3862470095751,-44.6));
#544=CARTESIAN_POINT('',(-1.04717077726532,-0.213752990424913,-44.6));
#545=CARTESIAN_POINT('',(1.22831615074618,1.39609735102798E-15,-45.5));
#546=CARTESIAN_POINT('',(1.2283161507462,-0.709168660283205,-45.5));
#547=CARTESIAN_POINT('',(0.614158075373067,-1.06375299042489,-45.5));
#548=CARTESIAN_POINT('',(0.,1.39609735102798E-15,-45.5));
#549=CARTESIAN_POINT('',(0.708700908475528,-0.8,-44.6));
#550=CARTESIAN_POINT('',(0.70870090847552,-0.40916866028322,-44.6));
#551=CARTESIAN_POINT('',(1.26706497050184,-0.731540301799903,-45.5671149245501));
#552=CARTESIAN_POINT('',(0.708700908475528,-0.8,-44.6));
#553=CARTESIAN_POINT('',(-0.708700908475532,-0.8,-44.6));
#554=CARTESIAN_POINT('',(-3.10975116089998,2.61375299042494,-44.6));
#555=CARTESIAN_POINT('',(-4.14707330975705E-14,0.818337320566519,-44.6));
#556=CARTESIAN_POINT('',(3.10975116090001,2.61375299042489,-44.6));
#557=CARTESIAN_POINT('',(3.81845206937553,1.38624700957504,-44.6));
#558=CARTESIAN_POINT('',(-0.708700908475532,-0.8,-44.6));
#559=CARTESIAN_POINT('',(-1.25718366420566,-0.8,-45.5500000000001));
#560=CARTESIAN_POINT('',(-6.10812398924021E-14,1.46308060359992,-45.5671149245501));
#561=CARTESIAN_POINT('',(-0.0642284909247136,1.48875299042491,-45.5500000000001));
#562=CARTESIAN_POINT('',(1.32141215513038,-0.688752990424921,-45.5500000000001));
#563=CARTESIAN_POINT('',(0.338469868789796,1.01375299042491,-44.6));
#564=CARTESIAN_POINT('',(0.,9.34081871679812E-16,-28.));
#565=CARTESIAN_POINT('',(0.,-4.,-28.));
#566=CARTESIAN_POINT('',(0.,2.17590928772456E-15,-37.3062419642941));
#567=CARTESIAN_POINT('',(0.,0.,-15.3219854476263));
#568=CARTESIAN_POINT('',(6.35,0.,-15.3219854476263));
#569=CARTESIAN_POINT('',(0.,0.,0.));
#570=CARTESIAN_POINT('',(6.35,0.,0.));
#571=CARTESIAN_POINT('',(0.,0.,-955.));
#572=CARTESIAN_POINT('',(0.,0.,-17.9999999999999));
#573=CARTESIAN_POINT('',(4.80384757729336,0.,-17.9999999999999));
#574=CARTESIAN_POINT('',(0.,0.,-15.3219854476263));
#575=CARTESIAN_POINT('',(0.,0.,-21.0000000000001));
#576=CARTESIAN_POINT('',(4.,0.,-21.0000000000001));
#577=CARTESIAN_POINT('',(0.,0.,-955.));
#578=CARTESIAN_POINT('',(0.,0.,-21.));
#579=CARTESIAN_POINT('',(0.,0.,0.));
#580=CARTESIAN_POINT('',(0.,0.,45.));
#581=CARTESIAN_POINT('',(4.85,0.,45.));
#582=CARTESIAN_POINT('',(0.,-4.85,45.));
#583=CARTESIAN_POINT('',(0.,0.,43.5));
#584=CARTESIAN_POINT('',(6.35,0.,43.5));
#585=CARTESIAN_POINT('',(0.,0.,45.));
#586=CARTESIAN_POINT('',(0.,0.,0.));
#587=CARTESIAN_POINT('',(6.35,0.,0.));
#588=CARTESIAN_POINT('',(0.,0.,-955.));
#589=CARTESIAN_POINT('',(0.,0.,0.));
#590=MECHANICAL_DESIGN_GEOMETRIC_PRESENTATION_REPRESENTATION('',(#338,#339,
#340),#591);
#591=(
GEOMETRIC_REPRESENTATION_CONTEXT(3)
GLOBAL_UNCERTAINTY_ASSIGNED_CONTEXT((#592))
GLOBAL_UNIT_ASSIGNED_CONTEXT((#598,#594,#593))
REPRESENTATION_CONTEXT('335.14-050008','TOP_LEVEL_ASSEMBLY_PART')
);
#592=UNCERTAINTY_MEASURE_WITH_UNIT(LENGTH_MEASURE(2.E-5),#598,
'DISTANCE_ACCURACY_VALUE','Maximum Tolerance applied to model');
#593=(
NAMED_UNIT(*)
SI_UNIT($,.STERADIAN.)
SOLID_ANGLE_UNIT()
);
#594=(
CONVERSION_BASED_UNIT('DEGREE',#596)
NAMED_UNIT(#595)
PLANE_ANGLE_UNIT()
);
#595=DIMENSIONAL_EXPONENTS(0.,0.,0.,0.,0.,0.,0.);
#596=PLANE_ANGLE_MEASURE_WITH_UNIT(PLANE_ANGLE_MEASURE(0.0174532925),#597);
#597=(
NAMED_UNIT(*)
PLANE_ANGLE_UNIT()
SI_UNIT($,.RADIAN.)
);
#598=(
LENGTH_UNIT()
NAMED_UNIT(*)
SI_UNIT(.MILLI.,.METRE.)
);
ENDSEC;
END-ISO-10303-21;
