ISO-10303-21;
HEADER;
/* Generated by software containing ST-Developer
 * from STEP Tools, Inc. (www.steptools.com) 
 */
/* OPTION: using custom schema-name function */

FILE_DESCRIPTION(
/* description */ (''),
/* implementation_level */ '2;1');

FILE_NAME(
/* name */ '335.14-050006.0-118-354-E.stp',
/* time_stamp */ '2018-02-19T13:39:17+05:00',
/* author */ (''),
/* organization */ (''),
/* preprocessor_version */ 'ST-DEVELOPER v16',
/* originating_system */ 'SIEMENS PLM Software NX 11.0',
/* authorisation */ '');

FILE_SCHEMA (('AUTOMOTIVE_DESIGN { 1 0 10303 214 3 1 1 1 }'));
ENDSEC;

DATA;
#10=CONSTRUCTIVE_GEOMETRY_REPRESENTATION_RELATIONSHIP(
'supplemental geometry','',#24,#11);
#11=CONSTRUCTIVE_GEOMETRY_REPRESENTATION('supplemental geometry',(#349),
#591);
#12=SHAPE_REPRESENTATION_RELATIONSHIP('None',
'relationship between 335.14-050006.0-118-354-E-None and 335.14-050006.
0-118-354-E-None',#24,#13);
#13=ADVANCED_BREP_SHAPE_REPRESENTATION('335.14-050006.0-118-354-E-None',
(#35,#36),#591);
#14=SHAPE_DEFINITION_REPRESENTATION(#15,#24);
#15=PRODUCT_DEFINITION_SHAPE('','',#16);
#16=PRODUCT_DEFINITION(' ','',#18,#17);
#17=PRODUCT_DEFINITION_CONTEXT('part definition',#23,'design');
#18=PRODUCT_DEFINITION_FORMATION_WITH_SPECIFIED_SOURCE(' ',' ',#20,
 .NOT_KNOWN.);
#19=PRODUCT_RELATED_PRODUCT_CATEGORY('part','',(#20));
#20=PRODUCT('335.14-050006.0-118-354-E','335.14-050006.0-118-354-E',' ',
(#21));
#21=PRODUCT_CONTEXT(' ',#23,'mechanical');
#22=APPLICATION_PROTOCOL_DEFINITION('international standard',
'automotive_design',2010,#23);
#23=APPLICATION_CONTEXT(
'core data for automotive mechanical design processes');
#24=SHAPE_REPRESENTATION('335.14-050006.0-118-354-E-None',(#348),#591);
#25=SURFACE_STYLE_USAGE(.BOTH.,#27);
#26=SURFACE_STYLE_USAGE(.BOTH.,#28);
#27=SURFACE_SIDE_STYLE('',(#29));
#28=SURFACE_SIDE_STYLE('',(#30));
#29=SURFACE_STYLE_FILL_AREA(#31);
#30=SURFACE_STYLE_FILL_AREA(#32);
#31=FILL_AREA_STYLE('',(#33));
#32=FILL_AREA_STYLE('',(#34));
#33=FILL_AREA_STYLE_COLOUR('',#346);
#34=FILL_AREA_STYLE_COLOUR('',#346);
#35=MANIFOLD_SOLID_BREP('NOCUT',#37);
#36=MANIFOLD_SOLID_BREP('NOCUT',#38);
#37=CLOSED_SHELL('',(#106,#107,#108,#109,#110,#111,#112,#113,#114,#115,
#116,#117,#118,#119,#120,#121,#122,#123));
#38=CLOSED_SHELL('',(#124,#125,#126,#127));
#39=LINE('',#549,#54);
#40=LINE('',#551,#55);
#41=LINE('',#553,#56);
#42=LINE('',#555,#57);
#43=LINE('',#557,#58);
#44=LINE('',#559,#59);
#45=LINE('',#561,#60);
#46=LINE('',#563,#61);
#47=LINE('',#565,#62);
#48=LINE('',#566,#63);
#49=LINE('',#568,#64);
#50=LINE('',#569,#65);
#51=LINE('',#571,#66);
#52=LINE('',#573,#67);
#53=LINE('',#575,#68);
#54=VECTOR('',#434,1.);
#55=VECTOR('',#435,1.);
#56=VECTOR('',#438,1.);
#57=VECTOR('',#439,1.);
#58=VECTOR('',#442,1.);
#59=VECTOR('',#443,1.);
#60=VECTOR('',#446,1.);
#61=VECTOR('',#447,1.);
#62=VECTOR('',#448,1.);
#63=VECTOR('',#449,1.);
#64=VECTOR('',#450,1.);
#65=VECTOR('',#451,1.);
#66=VECTOR('',#454,1.);
#67=VECTOR('',#457,1.);
#68=VECTOR('',#460,1.);
#69=(
BOUNDED_CURVE()
B_SPLINE_CURVE(3,(#509,#510,#511,#512),.UNSPECIFIED.,.F.,.F.)
B_SPLINE_CURVE_WITH_KNOTS((4,4),(0.,1.),.UNSPECIFIED.)
CURVE()
GEOMETRIC_REPRESENTATION_ITEM()
RATIONAL_B_SPLINE_CURVE((1.,0.998634990750286,0.998634990750286,1.))
REPRESENTATION_ITEM('')
);
#70=(
BOUNDED_CURVE()
B_SPLINE_CURVE(3,(#516,#517,#518,#519),.UNSPECIFIED.,.F.,.F.)
B_SPLINE_CURVE_WITH_KNOTS((4,4),(0.,1.),.UNSPECIFIED.)
CURVE()
GEOMETRIC_REPRESENTATION_ITEM()
RATIONAL_B_SPLINE_CURVE((1.,0.998634990750286,0.998634990750286,1.))
REPRESENTATION_ITEM('')
);
#71=(
BOUNDED_CURVE()
B_SPLINE_CURVE(3,(#523,#524,#525,#526),.UNSPECIFIED.,.F.,.F.)
B_SPLINE_CURVE_WITH_KNOTS((4,4),(0.,1.),.UNSPECIFIED.)
CURVE()
GEOMETRIC_REPRESENTATION_ITEM()
RATIONAL_B_SPLINE_CURVE((1.,0.998634990750286,0.998634990750286,1.))
REPRESENTATION_ITEM('')
);
#72=(
BOUNDED_CURVE()
B_SPLINE_CURVE(3,(#530,#531,#532,#533),.UNSPECIFIED.,.F.,.F.)
B_SPLINE_CURVE_WITH_KNOTS((4,4),(0.,1.),.UNSPECIFIED.)
CURVE()
GEOMETRIC_REPRESENTATION_ITEM()
RATIONAL_B_SPLINE_CURVE((1.,0.998634990750286,0.998634990750286,1.))
REPRESENTATION_ITEM('')
);
#73=(
BOUNDED_CURVE()
B_SPLINE_CURVE(3,(#537,#538,#539,#540),.UNSPECIFIED.,.F.,.F.)
B_SPLINE_CURVE_WITH_KNOTS((4,4),(0.,1.),.UNSPECIFIED.)
CURVE()
GEOMETRIC_REPRESENTATION_ITEM()
RATIONAL_B_SPLINE_CURVE((1.,0.998634990750286,0.998634990750286,1.))
REPRESENTATION_ITEM('')
);
#74=(
BOUNDED_CURVE()
B_SPLINE_CURVE(3,(#544,#545,#546,#547),.UNSPECIFIED.,.F.,.F.)
B_SPLINE_CURVE_WITH_KNOTS((4,4),(0.,1.),.UNSPECIFIED.)
CURVE()
GEOMETRIC_REPRESENTATION_ITEM()
RATIONAL_B_SPLINE_CURVE((1.,0.998634990750286,0.998634990750286,1.))
REPRESENTATION_ITEM('')
);
#75=PLANE('',#361);
#76=PLANE('',#363);
#77=PLANE('',#371);
#78=PLANE('',#372);
#79=PLANE('',#373);
#80=PLANE('',#374);
#81=PLANE('',#375);
#82=PLANE('',#376);
#83=PLANE('',#377);
#84=PLANE('',#378);
#85=PLANE('',#379);
#86=PLANE('',#380);
#87=PLANE('',#382);
#88=PLANE('',#387);
#89=FACE_OUTER_BOUND('',#160,.T.);
#90=FACE_OUTER_BOUND('',#165,.T.);
#91=FACE_OUTER_BOUND('',#166,.T.);
#92=FACE_OUTER_BOUND('',#167,.T.);
#93=FACE_OUTER_BOUND('',#168,.T.);
#94=FACE_OUTER_BOUND('',#169,.T.);
#95=FACE_OUTER_BOUND('',#170,.T.);
#96=FACE_OUTER_BOUND('',#171,.T.);
#97=FACE_OUTER_BOUND('',#172,.T.);
#98=FACE_OUTER_BOUND('',#173,.T.);
#99=FACE_OUTER_BOUND('',#174,.T.);
#100=FACE_OUTER_BOUND('',#175,.T.);
#101=FACE_OUTER_BOUND('',#180,.T.);
#102=TOROIDAL_SURFACE('',#360,9.,6.);
#103=CONICAL_SURFACE('',#355,0.452208360136628,19.9999999999997);
#104=CONICAL_SURFACE('',#357,6.35,30.0000000000005);
#105=CONICAL_SURFACE('',#384,4.85,45.000000000001);
#106=ADVANCED_FACE('',(#132,#133),#128,.T.);
#107=ADVANCED_FACE('',(#134,#135),#103,.T.);
#108=ADVANCED_FACE('',(#136,#137),#104,.T.);
#109=ADVANCED_FACE('',(#138,#139),#129,.T.);
#110=ADVANCED_FACE('',(#140,#141),#102,.F.);
#111=ADVANCED_FACE('',(#89),#75,.T.);
#112=ADVANCED_FACE('',(#142,#143),#76,.T.);
#113=ADVANCED_FACE('',(#144,#145),#130,.T.);
#114=ADVANCED_FACE('',(#90),#77,.T.);
#115=ADVANCED_FACE('',(#91),#78,.T.);
#116=ADVANCED_FACE('',(#92),#79,.T.);
#117=ADVANCED_FACE('',(#93),#80,.F.);
#118=ADVANCED_FACE('',(#94),#81,.F.);
#119=ADVANCED_FACE('',(#95),#82,.F.);
#120=ADVANCED_FACE('',(#96),#83,.F.);
#121=ADVANCED_FACE('',(#97),#84,.F.);
#122=ADVANCED_FACE('',(#98),#85,.F.);
#123=ADVANCED_FACE('',(#99),#86,.F.);
#124=ADVANCED_FACE('',(#100),#87,.F.);
#125=ADVANCED_FACE('',(#146,#147),#105,.T.);
#126=ADVANCED_FACE('',(#148,#149),#131,.T.);
#127=ADVANCED_FACE('',(#101),#88,.F.);
#128=CYLINDRICAL_SURFACE('',#352,6.35);
#129=CYLINDRICAL_SURFACE('',#359,3.);
#130=CYLINDRICAL_SURFACE('',#370,3.00000000000001);
#131=CYLINDRICAL_SURFACE('',#386,6.35);
#132=FACE_BOUND('',#150,.T.);
#133=FACE_BOUND('',#151,.T.);
#134=FACE_BOUND('',#152,.T.);
#135=FACE_BOUND('',#153,.T.);
#136=FACE_BOUND('',#154,.T.);
#137=FACE_BOUND('',#155,.T.);
#138=FACE_BOUND('',#156,.T.);
#139=FACE_BOUND('',#157,.T.);
#140=FACE_BOUND('',#158,.T.);
#141=FACE_BOUND('',#159,.T.);
#142=FACE_BOUND('',#161,.T.);
#143=FACE_BOUND('',#162,.T.);
#144=FACE_BOUND('',#163,.T.);
#145=FACE_BOUND('',#164,.T.);
#146=FACE_BOUND('',#176,.T.);
#147=FACE_BOUND('',#177,.T.);
#148=FACE_BOUND('',#178,.T.);
#149=FACE_BOUND('',#179,.T.);
#150=EDGE_LOOP('',(#181));
#151=EDGE_LOOP('',(#182));
#152=EDGE_LOOP('',(#183));
#153=EDGE_LOOP('',(#184));
#154=EDGE_LOOP('',(#185));
#155=EDGE_LOOP('',(#186));
#156=EDGE_LOOP('',(#187));
#157=EDGE_LOOP('',(#188));
#158=EDGE_LOOP('',(#189));
#159=EDGE_LOOP('',(#190));
#160=EDGE_LOOP('',(#191));
#161=EDGE_LOOP('',(#192));
#162=EDGE_LOOP('',(#193));
#163=EDGE_LOOP('',(#194));
#164=EDGE_LOOP('',(#195,#196,#197,#198,#199,#200,#201,#202,#203,#204,#205,
#206));
#165=EDGE_LOOP('',(#207,#208,#209));
#166=EDGE_LOOP('',(#210,#211,#212));
#167=EDGE_LOOP('',(#213,#214,#215));
#168=EDGE_LOOP('',(#216,#217,#218,#219,#220,#221,#222,#223,#224));
#169=EDGE_LOOP('',(#225,#226,#227,#228));
#170=EDGE_LOOP('',(#229,#230,#231,#232));
#171=EDGE_LOOP('',(#233,#234,#235,#236));
#172=EDGE_LOOP('',(#237,#238,#239,#240));
#173=EDGE_LOOP('',(#241,#242,#243,#244));
#174=EDGE_LOOP('',(#245,#246,#247,#248));
#175=EDGE_LOOP('',(#249));
#176=EDGE_LOOP('',(#250));
#177=EDGE_LOOP('',(#251));
#178=EDGE_LOOP('',(#252));
#179=EDGE_LOOP('',(#253));
#180=EDGE_LOOP('',(#254));
#181=ORIENTED_EDGE('',*,*,#283,.F.);
#182=ORIENTED_EDGE('',*,*,#284,.T.);
#183=ORIENTED_EDGE('',*,*,#285,.F.);
#184=ORIENTED_EDGE('',*,*,#286,.F.);
#185=ORIENTED_EDGE('',*,*,#283,.T.);
#186=ORIENTED_EDGE('',*,*,#287,.F.);
#187=ORIENTED_EDGE('',*,*,#286,.T.);
#188=ORIENTED_EDGE('',*,*,#288,.T.);
#189=ORIENTED_EDGE('',*,*,#287,.T.);
#190=ORIENTED_EDGE('',*,*,#288,.F.);
#191=ORIENTED_EDGE('',*,*,#284,.F.);
#192=ORIENTED_EDGE('',*,*,#285,.T.);
#193=ORIENTED_EDGE('',*,*,#289,.T.);
#194=ORIENTED_EDGE('',*,*,#289,.F.);
#195=ORIENTED_EDGE('',*,*,#290,.F.);
#196=ORIENTED_EDGE('',*,*,#291,.F.);
#197=ORIENTED_EDGE('',*,*,#292,.T.);
#198=ORIENTED_EDGE('',*,*,#293,.F.);
#199=ORIENTED_EDGE('',*,*,#294,.F.);
#200=ORIENTED_EDGE('',*,*,#295,.F.);
#201=ORIENTED_EDGE('',*,*,#296,.T.);
#202=ORIENTED_EDGE('',*,*,#297,.F.);
#203=ORIENTED_EDGE('',*,*,#298,.F.);
#204=ORIENTED_EDGE('',*,*,#299,.F.);
#205=ORIENTED_EDGE('',*,*,#300,.T.);
#206=ORIENTED_EDGE('',*,*,#301,.F.);
#207=ORIENTED_EDGE('',*,*,#302,.F.);
#208=ORIENTED_EDGE('',*,*,#303,.F.);
#209=ORIENTED_EDGE('',*,*,#296,.F.);
#210=ORIENTED_EDGE('',*,*,#304,.F.);
#211=ORIENTED_EDGE('',*,*,#305,.F.);
#212=ORIENTED_EDGE('',*,*,#300,.F.);
#213=ORIENTED_EDGE('',*,*,#306,.F.);
#214=ORIENTED_EDGE('',*,*,#292,.F.);
#215=ORIENTED_EDGE('',*,*,#307,.F.);
#216=ORIENTED_EDGE('',*,*,#308,.T.);
#217=ORIENTED_EDGE('',*,*,#290,.T.);
#218=ORIENTED_EDGE('',*,*,#309,.F.);
#219=ORIENTED_EDGE('',*,*,#310,.T.);
#220=ORIENTED_EDGE('',*,*,#298,.T.);
#221=ORIENTED_EDGE('',*,*,#311,.F.);
#222=ORIENTED_EDGE('',*,*,#312,.T.);
#223=ORIENTED_EDGE('',*,*,#294,.T.);
#224=ORIENTED_EDGE('',*,*,#313,.F.);
#225=ORIENTED_EDGE('',*,*,#308,.F.);
#226=ORIENTED_EDGE('',*,*,#314,.T.);
#227=ORIENTED_EDGE('',*,*,#307,.T.);
#228=ORIENTED_EDGE('',*,*,#291,.T.);
#229=ORIENTED_EDGE('',*,*,#315,.T.);
#230=ORIENTED_EDGE('',*,*,#309,.T.);
#231=ORIENTED_EDGE('',*,*,#301,.T.);
#232=ORIENTED_EDGE('',*,*,#305,.T.);
#233=ORIENTED_EDGE('',*,*,#316,.T.);
#234=ORIENTED_EDGE('',*,*,#311,.T.);
#235=ORIENTED_EDGE('',*,*,#297,.T.);
#236=ORIENTED_EDGE('',*,*,#303,.T.);
#237=ORIENTED_EDGE('',*,*,#315,.F.);
#238=ORIENTED_EDGE('',*,*,#304,.T.);
#239=ORIENTED_EDGE('',*,*,#299,.T.);
#240=ORIENTED_EDGE('',*,*,#310,.F.);
#241=ORIENTED_EDGE('',*,*,#314,.F.);
#242=ORIENTED_EDGE('',*,*,#313,.T.);
#243=ORIENTED_EDGE('',*,*,#293,.T.);
#244=ORIENTED_EDGE('',*,*,#306,.T.);
#245=ORIENTED_EDGE('',*,*,#312,.F.);
#246=ORIENTED_EDGE('',*,*,#316,.F.);
#247=ORIENTED_EDGE('',*,*,#302,.T.);
#248=ORIENTED_EDGE('',*,*,#295,.T.);
#249=ORIENTED_EDGE('',*,*,#317,.F.);
#250=ORIENTED_EDGE('',*,*,#318,.F.);
#251=ORIENTED_EDGE('',*,*,#317,.T.);
#252=ORIENTED_EDGE('',*,*,#319,.T.);
#253=ORIENTED_EDGE('',*,*,#318,.T.);
#254=ORIENTED_EDGE('',*,*,#319,.F.);
#255=VERTEX_POINT('',#486);
#256=VERTEX_POINT('',#488);
#257=VERTEX_POINT('',#491);
#258=VERTEX_POINT('',#493);
#259=VERTEX_POINT('',#496);
#260=VERTEX_POINT('',#499);
#261=VERTEX_POINT('',#504);
#262=VERTEX_POINT('',#507);
#263=VERTEX_POINT('',#508);
#264=VERTEX_POINT('',#513);
#265=VERTEX_POINT('',#515);
#266=VERTEX_POINT('',#520);
#267=VERTEX_POINT('',#522);
#268=VERTEX_POINT('',#527);
#269=VERTEX_POINT('',#529);
#270=VERTEX_POINT('',#534);
#271=VERTEX_POINT('',#536);
#272=VERTEX_POINT('',#541);
#273=VERTEX_POINT('',#543);
#274=VERTEX_POINT('',#550);
#275=VERTEX_POINT('',#554);
#276=VERTEX_POINT('',#558);
#277=VERTEX_POINT('',#562);
#278=VERTEX_POINT('',#564);
#279=VERTEX_POINT('',#567);
#280=VERTEX_POINT('',#581);
#281=VERTEX_POINT('',#584);
#282=VERTEX_POINT('',#587);
#283=EDGE_CURVE('',#255,#255,#320,.T.);
#284=EDGE_CURVE('',#256,#256,#321,.T.);
#285=EDGE_CURVE('',#257,#257,#322,.T.);
#286=EDGE_CURVE('',#258,#258,#323,.T.);
#287=EDGE_CURVE('',#259,#259,#324,.T.);
#288=EDGE_CURVE('',#260,#260,#325,.T.);
#289=EDGE_CURVE('',#261,#261,#326,.T.);
#290=EDGE_CURVE('',#262,#263,#327,.T.);
#291=EDGE_CURVE('',#264,#262,#69,.T.);
#292=EDGE_CURVE('',#264,#265,#328,.T.);
#293=EDGE_CURVE('',#266,#265,#70,.T.);
#294=EDGE_CURVE('',#267,#266,#329,.T.);
#295=EDGE_CURVE('',#268,#267,#71,.T.);
#296=EDGE_CURVE('',#268,#269,#330,.T.);
#297=EDGE_CURVE('',#270,#269,#72,.T.);
#298=EDGE_CURVE('',#271,#270,#331,.T.);
#299=EDGE_CURVE('',#272,#271,#73,.T.);
#300=EDGE_CURVE('',#272,#273,#332,.T.);
#301=EDGE_CURVE('',#263,#273,#74,.T.);
#302=EDGE_CURVE('',#274,#268,#39,.T.);
#303=EDGE_CURVE('',#269,#274,#40,.T.);
#304=EDGE_CURVE('',#275,#272,#41,.T.);
#305=EDGE_CURVE('',#273,#275,#42,.T.);
#306=EDGE_CURVE('',#265,#276,#43,.T.);
#307=EDGE_CURVE('',#276,#264,#44,.T.);
#308=EDGE_CURVE('',#277,#262,#45,.T.);
#309=EDGE_CURVE('',#278,#263,#46,.T.);
#310=EDGE_CURVE('',#278,#271,#47,.T.);
#311=EDGE_CURVE('',#279,#270,#48,.T.);
#312=EDGE_CURVE('',#279,#267,#49,.T.);
#313=EDGE_CURVE('',#277,#266,#50,.T.);
#314=EDGE_CURVE('',#277,#276,#51,.T.);
#315=EDGE_CURVE('',#275,#278,#52,.T.);
#316=EDGE_CURVE('',#274,#279,#53,.T.);
#317=EDGE_CURVE('',#280,#280,#333,.T.);
#318=EDGE_CURVE('',#281,#281,#334,.T.);
#319=EDGE_CURVE('',#282,#282,#335,.T.);
#320=CIRCLE('',#350,6.35);
#321=CIRCLE('',#351,6.35);
#322=CIRCLE('',#353,2.99893582222755);
#323=CIRCLE('',#354,3.);
#324=CIRCLE('',#356,3.80384757729337);
#325=CIRCLE('',#358,3.);
#326=CIRCLE('',#362,3.00000000000001);
#327=CIRCLE('',#364,3.00000000000001);
#328=CIRCLE('',#365,3.00000000000001);
#329=CIRCLE('',#366,3.00000000000001);
#330=CIRCLE('',#367,3.00000000000001);
#331=CIRCLE('',#368,3.00000000000001);
#332=CIRCLE('',#369,3.00000000000001);
#333=CIRCLE('',#381,4.85);
#334=CIRCLE('',#383,6.35);
#335=CIRCLE('',#385,6.35);
#336=PRESENTATION_LAYER_ASSIGNMENT('1','Layer 1',(#349,#36));
#337=PRESENTATION_LAYER_ASSIGNMENT('2','Layer 2',(#35));
#338=STYLED_ITEM('',(#341),#349);
#339=STYLED_ITEM('',(#342),#35);
#340=STYLED_ITEM('',(#343),#36);
#341=PRESENTATION_STYLE_ASSIGNMENT((#344));
#342=PRESENTATION_STYLE_ASSIGNMENT((#25));
#343=PRESENTATION_STYLE_ASSIGNMENT((#26));
#344=CURVE_STYLE('',#347,POSITIVE_LENGTH_MEASURE(0.13),#345);
#345=COLOUR_RGB('Strong Stone',0.576470588235294,0.54508278019379,0.392156862745098);
#346=COLOUR_RGB('Medium Gray',0.490196078431373,0.490196078431373,0.490196078431373);
#347=DRAUGHTING_PRE_DEFINED_CURVE_FONT('continuous');
#348=AXIS2_PLACEMENT_3D('',#483,#388,#389);
#349=AXIS2_PLACEMENT_3D('',#484,#390,#391);
#350=AXIS2_PLACEMENT_3D('',#485,#392,#393);
#351=AXIS2_PLACEMENT_3D('',#487,#394,#395);
#352=AXIS2_PLACEMENT_3D('',#489,#396,#397);
#353=AXIS2_PLACEMENT_3D('',#490,#398,#399);
#354=AXIS2_PLACEMENT_3D('',#492,#400,#401);
#355=AXIS2_PLACEMENT_3D('',#494,#402,#403);
#356=AXIS2_PLACEMENT_3D('',#495,#404,#405);
#357=AXIS2_PLACEMENT_3D('',#497,#406,#407);
#358=AXIS2_PLACEMENT_3D('',#498,#408,#409);
#359=AXIS2_PLACEMENT_3D('',#500,#410,#411);
#360=AXIS2_PLACEMENT_3D('',#501,#412,#413);
#361=AXIS2_PLACEMENT_3D('',#502,#414,#415);
#362=AXIS2_PLACEMENT_3D('',#503,#416,#417);
#363=AXIS2_PLACEMENT_3D('',#505,#418,#419);
#364=AXIS2_PLACEMENT_3D('',#506,#420,#421);
#365=AXIS2_PLACEMENT_3D('',#514,#422,#423);
#366=AXIS2_PLACEMENT_3D('',#521,#424,#425);
#367=AXIS2_PLACEMENT_3D('',#528,#426,#427);
#368=AXIS2_PLACEMENT_3D('',#535,#428,#429);
#369=AXIS2_PLACEMENT_3D('',#542,#430,#431);
#370=AXIS2_PLACEMENT_3D('',#548,#432,#433);
#371=AXIS2_PLACEMENT_3D('',#552,#436,#437);
#372=AXIS2_PLACEMENT_3D('',#556,#440,#441);
#373=AXIS2_PLACEMENT_3D('',#560,#444,#445);
#374=AXIS2_PLACEMENT_3D('',#570,#452,#453);
#375=AXIS2_PLACEMENT_3D('',#572,#455,#456);
#376=AXIS2_PLACEMENT_3D('',#574,#458,#459);
#377=AXIS2_PLACEMENT_3D('',#576,#461,#462);
#378=AXIS2_PLACEMENT_3D('',#577,#463,#464);
#379=AXIS2_PLACEMENT_3D('',#578,#465,#466);
#380=AXIS2_PLACEMENT_3D('',#579,#467,#468);
#381=AXIS2_PLACEMENT_3D('',#580,#469,#470);
#382=AXIS2_PLACEMENT_3D('',#582,#471,#472);
#383=AXIS2_PLACEMENT_3D('',#583,#473,#474);
#384=AXIS2_PLACEMENT_3D('',#585,#475,#476);
#385=AXIS2_PLACEMENT_3D('',#586,#477,#478);
#386=AXIS2_PLACEMENT_3D('',#588,#479,#480);
#387=AXIS2_PLACEMENT_3D('',#589,#481,#482);
#388=DIRECTION('',(0.,0.,1.));
#389=DIRECTION('',(1.,0.,0.));
#390=DIRECTION('',(0.,0.,1.));
#391=DIRECTION('',(1.,0.,0.));
#392=DIRECTION('',(0.,0.,-1.));
#393=DIRECTION('',(-1.,0.,0.));
#394=DIRECTION('',(0.,0.,-1.));
#395=DIRECTION('',(1.,0.,0.));
#396=DIRECTION('',(0.,0.,-1.));
#397=DIRECTION('',(1.,0.,0.));
#398=DIRECTION('',(0.,-1.22731221066667E-16,-1.));
#399=DIRECTION('',(0.,-1.,0.));
#400=DIRECTION('',(0.,0.,1.));
#401=DIRECTION('',(1.,0.,0.));
#402=DIRECTION('',(0.,0.,1.));
#403=DIRECTION('',(-1.,0.,-7.61631896641683E-17));
#404=DIRECTION('',(0.,0.,-1.));
#405=DIRECTION('',(-1.,0.,0.));
#406=DIRECTION('',(0.,0.,1.));
#407=DIRECTION('',(-1.,0.,-6.53827289209126E-17));
#408=DIRECTION('',(0.,0.,-1.));
#409=DIRECTION('',(-1.,0.,0.));
#410=DIRECTION('',(0.,0.,-1.));
#411=DIRECTION('',(1.,0.,0.));
#412=DIRECTION('',(0.,0.,-1.));
#413=DIRECTION('',(1.,0.,0.));
#414=DIRECTION('',(0.,0.,1.));
#415=DIRECTION('',(-1.,0.,0.));
#416=DIRECTION('',(0.,1.22731221066667E-16,1.));
#417=DIRECTION('',(0.,1.,0.));
#418=DIRECTION('',(0.,1.22731221066667E-16,1.));
#419=DIRECTION('',(0.,1.,-1.21430643318377E-16));
#420=DIRECTION('',(0.,0.,-1.));
#421=DIRECTION('',(1.,0.,0.));
#422=DIRECTION('',(0.,1.22731221066667E-16,1.));
#423=DIRECTION('',(0.,1.,0.));
#424=DIRECTION('',(0.,0.,-1.));
#425=DIRECTION('',(1.,2.66453525910038E-15,0.));
#426=DIRECTION('',(0.,1.22731221066667E-16,1.));
#427=DIRECTION('',(0.,1.,0.));
#428=DIRECTION('',(0.,0.,-1.));
#429=DIRECTION('',(1.,0.,0.));
#430=DIRECTION('',(0.,1.22731221066667E-16,1.));
#431=DIRECTION('',(0.,1.,0.));
#432=DIRECTION('',(0.,1.22731221066667E-16,1.));
#433=DIRECTION('',(0.,-1.,0.));
#434=DIRECTION('',(0.866025403784443,0.499999999999992,-9.34149886397256E-17));
#435=DIRECTION('',(0.866025403784436,-0.500000000000004,6.13656105333339E-17));
#436=DIRECTION('',(0.,-1.22731221066667E-16,-1.));
#437=DIRECTION('',(0.,1.,-1.2490009027033E-16));
#438=DIRECTION('',(-0.866025403784436,0.500000000000004,-9.3414988639727E-17));
#439=DIRECTION('',(-7.08589035208124E-17,1.,-1.22731221066667E-16));
#440=DIRECTION('',(0.,-1.22731221066667E-16,-1.));
#441=DIRECTION('',(0.,1.,-1.2490009027033E-16));
#442=DIRECTION('',(-0.866025403784443,-0.499999999999992,9.34149886397255E-17));
#443=DIRECTION('',(-7.08589035208124E-17,-1.,1.22731221066667E-16));
#444=DIRECTION('',(0.,-1.22731221066667E-16,-1.));
#445=DIRECTION('',(0.,1.,-1.2490009027033E-16));
#446=DIRECTION('',(0.,-1.,0.));
#447=DIRECTION('',(0.,-1.,0.));
#448=DIRECTION('',(-0.866025403784436,0.500000000000004,0.));
#449=DIRECTION('',(-0.866025403784436,0.500000000000004,0.));
#450=DIRECTION('',(0.866025403784443,0.499999999999992,0.));
#451=DIRECTION('',(0.866025403784443,0.499999999999992,0.));
#452=DIRECTION('',(0.,0.,1.));
#453=DIRECTION('',(-1.,0.,0.));
#454=DIRECTION('',(0.480384461415265,-0.277350098112619,-0.83205029433784));
#455=DIRECTION('',(0.866025403784436,0.,0.500000000000004));
#456=DIRECTION('',(-0.500000000000004,0.,0.866025403784436));
#457=DIRECTION('',(0.480384461415265,0.277350098112616,0.832050294337841));
#458=DIRECTION('',(-0.866025403784436,0.,0.500000000000004));
#459=DIRECTION('',(-0.500000000000004,0.,-0.866025403784436));
#460=DIRECTION('',(-4.11804522448139E-15,-0.554700196225233,0.832050294337841));
#461=DIRECTION('',(0.433012701892222,0.749999999999996,0.500000000000004));
#462=DIRECTION('',(2.8844521172619E-16,-0.554700196225234,0.83205029433784));
#463=DIRECTION('',(-0.433012701892222,-0.749999999999996,0.500000000000004));
#464=DIRECTION('',(2.92843006788335E-16,-0.554700196225234,-0.83205029433784));
#465=DIRECTION('',(0.433012701892211,-0.750000000000002,0.500000000000004));
#466=DIRECTION('',(-7.65446733774766E-17,-0.554700196225231,-0.832050294337842));
#467=DIRECTION('',(-0.433012701892211,0.750000000000002,0.500000000000004));
#468=DIRECTION('',(-3.36522801812345E-16,-0.554700196225231,0.832050294337842));
#469=DIRECTION('',(0.,0.,-1.));
#470=DIRECTION('',(-1.,0.,0.));
#471=DIRECTION('',(0.,0.,-1.));
#472=DIRECTION('',(1.,0.,0.));
#473=DIRECTION('',(0.,0.,-1.));
#474=DIRECTION('',(-1.,0.,0.));
#475=DIRECTION('',(0.,0.,-1.));
#476=DIRECTION('',(1.,0.,4.14324162048484E-17));
#477=DIRECTION('',(0.,0.,1.));
#478=DIRECTION('',(1.,0.,0.));
#479=DIRECTION('',(0.,0.,-1.));
#480=DIRECTION('',(1.,0.,0.));
#481=DIRECTION('',(0.,0.,1.));
#482=DIRECTION('',(-1.,0.,0.));
#483=CARTESIAN_POINT('',(0.,0.,0.));
#484=CARTESIAN_POINT('',(0.,0.,0.));
#485=CARTESIAN_POINT('',(0.,0.,-7.5899346400576));
#486=CARTESIAN_POINT('',(-6.35,0.,-7.5899346400576));
#487=CARTESIAN_POINT('',(0.,0.,0.));
#488=CARTESIAN_POINT('',(6.35,0.,0.));
#489=CARTESIAN_POINT('',(0.,0.,-955.));
#490=CARTESIAN_POINT('',(0.,-1.33963996485042E-16,-27.0029238044001));
#491=CARTESIAN_POINT('',(0.,-2.99893582222755,-27.0029238044001));
#492=CARTESIAN_POINT('',(0.,0.,-27.));
#493=CARTESIAN_POINT('',(3.,0.,-27.));
#494=CARTESIAN_POINT('',(0.,0.,-34.));
#495=CARTESIAN_POINT('',(0.,0.,-11.9999999999999));
#496=CARTESIAN_POINT('',(-3.80384757729337,0.,-11.9999999999999));
#497=CARTESIAN_POINT('',(0.,0.,-7.5899346400576));
#498=CARTESIAN_POINT('',(0.,0.,-15.0000000000001));
#499=CARTESIAN_POINT('',(-3.,0.,-15.0000000000001));
#500=CARTESIAN_POINT('',(0.,0.,-955.));
#501=CARTESIAN_POINT('',(0.,0.,-15.));
#502=CARTESIAN_POINT('',(0.,0.,0.));
#503=CARTESIAN_POINT('',(0.,-8.8370067588842E-15,-27.0029238044001));
#504=CARTESIAN_POINT('',(0.,3.,-27.0029238044001));
#505=CARTESIAN_POINT('',(0.,-8.8370067588842E-15,-27.0029238044001));
#506=CARTESIAN_POINT('',(0.,-1.05395436091E-14,-40.875));
#507=CARTESIAN_POINT('',(0.83860471904319,-2.88040659025746,-40.875));
#508=CARTESIAN_POINT('',(-0.83860471904319,-2.88040659025746,-40.875));
#509=CARTESIAN_POINT('',(1.19944863728671,-2.74978598558345,-41.5));
#510=CARTESIAN_POINT('',(1.08203815803717,-2.80100009463681,-41.2966390845988));
#511=CARTESIAN_POINT('',(0.961592442440114,-2.84459981020985,-41.0880209856307));
#512=CARTESIAN_POINT('',(0.83860471904319,-2.88040659025746,-40.875));
#513=CARTESIAN_POINT('',(1.19944863728671,-2.74978598558345,-41.5));
#514=CARTESIAN_POINT('',(0.,-1.06162506222667E-14,-41.5));
#515=CARTESIAN_POINT('',(2.98110883712905,0.336140002366776,-41.5));
#516=CARTESIAN_POINT('',(2.91380763991267,0.713950304703783,-40.875));
#517=CARTESIAN_POINT('',(2.94429192046217,0.589536421864633,-41.0880209856307));
#518=CARTESIAN_POINT('',(2.96675631697667,0.463427514594069,-41.2966390845988));
#519=CARTESIAN_POINT('',(2.98110883712905,0.336140002366776,-41.5));
#520=CARTESIAN_POINT('',(2.91380763991267,0.713950304703783,-40.875));
#521=CARTESIAN_POINT('',(0.,-1.05395436091E-14,-40.875));
#522=CARTESIAN_POINT('',(2.07520292086948,2.16645628555362,-40.875));
#523=CARTESIAN_POINT('',(1.78166019984235,2.41364598321662,-41.5));
#524=CARTESIAN_POINT('',(1.88471815893951,2.33757258004268,-41.2966390845988));
#525=CARTESIAN_POINT('',(1.98269947802207,2.25506338834516,-41.0880209856307));
#526=CARTESIAN_POINT('',(2.07520292086948,2.16645628555362,-40.875));
#527=CARTESIAN_POINT('',(1.78166019984235,2.41364598321662,-41.5));
#528=CARTESIAN_POINT('',(0.,-1.06162506222667E-14,-41.5));
#529=CARTESIAN_POINT('',(-1.78166019984232,2.41364598321664,-41.5));
#530=CARTESIAN_POINT('',(-2.07520292086945,2.16645628555364,-40.875));
#531=CARTESIAN_POINT('',(-1.98269947802203,2.25506338834519,-41.0880209856307));
#532=CARTESIAN_POINT('',(-1.88471815893947,2.33757258004271,-41.2966390845988));
#533=CARTESIAN_POINT('',(-1.78166019984232,2.41364598321664,-41.5));
#534=CARTESIAN_POINT('',(-2.07520292086945,2.16645628555364,-40.875));
#535=CARTESIAN_POINT('',(0.,-1.05395436091E-14,-40.875));
#536=CARTESIAN_POINT('',(-2.91380763991266,0.713950304703822,-40.875));
#537=CARTESIAN_POINT('',(-2.98110883712904,0.336140002366817,-41.5));
#538=CARTESIAN_POINT('',(-2.96675631697666,0.463427514594101,-41.2966390845988));
#539=CARTESIAN_POINT('',(-2.94429192046217,0.589536421864666,-41.0880209856307));
#540=CARTESIAN_POINT('',(-2.91380763991266,0.713950304703822,-40.875));
#541=CARTESIAN_POINT('',(-2.98110883712904,0.336140002366817,-41.5));
#542=CARTESIAN_POINT('',(0.,-1.06162506222667E-14,-41.5));
#543=CARTESIAN_POINT('',(-1.19944863728671,-2.74978598558345,-41.5));
#544=CARTESIAN_POINT('',(-0.83860471904319,-2.88040659025746,-40.875));
#545=CARTESIAN_POINT('',(-0.961592442440113,-2.84459981020985,-41.0880209856307));
#546=CARTESIAN_POINT('',(-1.08203815803717,-2.80100009463681,-41.2966390845988));
#547=CARTESIAN_POINT('',(-1.19944863728671,-2.74978598558345,-41.5));
#548=CARTESIAN_POINT('',(0.,0.,45.));
#549=CARTESIAN_POINT('',(0.699313787033298,1.7887529904249,-41.5));
#550=CARTESIAN_POINT('',(9.21571846612679E-15,1.38500398723322,-41.5));
#551=CARTESIAN_POINT('',(-0.699313787033304,1.78875299042493,-41.5));
#552=CARTESIAN_POINT('',(0.,3.,-41.5));
#553=CARTESIAN_POINT('',(-1.89876242432003,-0.288752990424904,-41.5));
#554=CARTESIAN_POINT('',(-1.19944863728671,-0.692501993616608,-41.5));
#555=CARTESIAN_POINT('',(-1.19944863728671,3.,-41.5));
#556=CARTESIAN_POINT('',(0.,3.,-41.5));
#557=CARTESIAN_POINT('',(1.89876242431999,-0.288752990424948,-41.5));
#558=CARTESIAN_POINT('',(1.19944863728671,-0.692501993616619,-41.5));
#559=CARTESIAN_POINT('',(1.19944863728671,3.,-41.5));
#560=CARTESIAN_POINT('',(0.,3.,-41.5));
#561=CARTESIAN_POINT('',(0.83860471904319,-0.550000000000019,-40.875));
#562=CARTESIAN_POINT('',(0.83860471904319,-0.484168660283281,-40.875));
#563=CARTESIAN_POINT('',(-0.83860471904319,-0.550000000000019,-40.875));
#564=CARTESIAN_POINT('',(-0.83860471904319,-0.484168660283274,-40.875));
#565=CARTESIAN_POINT('',(-0.895616331603055,-0.451252990424901,-40.875));
#566=CARTESIAN_POINT('',(-0.0570116125598575,1.00125299042492,-40.875));
#567=CARTESIAN_POINT('',(6.20028117390148E-15,0.968337320566548,-40.875));
#568=CARTESIAN_POINT('',(0.0570116125598718,1.00125299042492,-40.875));
#569=CARTESIAN_POINT('',(0.895616331603048,-0.451252990424913,-40.875));
#570=CARTESIAN_POINT('',(-0.83860471904319,-0.550000000000019,-40.875));
#571=CARTESIAN_POINT('',(0.847375736360091,-0.489232609492261,-40.890191847627));
#572=CARTESIAN_POINT('',(0.83860471904319,-0.550000000000019,-40.875));
#573=CARTESIAN_POINT('',(-0.847375736360092,-0.489232609492254,-40.890191847627));
#574=CARTESIAN_POINT('',(-0.83860471904319,-0.550000000000019,-40.875));
#575=CARTESIAN_POINT('',(7.06086664831185E-15,0.978465218984512,-40.890191847627));
#576=CARTESIAN_POINT('',(-0.0570116125598575,1.00125299042492,-40.875));
#577=CARTESIAN_POINT('',(-0.895616331603055,-0.451252990424901,-40.875));
#578=CARTESIAN_POINT('',(0.895616331603048,-0.451252990424913,-40.875));
#579=CARTESIAN_POINT('',(0.0570116125598718,1.00125299042492,-40.875));
#580=CARTESIAN_POINT('',(0.,0.,45.));
#581=CARTESIAN_POINT('',(-4.85,0.,45.));
#582=CARTESIAN_POINT('',(0.,4.85,45.));
#583=CARTESIAN_POINT('',(0.,0.,43.5));
#584=CARTESIAN_POINT('',(-6.35,0.,43.5));
#585=CARTESIAN_POINT('',(0.,0.,45.));
#586=CARTESIAN_POINT('',(0.,0.,0.));
#587=CARTESIAN_POINT('',(6.35,0.,0.));
#588=CARTESIAN_POINT('',(0.,0.,-955.));
#589=CARTESIAN_POINT('',(0.,0.,0.));
#590=MECHANICAL_DESIGN_GEOMETRIC_PRESENTATION_REPRESENTATION('',(#338,#339,
#340),#591);
#591=(
GEOMETRIC_REPRESENTATION_CONTEXT(3)
GLOBAL_UNCERTAINTY_ASSIGNED_CONTEXT((#592))
GLOBAL_UNIT_ASSIGNED_CONTEXT((#598,#594,#593))
REPRESENTATION_CONTEXT('335.14-050006','TOP_LEVEL_ASSEMBLY_PART')
);
#592=UNCERTAINTY_MEASURE_WITH_UNIT(LENGTH_MEASURE(2.E-5),#598,
'DISTANCE_ACCURACY_VALUE','Maximum Tolerance applied to model');
#593=(
NAMED_UNIT(*)
SI_UNIT($,.STERADIAN.)
SOLID_ANGLE_UNIT()
);
#594=(
CONVERSION_BASED_UNIT('DEGREE',#596)
NAMED_UNIT(#595)
PLANE_ANGLE_UNIT()
);
#595=DIMENSIONAL_EXPONENTS(0.,0.,0.,0.,0.,0.,0.);
#596=PLANE_ANGLE_MEASURE_WITH_UNIT(PLANE_ANGLE_MEASURE(0.0174532925),#597);
#597=(
NAMED_UNIT(*)
PLANE_ANGLE_UNIT()
SI_UNIT($,.RADIAN.)
);
#598=(
LENGTH_UNIT()
NAMED_UNIT(*)
SI_UNIT(.MILLI.,.METRE.)
);
ENDSEC;
END-ISO-10303-21;
