ISO-10303-21;
HEADER;
/* Generated by software containing ST-Developer
 * from STEP Tools, Inc. (www.steptools.com) 
 */
/* OPTION: using custom schema-name function */

FILE_DESCRIPTION(
/* description */ (''),
/* implementation_level */ '2;1');

FILE_NAME(
/* name */ '150.10-2020-20JETI.stp',
/* time_stamp */ '2018-04-11T16:03:19+06:00',
/* author */ (''),
/* organization */ (''),
/* preprocessor_version */ 'ST-DEVELOPER v16',
/* originating_system */ 'SIEMENS PLM Software NX 11.0',
/* authorisation */ '');

FILE_SCHEMA (('AUTOMOTIVE_DESIGN { 1 0 10303 214 3 1 1 1 }'));
ENDSEC;

DATA;
#10=CONSTRUCTIVE_GEOMETRY_REPRESENTATION_RELATIONSHIP(
'supplemental geometry','',#32,#11);
#11=CONSTRUCTIVE_GEOMETRY_REPRESENTATION('supplemental geometry',(#463,
#464,#465),#711);
#12=PROPERTY_DEFINITION_REPRESENTATION(#16,#14);
#13=PROPERTY_DEFINITION_REPRESENTATION(#17,#15);
#14=REPRESENTATION('',(#18),#711);
#15=REPRESENTATION('',(#19),#711);
#16=PROPERTY_DEFINITION('pmi validation property','',#23);
#17=PROPERTY_DEFINITION('pmi validation property','',#23);
#18=VALUE_REPRESENTATION_ITEM('number of annotations',COUNT_MEASURE(0.));
#19=VALUE_REPRESENTATION_ITEM('number of views',COUNT_MEASURE(0.));
#20=SHAPE_REPRESENTATION_RELATIONSHIP('None',
'relationship between 150.10-2020-20JETI-None and 150.10-2020-20JETI-N
one',#32,#21);
#21=ADVANCED_BREP_SHAPE_REPRESENTATION('150.10-2020-20JETI-None',(#43,#44),
#711);
#22=SHAPE_DEFINITION_REPRESENTATION(#23,#32);
#23=PRODUCT_DEFINITION_SHAPE('','',#24);
#24=PRODUCT_DEFINITION(' ','',#26,#25);
#25=PRODUCT_DEFINITION_CONTEXT('part definition',#31,'design');
#26=PRODUCT_DEFINITION_FORMATION_WITH_SPECIFIED_SOURCE(' ',' ',#28,
 .NOT_KNOWN.);
#27=PRODUCT_RELATED_PRODUCT_CATEGORY('part','',(#28));
#28=PRODUCT('150.10-2020-20JETI','150.10-2020-20JETI',' ',(#29));
#29=PRODUCT_CONTEXT(' ',#31,'mechanical');
#30=APPLICATION_PROTOCOL_DEFINITION('international standard',
'automotive_design',2010,#31);
#31=APPLICATION_CONTEXT(
'core data for automotive mechanical design processes');
#32=SHAPE_REPRESENTATION('150.10-2020-20JETI-None',(#462),#711);
#33=SURFACE_STYLE_USAGE(.BOTH.,#35);
#34=SURFACE_STYLE_USAGE(.BOTH.,#36);
#35=SURFACE_SIDE_STYLE('',(#37));
#36=SURFACE_SIDE_STYLE('',(#38));
#37=SURFACE_STYLE_FILL_AREA(#39);
#38=SURFACE_STYLE_FILL_AREA(#40);
#39=FILL_AREA_STYLE('',(#41));
#40=FILL_AREA_STYLE('',(#42));
#41=FILL_AREA_STYLE_COLOUR('',#458);
#42=FILL_AREA_STYLE_COLOUR('',#458);
#43=MANIFOLD_SOLID_BREP('NOCUT',#45);
#44=MANIFOLD_SOLID_BREP('NOCUT',#46);
#45=CLOSED_SHELL('',(#47,#48,#49,#50,#51,#52,#53,#54,#55,#56,#57,#58,#59,
#60,#61,#62));
#46=CLOSED_SHELL('',(#63,#64,#65,#66,#67,#68));
#47=ADVANCED_FACE('',(#91),#69,.T.);
#48=ADVANCED_FACE('',(#92),#70,.T.);
#49=ADVANCED_FACE('',(#93),#71,.T.);
#50=ADVANCED_FACE('',(#94),#72,.T.);
#51=ADVANCED_FACE('',(#95),#73,.T.);
#52=ADVANCED_FACE('',(#96),#74,.F.);
#53=ADVANCED_FACE('',(#97),#75,.T.);
#54=ADVANCED_FACE('',(#98),#76,.T.);
#55=ADVANCED_FACE('',(#99),#77,.T.);
#56=ADVANCED_FACE('',(#100),#78,.T.);
#57=ADVANCED_FACE('',(#101),#79,.T.);
#58=ADVANCED_FACE('',(#102),#80,.F.);
#59=ADVANCED_FACE('',(#103),#81,.F.);
#60=ADVANCED_FACE('',(#104),#82,.F.);
#61=ADVANCED_FACE('',(#105),#83,.F.);
#62=ADVANCED_FACE('',(#106),#84,.F.);
#63=ADVANCED_FACE('',(#107),#85,.T.);
#64=ADVANCED_FACE('',(#108),#86,.T.);
#65=ADVANCED_FACE('',(#109),#87,.T.);
#66=ADVANCED_FACE('',(#110),#88,.T.);
#67=ADVANCED_FACE('',(#111),#89,.T.);
#68=ADVANCED_FACE('',(#112),#90,.T.);
#69=PLANE('',#466);
#70=PLANE('',#467);
#71=PLANE('',#468);
#72=PLANE('',#469);
#73=PLANE('',#470);
#74=PLANE('',#471);
#75=PLANE('',#472);
#76=PLANE('',#473);
#77=PLANE('',#474);
#78=PLANE('',#475);
#79=PLANE('',#476);
#80=PLANE('',#477);
#81=PLANE('',#478);
#82=PLANE('',#479);
#83=PLANE('',#480);
#84=PLANE('',#481);
#85=PLANE('',#482);
#86=PLANE('',#483);
#87=PLANE('',#484);
#88=PLANE('',#485);
#89=PLANE('',#486);
#90=PLANE('',#487);
#91=FACE_OUTER_BOUND('',#113,.T.);
#92=FACE_OUTER_BOUND('',#114,.T.);
#93=FACE_OUTER_BOUND('',#115,.T.);
#94=FACE_OUTER_BOUND('',#116,.T.);
#95=FACE_OUTER_BOUND('',#117,.T.);
#96=FACE_OUTER_BOUND('',#118,.T.);
#97=FACE_OUTER_BOUND('',#119,.T.);
#98=FACE_OUTER_BOUND('',#120,.T.);
#99=FACE_OUTER_BOUND('',#121,.T.);
#100=FACE_OUTER_BOUND('',#122,.T.);
#101=FACE_OUTER_BOUND('',#123,.T.);
#102=FACE_OUTER_BOUND('',#124,.T.);
#103=FACE_OUTER_BOUND('',#125,.T.);
#104=FACE_OUTER_BOUND('',#126,.T.);
#105=FACE_OUTER_BOUND('',#127,.T.);
#106=FACE_OUTER_BOUND('',#128,.T.);
#107=FACE_OUTER_BOUND('',#129,.T.);
#108=FACE_OUTER_BOUND('',#130,.T.);
#109=FACE_OUTER_BOUND('',#131,.T.);
#110=FACE_OUTER_BOUND('',#132,.T.);
#111=FACE_OUTER_BOUND('',#133,.T.);
#112=FACE_OUTER_BOUND('',#134,.T.);
#113=EDGE_LOOP('',(#135,#136,#137,#138,#139,#140,#141,#142));
#114=EDGE_LOOP('',(#143,#144,#145,#146));
#115=EDGE_LOOP('',(#147,#148,#149,#150));
#116=EDGE_LOOP('',(#151,#152,#153,#154,#155,#156,#157,#158));
#117=EDGE_LOOP('',(#159,#160,#161,#162));
#118=EDGE_LOOP('',(#163,#164,#165,#166,#167,#168));
#119=EDGE_LOOP('',(#169,#170,#171,#172,#173,#174,#175,#176));
#120=EDGE_LOOP('',(#177,#178,#179,#180,#181,#182));
#121=EDGE_LOOP('',(#183,#184,#185,#186));
#122=EDGE_LOOP('',(#187,#188,#189,#190,#191,#192,#193,#194));
#123=EDGE_LOOP('',(#195,#196,#197,#198));
#124=EDGE_LOOP('',(#199,#200,#201,#202));
#125=EDGE_LOOP('',(#203,#204,#205,#206));
#126=EDGE_LOOP('',(#207,#208,#209,#210));
#127=EDGE_LOOP('',(#211,#212,#213,#214));
#128=EDGE_LOOP('',(#215,#216,#217,#218));
#129=EDGE_LOOP('',(#219,#220,#221,#222));
#130=EDGE_LOOP('',(#223,#224,#225,#226));
#131=EDGE_LOOP('',(#227,#228,#229,#230));
#132=EDGE_LOOP('',(#231,#232,#233,#234));
#133=EDGE_LOOP('',(#235,#236,#237,#238));
#134=EDGE_LOOP('',(#239,#240,#241,#242));
#135=ORIENTED_EDGE('',*,*,#279,.T.);
#136=ORIENTED_EDGE('',*,*,#280,.T.);
#137=ORIENTED_EDGE('',*,*,#281,.T.);
#138=ORIENTED_EDGE('',*,*,#282,.F.);
#139=ORIENTED_EDGE('',*,*,#283,.F.);
#140=ORIENTED_EDGE('',*,*,#284,.T.);
#141=ORIENTED_EDGE('',*,*,#285,.T.);
#142=ORIENTED_EDGE('',*,*,#286,.T.);
#143=ORIENTED_EDGE('',*,*,#280,.F.);
#144=ORIENTED_EDGE('',*,*,#287,.F.);
#145=ORIENTED_EDGE('',*,*,#288,.F.);
#146=ORIENTED_EDGE('',*,*,#289,.T.);
#147=ORIENTED_EDGE('',*,*,#284,.F.);
#148=ORIENTED_EDGE('',*,*,#290,.T.);
#149=ORIENTED_EDGE('',*,*,#291,.T.);
#150=ORIENTED_EDGE('',*,*,#292,.F.);
#151=ORIENTED_EDGE('',*,*,#293,.F.);
#152=ORIENTED_EDGE('',*,*,#294,.T.);
#153=ORIENTED_EDGE('',*,*,#295,.T.);
#154=ORIENTED_EDGE('',*,*,#281,.F.);
#155=ORIENTED_EDGE('',*,*,#289,.F.);
#156=ORIENTED_EDGE('',*,*,#296,.F.);
#157=ORIENTED_EDGE('',*,*,#297,.T.);
#158=ORIENTED_EDGE('',*,*,#298,.F.);
#159=ORIENTED_EDGE('',*,*,#299,.T.);
#160=ORIENTED_EDGE('',*,*,#282,.T.);
#161=ORIENTED_EDGE('',*,*,#295,.F.);
#162=ORIENTED_EDGE('',*,*,#300,.T.);
#163=ORIENTED_EDGE('',*,*,#290,.F.);
#164=ORIENTED_EDGE('',*,*,#283,.T.);
#165=ORIENTED_EDGE('',*,*,#299,.F.);
#166=ORIENTED_EDGE('',*,*,#301,.F.);
#167=ORIENTED_EDGE('',*,*,#302,.T.);
#168=ORIENTED_EDGE('',*,*,#303,.F.);
#169=ORIENTED_EDGE('',*,*,#304,.T.);
#170=ORIENTED_EDGE('',*,*,#305,.T.);
#171=ORIENTED_EDGE('',*,*,#306,.T.);
#172=ORIENTED_EDGE('',*,*,#307,.T.);
#173=ORIENTED_EDGE('',*,*,#308,.T.);
#174=ORIENTED_EDGE('',*,*,#287,.T.);
#175=ORIENTED_EDGE('',*,*,#279,.F.);
#176=ORIENTED_EDGE('',*,*,#309,.F.);
#177=ORIENTED_EDGE('',*,*,#310,.T.);
#178=ORIENTED_EDGE('',*,*,#285,.F.);
#179=ORIENTED_EDGE('',*,*,#292,.T.);
#180=ORIENTED_EDGE('',*,*,#311,.T.);
#181=ORIENTED_EDGE('',*,*,#312,.F.);
#182=ORIENTED_EDGE('',*,*,#313,.T.);
#183=ORIENTED_EDGE('',*,*,#309,.T.);
#184=ORIENTED_EDGE('',*,*,#286,.F.);
#185=ORIENTED_EDGE('',*,*,#310,.F.);
#186=ORIENTED_EDGE('',*,*,#314,.T.);
#187=ORIENTED_EDGE('',*,*,#294,.F.);
#188=ORIENTED_EDGE('',*,*,#315,.F.);
#189=ORIENTED_EDGE('',*,*,#304,.F.);
#190=ORIENTED_EDGE('',*,*,#314,.F.);
#191=ORIENTED_EDGE('',*,*,#313,.F.);
#192=ORIENTED_EDGE('',*,*,#316,.F.);
#193=ORIENTED_EDGE('',*,*,#301,.T.);
#194=ORIENTED_EDGE('',*,*,#300,.F.);
#195=ORIENTED_EDGE('',*,*,#317,.F.);
#196=ORIENTED_EDGE('',*,*,#311,.F.);
#197=ORIENTED_EDGE('',*,*,#291,.F.);
#198=ORIENTED_EDGE('',*,*,#303,.T.);
#199=ORIENTED_EDGE('',*,*,#316,.T.);
#200=ORIENTED_EDGE('',*,*,#312,.T.);
#201=ORIENTED_EDGE('',*,*,#317,.T.);
#202=ORIENTED_EDGE('',*,*,#302,.F.);
#203=ORIENTED_EDGE('',*,*,#305,.F.);
#204=ORIENTED_EDGE('',*,*,#315,.T.);
#205=ORIENTED_EDGE('',*,*,#293,.T.);
#206=ORIENTED_EDGE('',*,*,#318,.F.);
#207=ORIENTED_EDGE('',*,*,#319,.T.);
#208=ORIENTED_EDGE('',*,*,#306,.F.);
#209=ORIENTED_EDGE('',*,*,#318,.T.);
#210=ORIENTED_EDGE('',*,*,#298,.T.);
#211=ORIENTED_EDGE('',*,*,#320,.F.);
#212=ORIENTED_EDGE('',*,*,#307,.F.);
#213=ORIENTED_EDGE('',*,*,#319,.F.);
#214=ORIENTED_EDGE('',*,*,#297,.F.);
#215=ORIENTED_EDGE('',*,*,#320,.T.);
#216=ORIENTED_EDGE('',*,*,#296,.T.);
#217=ORIENTED_EDGE('',*,*,#288,.T.);
#218=ORIENTED_EDGE('',*,*,#308,.F.);
#219=ORIENTED_EDGE('',*,*,#321,.F.);
#220=ORIENTED_EDGE('',*,*,#322,.F.);
#221=ORIENTED_EDGE('',*,*,#323,.F.);
#222=ORIENTED_EDGE('',*,*,#324,.F.);
#223=ORIENTED_EDGE('',*,*,#325,.F.);
#224=ORIENTED_EDGE('',*,*,#326,.T.);
#225=ORIENTED_EDGE('',*,*,#327,.T.);
#226=ORIENTED_EDGE('',*,*,#328,.T.);
#227=ORIENTED_EDGE('',*,*,#329,.T.);
#228=ORIENTED_EDGE('',*,*,#323,.T.);
#229=ORIENTED_EDGE('',*,*,#330,.T.);
#230=ORIENTED_EDGE('',*,*,#327,.F.);
#231=ORIENTED_EDGE('',*,*,#324,.T.);
#232=ORIENTED_EDGE('',*,*,#329,.F.);
#233=ORIENTED_EDGE('',*,*,#326,.F.);
#234=ORIENTED_EDGE('',*,*,#331,.F.);
#235=ORIENTED_EDGE('',*,*,#330,.F.);
#236=ORIENTED_EDGE('',*,*,#322,.T.);
#237=ORIENTED_EDGE('',*,*,#332,.F.);
#238=ORIENTED_EDGE('',*,*,#328,.F.);
#239=ORIENTED_EDGE('',*,*,#332,.T.);
#240=ORIENTED_EDGE('',*,*,#321,.T.);
#241=ORIENTED_EDGE('',*,*,#331,.T.);
#242=ORIENTED_EDGE('',*,*,#325,.T.);
#243=VERTEX_POINT('',#599);
#244=VERTEX_POINT('',#600);
#245=VERTEX_POINT('',#602);
#246=VERTEX_POINT('',#604);
#247=VERTEX_POINT('',#606);
#248=VERTEX_POINT('',#608);
#249=VERTEX_POINT('',#610);
#250=VERTEX_POINT('',#612);
#251=VERTEX_POINT('',#616);
#252=VERTEX_POINT('',#618);
#253=VERTEX_POINT('',#622);
#254=VERTEX_POINT('',#624);
#255=VERTEX_POINT('',#628);
#256=VERTEX_POINT('',#629);
#257=VERTEX_POINT('',#631);
#258=VERTEX_POINT('',#634);
#259=VERTEX_POINT('',#636);
#260=VERTEX_POINT('',#640);
#261=VERTEX_POINT('',#644);
#262=VERTEX_POINT('',#646);
#263=VERTEX_POINT('',#650);
#264=VERTEX_POINT('',#651);
#265=VERTEX_POINT('',#653);
#266=VERTEX_POINT('',#655);
#267=VERTEX_POINT('',#657);
#268=VERTEX_POINT('',#662);
#269=VERTEX_POINT('',#664);
#270=VERTEX_POINT('',#666);
#271=VERTEX_POINT('',#685);
#272=VERTEX_POINT('',#686);
#273=VERTEX_POINT('',#688);
#274=VERTEX_POINT('',#690);
#275=VERTEX_POINT('',#694);
#276=VERTEX_POINT('',#695);
#277=VERTEX_POINT('',#697);
#278=VERTEX_POINT('',#699);
#279=EDGE_CURVE('',#243,#244,#333,.T.);
#280=EDGE_CURVE('',#244,#245,#334,.T.);
#281=EDGE_CURVE('',#245,#246,#335,.T.);
#282=EDGE_CURVE('',#247,#246,#336,.T.);
#283=EDGE_CURVE('',#248,#247,#337,.T.);
#284=EDGE_CURVE('',#248,#249,#338,.T.);
#285=EDGE_CURVE('',#249,#250,#339,.T.);
#286=EDGE_CURVE('',#250,#243,#340,.T.);
#287=EDGE_CURVE('',#251,#244,#341,.T.);
#288=EDGE_CURVE('',#252,#251,#342,.T.);
#289=EDGE_CURVE('',#252,#245,#343,.T.);
#290=EDGE_CURVE('',#248,#253,#344,.T.);
#291=EDGE_CURVE('',#253,#254,#345,.T.);
#292=EDGE_CURVE('',#249,#254,#346,.T.);
#293=EDGE_CURVE('',#255,#256,#347,.T.);
#294=EDGE_CURVE('',#255,#257,#348,.T.);
#295=EDGE_CURVE('',#257,#246,#349,.T.);
#296=EDGE_CURVE('',#258,#252,#350,.T.);
#297=EDGE_CURVE('',#258,#259,#351,.T.);
#298=EDGE_CURVE('',#256,#259,#352,.T.);
#299=EDGE_CURVE('',#260,#247,#353,.T.);
#300=EDGE_CURVE('',#257,#260,#354,.T.);
#301=EDGE_CURVE('',#261,#260,#355,.T.);
#302=EDGE_CURVE('',#261,#262,#356,.T.);
#303=EDGE_CURVE('',#253,#262,#357,.T.);
#304=EDGE_CURVE('',#263,#264,#358,.T.);
#305=EDGE_CURVE('',#264,#265,#359,.T.);
#306=EDGE_CURVE('',#265,#266,#360,.T.);
#307=EDGE_CURVE('',#266,#267,#361,.T.);
#308=EDGE_CURVE('',#267,#251,#362,.T.);
#309=EDGE_CURVE('',#263,#243,#363,.T.);
#310=EDGE_CURVE('',#268,#250,#364,.T.);
#311=EDGE_CURVE('',#254,#269,#365,.T.);
#312=EDGE_CURVE('',#270,#269,#366,.T.);
#313=EDGE_CURVE('',#270,#268,#367,.T.);
#314=EDGE_CURVE('',#268,#263,#368,.T.);
#315=EDGE_CURVE('',#264,#255,#369,.T.);
#316=EDGE_CURVE('',#261,#270,#370,.T.);
#317=EDGE_CURVE('',#269,#262,#371,.T.);
#318=EDGE_CURVE('',#265,#256,#372,.T.);
#319=EDGE_CURVE('',#259,#266,#373,.T.);
#320=EDGE_CURVE('',#267,#258,#374,.T.);
#321=EDGE_CURVE('',#271,#272,#375,.T.);
#322=EDGE_CURVE('',#273,#271,#376,.T.);
#323=EDGE_CURVE('',#274,#273,#377,.T.);
#324=EDGE_CURVE('',#272,#274,#378,.T.);
#325=EDGE_CURVE('',#275,#276,#379,.T.);
#326=EDGE_CURVE('',#275,#277,#380,.T.);
#327=EDGE_CURVE('',#277,#278,#381,.T.);
#328=EDGE_CURVE('',#278,#276,#382,.T.);
#329=EDGE_CURVE('',#277,#274,#383,.T.);
#330=EDGE_CURVE('',#273,#278,#384,.T.);
#331=EDGE_CURVE('',#272,#275,#385,.T.);
#332=EDGE_CURVE('',#276,#271,#386,.T.);
#333=LINE('',#598,#387);
#334=LINE('',#601,#388);
#335=LINE('',#603,#389);
#336=LINE('',#605,#390);
#337=LINE('',#607,#391);
#338=LINE('',#609,#392);
#339=LINE('',#611,#393);
#340=LINE('',#613,#394);
#341=LINE('',#615,#395);
#342=LINE('',#617,#396);
#343=LINE('',#619,#397);
#344=LINE('',#621,#398);
#345=LINE('',#623,#399);
#346=LINE('',#625,#400);
#347=LINE('',#627,#401);
#348=LINE('',#630,#402);
#349=LINE('',#632,#403);
#350=LINE('',#633,#404);
#351=LINE('',#635,#405);
#352=LINE('',#637,#406);
#353=LINE('',#639,#407);
#354=LINE('',#641,#408);
#355=LINE('',#643,#409);
#356=LINE('',#645,#410);
#357=LINE('',#647,#411);
#358=LINE('',#649,#412);
#359=LINE('',#652,#413);
#360=LINE('',#654,#414);
#361=LINE('',#656,#415);
#362=LINE('',#658,#416);
#363=LINE('',#659,#417);
#364=LINE('',#661,#418);
#365=LINE('',#663,#419);
#366=LINE('',#665,#420);
#367=LINE('',#667,#421);
#368=LINE('',#669,#422);
#369=LINE('',#671,#423);
#370=LINE('',#672,#424);
#371=LINE('',#674,#425);
#372=LINE('',#677,#426);
#373=LINE('',#679,#427);
#374=LINE('',#681,#428);
#375=LINE('',#684,#429);
#376=LINE('',#687,#430);
#377=LINE('',#689,#431);
#378=LINE('',#691,#432);
#379=LINE('',#693,#433);
#380=LINE('',#696,#434);
#381=LINE('',#698,#435);
#382=LINE('',#700,#436);
#383=LINE('',#702,#437);
#384=LINE('',#703,#438);
#385=LINE('',#705,#439);
#386=LINE('',#707,#440);
#387=VECTOR('',#496,1.);
#388=VECTOR('',#497,1.);
#389=VECTOR('',#498,1.);
#390=VECTOR('',#499,1.);
#391=VECTOR('',#500,1.);
#392=VECTOR('',#501,1.);
#393=VECTOR('',#502,1.);
#394=VECTOR('',#503,1.);
#395=VECTOR('',#506,1.);
#396=VECTOR('',#507,1.);
#397=VECTOR('',#508,1.);
#398=VECTOR('',#511,1.);
#399=VECTOR('',#512,1.);
#400=VECTOR('',#513,1.);
#401=VECTOR('',#516,1.);
#402=VECTOR('',#517,1.);
#403=VECTOR('',#518,1.);
#404=VECTOR('',#519,1.);
#405=VECTOR('',#520,1.);
#406=VECTOR('',#521,1.);
#407=VECTOR('',#524,1.);
#408=VECTOR('',#525,1.);
#409=VECTOR('',#528,1.);
#410=VECTOR('',#529,1.);
#411=VECTOR('',#530,1.);
#412=VECTOR('',#533,1.);
#413=VECTOR('',#534,1.);
#414=VECTOR('',#535,1.);
#415=VECTOR('',#536,1.);
#416=VECTOR('',#537,1.);
#417=VECTOR('',#538,1.);
#418=VECTOR('',#541,1.);
#419=VECTOR('',#542,1.);
#420=VECTOR('',#543,1.);
#421=VECTOR('',#544,1.);
#422=VECTOR('',#547,1.);
#423=VECTOR('',#550,1.);
#424=VECTOR('',#551,1.);
#425=VECTOR('',#554,1.);
#426=VECTOR('',#559,1.);
#427=VECTOR('',#562,1.);
#428=VECTOR('',#565,1.);
#429=VECTOR('',#570,1.);
#430=VECTOR('',#571,1.);
#431=VECTOR('',#572,1.);
#432=VECTOR('',#573,1.);
#433=VECTOR('',#576,1.);
#434=VECTOR('',#577,1.);
#435=VECTOR('',#578,1.);
#436=VECTOR('',#579,1.);
#437=VECTOR('',#582,1.);
#438=VECTOR('',#583,1.);
#439=VECTOR('',#586,1.);
#440=VECTOR('',#589,1.);
#441=PRESENTATION_LAYER_ASSIGNMENT('1','Layer 1',(#463,#464,#465));
#442=PRESENTATION_LAYER_ASSIGNMENT('2','Layer 2',(#43,#44));
#443=STYLED_ITEM('',(#448),#463);
#444=STYLED_ITEM('',(#449),#464);
#445=STYLED_ITEM('',(#450),#465);
#446=STYLED_ITEM('',(#451),#43);
#447=STYLED_ITEM('',(#452),#44);
#448=PRESENTATION_STYLE_ASSIGNMENT((#453));
#449=PRESENTATION_STYLE_ASSIGNMENT((#454));
#450=PRESENTATION_STYLE_ASSIGNMENT((#455));
#451=PRESENTATION_STYLE_ASSIGNMENT((#33));
#452=PRESENTATION_STYLE_ASSIGNMENT((#34));
#453=CURVE_STYLE('',#459,POSITIVE_LENGTH_MEASURE(0.18),#456);
#454=CURVE_STYLE('',#460,POSITIVE_LENGTH_MEASURE(0.18),#456);
#455=CURVE_STYLE('',#461,POSITIVE_LENGTH_MEASURE(0.18),#457);
#456=COLOUR_RGB('Strong Stone',0.576470588235294,0.54508278019379,0.392156862745098);
#457=COLOUR_RGB('Medium Maroon',0.6,0.4,0.4);
#458=COLOUR_RGB('Medium Gray',0.490196078431373,0.490196078431373,0.490196078431373);
#459=DRAUGHTING_PRE_DEFINED_CURVE_FONT('continuous');
#460=DRAUGHTING_PRE_DEFINED_CURVE_FONT('continuous');
#461=DRAUGHTING_PRE_DEFINED_CURVE_FONT('continuous');
#462=AXIS2_PLACEMENT_3D('',#594,#488,#489);
#463=AXIS2_PLACEMENT_3D('MCS',#595,#490,#491);
#464=AXIS2_PLACEMENT_3D('PCS',#596,#492,#493);
#465=AXIS2_PLACEMENT_3D('CSW',#597,#494,#495);
#466=AXIS2_PLACEMENT_3D('',#614,#504,#505);
#467=AXIS2_PLACEMENT_3D('',#620,#509,#510);
#468=AXIS2_PLACEMENT_3D('',#626,#514,#515);
#469=AXIS2_PLACEMENT_3D('',#638,#522,#523);
#470=AXIS2_PLACEMENT_3D('',#642,#526,#527);
#471=AXIS2_PLACEMENT_3D('',#648,#531,#532);
#472=AXIS2_PLACEMENT_3D('',#660,#539,#540);
#473=AXIS2_PLACEMENT_3D('',#668,#545,#546);
#474=AXIS2_PLACEMENT_3D('',#670,#548,#549);
#475=AXIS2_PLACEMENT_3D('',#673,#552,#553);
#476=AXIS2_PLACEMENT_3D('',#675,#555,#556);
#477=AXIS2_PLACEMENT_3D('',#676,#557,#558);
#478=AXIS2_PLACEMENT_3D('',#678,#560,#561);
#479=AXIS2_PLACEMENT_3D('',#680,#563,#564);
#480=AXIS2_PLACEMENT_3D('',#682,#566,#567);
#481=AXIS2_PLACEMENT_3D('',#683,#568,#569);
#482=AXIS2_PLACEMENT_3D('',#692,#574,#575);
#483=AXIS2_PLACEMENT_3D('',#701,#580,#581);
#484=AXIS2_PLACEMENT_3D('',#704,#584,#585);
#485=AXIS2_PLACEMENT_3D('',#706,#587,#588);
#486=AXIS2_PLACEMENT_3D('',#708,#590,#591);
#487=AXIS2_PLACEMENT_3D('',#709,#592,#593);
#488=DIRECTION('',(0.,0.,1.));
#489=DIRECTION('',(1.,0.,0.));
#490=DIRECTION('',(0.,0.,1.));
#491=DIRECTION('',(1.,0.,0.));
#492=DIRECTION('',(0.,0.,1.));
#493=DIRECTION('',(1.,0.,0.));
#494=DIRECTION('',(0.,0.,-1.));
#495=DIRECTION('',(1.,0.,0.));
#496=DIRECTION('',(-1.88270633323682E-16,-1.,0.));
#497=DIRECTION('',(0.,0.,1.));
#498=DIRECTION('',(1.88270633323682E-16,1.,0.));
#499=DIRECTION('',(-1.85410379361681E-16,-0.984807753012208,-0.17364817766693));
#500=DIRECTION('',(-1.88270633323682E-16,-1.,0.));
#501=DIRECTION('',(0.,0.,-1.));
#502=DIRECTION('',(-1.88270633323682E-16,-1.,0.));
#503=DIRECTION('',(-1.85410379361681E-16,-0.984807753012208,0.17364817766693));
#504=DIRECTION('',(-1.,1.88270633323682E-16,0.));
#505=DIRECTION('',(1.88270633323682E-16,1.,0.));
#506=DIRECTION('',(-1.,1.62884833425052E-16,0.));
#507=DIRECTION('',(0.,0.,-1.));
#508=DIRECTION('',(-1.,1.62884833425052E-16,0.));
#509=DIRECTION('',(-1.62884833425052E-16,-1.,0.));
#510=DIRECTION('',(-1.,1.6306400674182E-16,0.));
#511=DIRECTION('',(1.,0.,0.));
#512=DIRECTION('',(0.,0.,-1.));
#513=DIRECTION('',(1.,0.,0.));
#514=DIRECTION('',(0.,1.,0.));
#515=DIRECTION('',(0.,0.,1.));
#516=DIRECTION('',(0.961261695938319,0.275637355816999,0.));
#517=DIRECTION('',(-2.78029298975449E-16,1.,0.));
#518=DIRECTION('',(-1.,0.,0.));
#519=DIRECTION('',(7.77670416606459E-17,1.,0.));
#520=DIRECTION('',(1.,-9.91270557701032E-16,0.));
#521=DIRECTION('',(0.,-1.,0.));
#522=DIRECTION('',(0.,0.,1.));
#523=DIRECTION('',(-1.,0.,0.));
#524=DIRECTION('',(-1.,0.,0.));
#525=DIRECTION('',(-2.73805409195571E-16,0.984807753012208,0.17364817766693));
#526=DIRECTION('',(0.,-0.17364817766693,0.984807753012208));
#527=DIRECTION('',(0.,-0.984807753012208,-0.17364817766693));
#528=DIRECTION('',(2.78029298975449E-16,-1.,0.));
#529=DIRECTION('',(0.965925826289069,-0.25881904510252,0.));
#530=DIRECTION('',(0.,-1.,0.));
#531=DIRECTION('',(0.,0.,-1.));
#532=DIRECTION('',(1.,0.,0.));
#533=DIRECTION('',(2.78029298975449E-16,-1.,0.));
#534=DIRECTION('',(0.961261695938319,0.275637355816999,0.));
#535=DIRECTION('',(0.,-1.,0.));
#536=DIRECTION('',(-1.,9.91270557701032E-16,0.));
#537=DIRECTION('',(7.77670416606459E-17,1.,0.));
#538=DIRECTION('',(-1.,0.,0.));
#539=DIRECTION('',(0.,0.,-1.));
#540=DIRECTION('',(1.,0.,0.));
#541=DIRECTION('',(-1.,0.,0.));
#542=DIRECTION('',(0.,-1.,0.));
#543=DIRECTION('',(0.965925826289069,-0.25881904510252,0.));
#544=DIRECTION('',(2.78029298975449E-16,-1.,0.));
#545=DIRECTION('',(0.,0.,-1.));
#546=DIRECTION('',(1.,0.,0.));
#547=DIRECTION('',(2.73805409195571E-16,-0.984807753012208,0.17364817766693));
#548=DIRECTION('',(0.,-0.17364817766693,-0.984807753012208));
#549=DIRECTION('',(0.,0.984807753012208,-0.17364817766693));
#550=DIRECTION('',(0.,0.,1.));
#551=DIRECTION('',(0.,0.,-1.));
#552=DIRECTION('',(1.,2.78029298975449E-16,0.));
#553=DIRECTION('',(2.77555756156289E-16,-1.,0.));
#554=DIRECTION('',(0.,0.,1.));
#555=DIRECTION('',(1.,0.,0.));
#556=DIRECTION('',(0.,0.,1.));
#557=DIRECTION('',(0.25881904510252,0.965925826289069,0.));
#558=DIRECTION('',(0.965925826289069,-0.25881904510252,0.));
#559=DIRECTION('',(0.,0.,1.));
#560=DIRECTION('',(0.275637355816999,-0.961261695938319,0.));
#561=DIRECTION('',(-0.961261695938319,-0.275637355816999,0.));
#562=DIRECTION('',(0.,0.,-1.));
#563=DIRECTION('',(-1.,0.,0.));
#564=DIRECTION('',(0.,0.,-1.));
#565=DIRECTION('',(0.,0.,1.));
#566=DIRECTION('',(9.91270557701032E-16,1.,0.));
#567=DIRECTION('',(1.,-9.92261828258734E-16,0.));
#568=DIRECTION('',(1.,-1.18998473872668E-16,0.));
#569=DIRECTION('',(-1.19045398538908E-16,-1.,0.));
#570=DIRECTION('',(0.,0.,1.));
#571=DIRECTION('',(-1.88270633323682E-16,-1.,0.));
#572=DIRECTION('',(0.,0.,-1.));
#573=DIRECTION('',(1.88270633323682E-16,1.,1.88270633323682E-16));
#574=DIRECTION('',(1.,0.,0.));
#575=DIRECTION('',(0.,-1.,0.));
#576=DIRECTION('',(0.,0.,-1.));
#577=DIRECTION('',(0.,1.,0.));
#578=DIRECTION('',(0.,0.,-1.));
#579=DIRECTION('',(0.,-1.,0.));
#580=DIRECTION('',(-1.,0.,0.));
#581=DIRECTION('',(0.,0.,-1.));
#582=DIRECTION('',(1.,0.,0.));
#583=DIRECTION('',(-1.,0.,0.));
#584=DIRECTION('',(0.,1.,0.));
#585=DIRECTION('',(0.,0.,1.));
#586=DIRECTION('',(-1.,1.62884833425052E-16,0.));
#587=DIRECTION('',(0.,0.,1.));
#588=DIRECTION('',(1.,0.,0.));
#589=DIRECTION('',(1.,-1.62884833425052E-16,0.));
#590=DIRECTION('',(0.,0.,-1.));
#591=DIRECTION('',(1.,0.,0.));
#592=DIRECTION('',(-1.62884833425052E-16,-1.,0.));
#593=DIRECTION('',(-1.,1.6306400674182E-16,0.));
#594=CARTESIAN_POINT('',(0.,0.,0.));
#595=CARTESIAN_POINT('',(0.,0.,0.));
#596=CARTESIAN_POINT('',(0.,0.,0.));
#597=CARTESIAN_POINT('',(14.5,-6.97,47.5));
#598=CARTESIAN_POINT('',(-7.32439963935499E-15,-25.,2.));
#599=CARTESIAN_POINT('',(-7.32439963935499E-15,-25.0000000000002,2.));
#600=CARTESIAN_POINT('',(-7.97492094284628E-15,-28.27,2.));
#601=CARTESIAN_POINT('',(-5.37283572888107E-15,-28.27,95.));
#602=CARTESIAN_POINT('',(-7.32439963935499E-15,-28.27,93.));
#603=CARTESIAN_POINT('',(-7.32439963935499E-15,-55.,93.));
#604=CARTESIAN_POINT('',(-3.85505735447755E-16,-25.,93.));
#605=CARTESIAN_POINT('',(-1.09746274463766E-15,-5.8291764640259,96.3803334317931));
#606=CARTESIAN_POINT('',(-2.57129419321903E-15,-13.6574363607645,95.));
#607=CARTESIAN_POINT('',(-1.05163955022285E-15,-5.5857864376269,95.));
#608=CARTESIAN_POINT('',(1.0111132208033E-30,0.,95.));
#609=CARTESIAN_POINT('',(0.,0.,95.));
#610=CARTESIAN_POINT('',(1.0111132208033E-30,0.,0.));
#611=CARTESIAN_POINT('',(-1.31789443326577E-15,-7.,0.));
#612=CARTESIAN_POINT('',(-3.85505735447755E-16,-13.6574363607648,0.));
#613=CARTESIAN_POINT('',(-3.85505735447755E-16,10.,-4.1714443247963));
#614=CARTESIAN_POINT('',(-1.05163955022285E-15,-5.5857864376269,95.));
#615=CARTESIAN_POINT('',(55.,-28.27,2.));
#616=CARTESIAN_POINT('',(1.5,-28.27,2.));
#617=CARTESIAN_POINT('',(1.5,-28.27,95.));
#618=CARTESIAN_POINT('',(1.5,-28.27,93.));
#619=CARTESIAN_POINT('',(55.,-28.27,93.));
#620=CARTESIAN_POINT('',(1.5,-28.27,95.));
#621=CARTESIAN_POINT('',(0.,0.,95.));
#622=CARTESIAN_POINT('',(20.,0.,95.));
#623=CARTESIAN_POINT('',(20.,0.,95.));
#624=CARTESIAN_POINT('',(20.,0.,0.));
#625=CARTESIAN_POINT('',(0.,0.,0.));
#626=CARTESIAN_POINT('',(0.,0.,95.));
#627=CARTESIAN_POINT('',(14.190107223675,-33.1622393869935,93.));
#628=CARTESIAN_POINT('',(14.5,-33.0733790633023,93.));
#629=CARTESIAN_POINT('',(20.,-31.4962794416288,93.));
#630=CARTESIAN_POINT('',(14.5,-55.,93.));
#631=CARTESIAN_POINT('',(14.5,-25.,93.));
#632=CARTESIAN_POINT('',(55.,-25.,93.));
#633=CARTESIAN_POINT('',(1.5,-45.,93.));
#634=CARTESIAN_POINT('',(1.5,-42.5776951545867,93.));
#635=CARTESIAN_POINT('',(8.5,-42.5776951545867,93.));
#636=CARTESIAN_POINT('',(20.,-42.5776951545867,93.));
#637=CARTESIAN_POINT('',(20.,-31.4962794416288,93.));
#638=CARTESIAN_POINT('',(55.,-55.,93.));
#639=CARTESIAN_POINT('',(-1.05163955022285E-15,-13.6574363607646,95.));
#640=CARTESIAN_POINT('',(14.5,-13.6574363607646,95.));
#641=CARTESIAN_POINT('',(14.5,-25.,93.));
#642=CARTESIAN_POINT('',(55.,-25.,93.));
#643=CARTESIAN_POINT('',(14.5,-7.,95.));
#644=CARTESIAN_POINT('',(14.5,-6.97,95.));
#645=CARTESIAN_POINT('',(0.978815822562813,-3.3470096189432,95.));
#646=CARTESIAN_POINT('',(20.,-8.44372055837117,95.));
#647=CARTESIAN_POINT('',(20.,0.,95.));
#648=CARTESIAN_POINT('',(-1.05163955022285E-15,-7.,95.));
#649=CARTESIAN_POINT('',(14.5,-25.,2.));
#650=CARTESIAN_POINT('',(14.5,-25.,2.));
#651=CARTESIAN_POINT('',(14.5,-33.0733790633023,2.));
#652=CARTESIAN_POINT('',(14.190107223675,-33.1622393869935,2.));
#653=CARTESIAN_POINT('',(20.,-31.4962794416288,2.));
#654=CARTESIAN_POINT('',(20.,-31.4962794416288,2.));
#655=CARTESIAN_POINT('',(20.,-42.5776951545867,2.));
#656=CARTESIAN_POINT('',(8.5,-42.5776951545867,2.));
#657=CARTESIAN_POINT('',(1.5,-42.5776951545867,2.));
#658=CARTESIAN_POINT('',(1.5,-45.,2.));
#659=CARTESIAN_POINT('',(55.,-25.,2.));
#660=CARTESIAN_POINT('',(55.,-25.,2.));
#661=CARTESIAN_POINT('',(-1.05163955022285E-15,-13.6574363607646,0.));
#662=CARTESIAN_POINT('',(14.5,-13.6574363607646,0.));
#663=CARTESIAN_POINT('',(20.,0.,0.));
#664=CARTESIAN_POINT('',(20.,-8.44372055837117,0.));
#665=CARTESIAN_POINT('',(0.978815822562813,-3.3470096189432,0.));
#666=CARTESIAN_POINT('',(14.5,-6.97,0.));
#667=CARTESIAN_POINT('',(14.5,-7.,0.));
#668=CARTESIAN_POINT('',(-1.05163955022285E-15,-7.,0.));
#669=CARTESIAN_POINT('',(14.5,10.,-4.1714443247963));
#670=CARTESIAN_POINT('',(55.,10.,-4.1714443247963));
#671=CARTESIAN_POINT('',(14.5,-33.0733790633023,142.5));
#672=CARTESIAN_POINT('',(14.5,-6.97,142.5));
#673=CARTESIAN_POINT('',(14.5,-7.4912901491365,142.5));
#674=CARTESIAN_POINT('',(20.,-8.44372055837117,95.));
#675=CARTESIAN_POINT('',(20.,0.,95.));
#676=CARTESIAN_POINT('',(15.003527618041,-7.1049198186209,142.5));
#677=CARTESIAN_POINT('',(20.,-31.4962794416288,2.));
#678=CARTESIAN_POINT('',(14.190107223675,-33.1622393869935,2.));
#679=CARTESIAN_POINT('',(20.,-42.5776951545867,2.));
#680=CARTESIAN_POINT('',(20.,-31.4962794416288,2.));
#681=CARTESIAN_POINT('',(1.5,-42.5776951545867,2.));
#682=CARTESIAN_POINT('',(8.5,-42.5776951545867,2.));
#683=CARTESIAN_POINT('',(1.5,-42.5776951545867,2.));
#684=CARTESIAN_POINT('',(-3.85505735447755E-16,-28.27,95.));
#685=CARTESIAN_POINT('',(-5.3224108040605E-15,-28.27,3.5));
#686=CARTESIAN_POINT('',(-3.85505735447755E-16,-28.27,91.5));
#687=CARTESIAN_POINT('',(-1.05163955022285E-15,-5.5857864376269,3.5));
#688=CARTESIAN_POINT('',(-1.57582520091922E-15,-8.37,3.5));
#689=CARTESIAN_POINT('',(-3.85505735447755E-16,-8.37,95.));
#690=CARTESIAN_POINT('',(-3.85505735447755E-16,-8.37,91.5));
#691=CARTESIAN_POINT('',(-1.05163955022285E-15,-5.5857864376269,91.5));
#692=CARTESIAN_POINT('',(-3.85505735447755E-16,-7.,47.5));
#693=CARTESIAN_POINT('',(-19.8,-28.27,95.));
#694=CARTESIAN_POINT('',(-19.8,-28.27,91.5));
#695=CARTESIAN_POINT('',(-19.8,-28.27,3.5));
#696=CARTESIAN_POINT('',(-19.8,-28.27,91.5));
#697=CARTESIAN_POINT('',(-19.8,-8.37,91.5));
#698=CARTESIAN_POINT('',(-19.8,-8.37,95.));
#699=CARTESIAN_POINT('',(-19.8,-8.37,3.5));
#700=CARTESIAN_POINT('',(-19.8,-28.27,3.5));
#701=CARTESIAN_POINT('',(-19.8,-28.27,95.));
#702=CARTESIAN_POINT('',(-1.41421356237309,-8.37,91.5));
#703=CARTESIAN_POINT('',(-1.41421356237309,-8.37,3.5));
#704=CARTESIAN_POINT('',(-1.41421356237309,-8.37,95.));
#705=CARTESIAN_POINT('',(1.5,-28.27,91.5));
#706=CARTESIAN_POINT('',(-3.85505735447755E-16,-61.,91.5));
#707=CARTESIAN_POINT('',(1.5,-28.27,3.5));
#708=CARTESIAN_POINT('',(-3.85505735447755E-16,-61.,3.5));
#709=CARTESIAN_POINT('',(1.5,-28.27,95.));
#710=MECHANICAL_DESIGN_GEOMETRIC_PRESENTATION_REPRESENTATION('',(#443,#444,
#445,#446,#447),#711);
#711=(
GEOMETRIC_REPRESENTATION_CONTEXT(3)
GLOBAL_UNCERTAINTY_ASSIGNED_CONTEXT((#712))
GLOBAL_UNIT_ASSIGNED_CONTEXT((#718,#714,#713))
REPRESENTATION_CONTEXT('150','TOP_LEVEL_ASSEMBLY_PART')
);
#712=UNCERTAINTY_MEASURE_WITH_UNIT(LENGTH_MEASURE(2.E-5),#718,
'DISTANCE_ACCURACY_VALUE','Maximum Tolerance applied to model');
#713=(
NAMED_UNIT(*)
SI_UNIT($,.STERADIAN.)
SOLID_ANGLE_UNIT()
);
#714=(
CONVERSION_BASED_UNIT('DEGREE',#716)
NAMED_UNIT(#715)
PLANE_ANGLE_UNIT()
);
#715=DIMENSIONAL_EXPONENTS(0.,0.,0.,0.,0.,0.,0.);
#716=PLANE_ANGLE_MEASURE_WITH_UNIT(PLANE_ANGLE_MEASURE(0.0174532925),#717);
#717=(
NAMED_UNIT(*)
PLANE_ANGLE_UNIT()
SI_UNIT($,.RADIAN.)
);
#718=(
LENGTH_UNIT()
NAMED_UNIT(*)
SI_UNIT(.MILLI.,.METRE.)
);
ENDSEC;
END-ISO-10303-21;
