ISO-10303-21;
HEADER;
/* Generated by software containing ST-Developer
 * from STEP Tools, Inc. (www.steptools.com) 
 */
/* OPTION: using custom schema-name function */

FILE_DESCRIPTION(
/* description */ (''),
/* implementation_level */ '2;1');

FILE_NAME(
/* name */ '150.10-12-20.stp',
/* time_stamp */ '2016-08-11T16:12:37+06:00',
/* author */ (''),
/* organization */ (''),
/* preprocessor_version */ 'ST-DEVELOPER v15',
/* originating_system */ 'SIEMENS PLM Software NX 8.5',
/* authorisation */ '');

FILE_SCHEMA (('AUTOMOTIVE_DESIGN { 1 0 10303 214 3 1 1 1 }'));
ENDSEC;

DATA;
#10=PROPERTY_DEFINITION_REPRESENTATION(#14,#12);
#11=PROPERTY_DEFINITION_REPRESENTATION(#15,#13);
#12=REPRESENTATION('',(#16),#527);
#13=REPRESENTATION('',(#17),#527);
#14=PROPERTY_DEFINITION('pmi validation property','',#21);
#15=PROPERTY_DEFINITION('pmi validation property','',#21);
#16=VALUE_REPRESENTATION_ITEM('number of annotations',COUNT_MEASURE(0.));
#17=VALUE_REPRESENTATION_ITEM('number of views',COUNT_MEASURE(0.));
#18=SHAPE_REPRESENTATION_RELATIONSHIP('None',
'relationship between inpu06A482BBq57n-None and inpu06A482BBq57n-None',
#30,#19);
#19=ADVANCED_BREP_SHAPE_REPRESENTATION('inpu06A482BBq57n-None',(#40),#527);
#20=SHAPE_DEFINITION_REPRESENTATION(#21,#30);
#21=PRODUCT_DEFINITION_SHAPE('','',#22);
#22=PRODUCT_DEFINITION(' ','',#24,#23);
#23=PRODUCT_DEFINITION_CONTEXT('part definition',#29,'design');
#24=PRODUCT_DEFINITION_FORMATION_WITH_SPECIFIED_SOURCE(' ',' ',#26,
 .NOT_KNOWN.);
#25=PRODUCT_RELATED_PRODUCT_CATEGORY('part','',(#26));
#26=PRODUCT('inpu06A482BBq57n','inpu06A482BBq57n',' ',(#27));
#27=PRODUCT_CONTEXT(' ',#29,'mechanical');
#28=APPLICATION_PROTOCOL_DEFINITION('international standard',
'automotive_design',2010,#29);
#29=APPLICATION_CONTEXT(
'core data for automotive mechanical design processes');
#30=SHAPE_REPRESENTATION('inpu06A482BBq57n-None',(#342),#527);
#31=PRESENTATION_LAYER_ASSIGNMENT('1','Layer 1',(#40));
#32=STYLED_ITEM('',(#33),#40);
#33=PRESENTATION_STYLE_ASSIGNMENT((#34));
#34=SURFACE_STYLE_USAGE(.BOTH.,#35);
#35=SURFACE_SIDE_STYLE('',(#36));
#36=SURFACE_STYLE_FILL_AREA(#37);
#37=FILL_AREA_STYLE('',(#38));
#38=FILL_AREA_STYLE_COLOUR('',#39);
#39=COLOUR_RGB('Medium Gray',0.501960784313725,0.501960784313725,0.501960784313725);
#40=MANIFOLD_SOLID_BREP('',#41);
#41=CLOSED_SHELL('',(#55,#56,#57,#58,#59,#60,#61,#62,#63,#64,#65,#66,#67,
#68,#69,#70));
#42=CYLINDRICAL_SURFACE('',#361,3.);
#43=CYLINDRICAL_SURFACE('',#362,3.);
#44=FACE_OUTER_BOUND('',#175,.T.);
#45=FACE_OUTER_BOUND('',#176,.T.);
#46=FACE_OUTER_BOUND('',#177,.T.);
#47=FACE_OUTER_BOUND('',#178,.T.);
#48=FACE_OUTER_BOUND('',#179,.T.);
#49=FACE_OUTER_BOUND('',#180,.T.);
#50=FACE_OUTER_BOUND('',#181,.T.);
#51=FACE_OUTER_BOUND('',#182,.T.);
#52=FACE_OUTER_BOUND('',#183,.T.);
#53=FACE_OUTER_BOUND('',#184,.T.);
#54=FACE_OUTER_BOUND('',#185,.T.);
#55=ADVANCED_FACE('',(#157,#158,#159),#71,.T.);
#56=ADVANCED_FACE('',(#160,#161),#72,.T.);
#57=ADVANCED_FACE('',(#162,#163),#73,.T.);
#58=ADVANCED_FACE('',(#44),#74,.T.);
#59=ADVANCED_FACE('',(#45),#75,.T.);
#60=ADVANCED_FACE('',(#46),#76,.T.);
#61=ADVANCED_FACE('',(#47),#77,.T.);
#62=ADVANCED_FACE('',(#48),#78,.T.);
#63=ADVANCED_FACE('',(#49),#79,.F.);
#64=ADVANCED_FACE('',(#50),#80,.T.);
#65=ADVANCED_FACE('',(#51),#81,.F.);
#66=ADVANCED_FACE('',(#52),#82,.F.);
#67=ADVANCED_FACE('',(#53),#83,.F.);
#68=ADVANCED_FACE('',(#54),#84,.F.);
#69=ADVANCED_FACE('',(#164,#165),#42,.F.);
#70=ADVANCED_FACE('',(#166,#167),#43,.F.);
#71=PLANE('',#345);
#72=PLANE('',#347);
#73=PLANE('',#349);
#74=PLANE('',#350);
#75=PLANE('',#351);
#76=PLANE('',#352);
#77=PLANE('',#353);
#78=PLANE('',#354);
#79=PLANE('',#355);
#80=PLANE('',#356);
#81=PLANE('',#357);
#82=PLANE('',#358);
#83=PLANE('',#359);
#84=PLANE('',#360);
#85=LINE('',#444,#121);
#86=LINE('',#447,#122);
#87=LINE('',#449,#123);
#88=LINE('',#451,#124);
#89=LINE('',#453,#125);
#90=LINE('',#455,#126);
#91=LINE('',#457,#127);
#92=LINE('',#459,#128);
#93=LINE('',#463,#129);
#94=LINE('',#466,#130);
#95=LINE('',#468,#131);
#96=LINE('',#470,#132);
#97=LINE('',#472,#133);
#98=LINE('',#474,#134);
#99=LINE('',#478,#135);
#100=LINE('',#481,#136);
#101=LINE('',#483,#137);
#102=LINE('',#485,#138);
#103=LINE('',#487,#139);
#104=LINE('',#489,#140);
#105=LINE('',#493,#141);
#106=LINE('',#494,#142);
#107=LINE('',#496,#143);
#108=LINE('',#497,#144);
#109=LINE('',#499,#145);
#110=LINE('',#501,#146);
#111=LINE('',#503,#147);
#112=LINE('',#505,#148);
#113=LINE('',#507,#149);
#114=LINE('',#509,#150);
#115=LINE('',#511,#151);
#116=LINE('',#512,#152);
#117=LINE('',#514,#153);
#118=LINE('',#515,#154);
#119=LINE('',#518,#155);
#120=LINE('',#521,#156);
#121=VECTOR('',#367,1.);
#122=VECTOR('',#368,1.);
#123=VECTOR('',#369,1.);
#124=VECTOR('',#370,1.);
#125=VECTOR('',#371,1.);
#126=VECTOR('',#372,1.);
#127=VECTOR('',#373,1.);
#128=VECTOR('',#374,1.);
#129=VECTOR('',#379,1.);
#130=VECTOR('',#380,1.);
#131=VECTOR('',#381,1.);
#132=VECTOR('',#382,1.);
#133=VECTOR('',#383,1.);
#134=VECTOR('',#384,1.);
#135=VECTOR('',#389,1.);
#136=VECTOR('',#390,1.);
#137=VECTOR('',#391,1.);
#138=VECTOR('',#392,1.);
#139=VECTOR('',#393,1.);
#140=VECTOR('',#394,1.);
#141=VECTOR('',#399,1.);
#142=VECTOR('',#400,1.);
#143=VECTOR('',#403,1.);
#144=VECTOR('',#404,1.);
#145=VECTOR('',#407,1.);
#146=VECTOR('',#408,1.);
#147=VECTOR('',#409,1.);
#148=VECTOR('',#412,1.);
#149=VECTOR('',#413,1.);
#150=VECTOR('',#414,1.);
#151=VECTOR('',#417,1.);
#152=VECTOR('',#418,1.);
#153=VECTOR('',#421,1.);
#154=VECTOR('',#422,1.);
#155=VECTOR('',#427,1.);
#156=VECTOR('',#432,1.);
#157=FACE_BOUND('',#168,.T.);
#158=FACE_BOUND('',#169,.T.);
#159=FACE_BOUND('',#170,.T.);
#160=FACE_BOUND('',#171,.T.);
#161=FACE_BOUND('',#172,.T.);
#162=FACE_BOUND('',#173,.T.);
#163=FACE_BOUND('',#174,.T.);
#164=FACE_BOUND('',#186,.T.);
#165=FACE_BOUND('',#187,.T.);
#166=FACE_BOUND('',#188,.T.);
#167=FACE_BOUND('',#189,.T.);
#168=EDGE_LOOP('',(#190));
#169=EDGE_LOOP('',(#191,#192,#193,#194,#195,#196,#197,#198));
#170=EDGE_LOOP('',(#199));
#171=EDGE_LOOP('',(#200,#201,#202,#203,#204,#205));
#172=EDGE_LOOP('',(#206));
#173=EDGE_LOOP('',(#207,#208,#209,#210,#211,#212));
#174=EDGE_LOOP('',(#213));
#175=EDGE_LOOP('',(#214,#215,#216,#217));
#176=EDGE_LOOP('',(#218,#219,#220,#221));
#177=EDGE_LOOP('',(#222,#223,#224,#225));
#178=EDGE_LOOP('',(#226,#227,#228,#229));
#179=EDGE_LOOP('',(#230,#231,#232,#233));
#180=EDGE_LOOP('',(#234,#235,#236,#237,#238,#239,#240,#241));
#181=EDGE_LOOP('',(#242,#243,#244,#245,#246,#247,#248,#249));
#182=EDGE_LOOP('',(#250,#251,#252,#253));
#183=EDGE_LOOP('',(#254,#255,#256,#257));
#184=EDGE_LOOP('',(#258,#259,#260,#261));
#185=EDGE_LOOP('',(#262,#263,#264,#265));
#186=EDGE_LOOP('',(#266));
#187=EDGE_LOOP('',(#267));
#188=EDGE_LOOP('',(#268));
#189=EDGE_LOOP('',(#269));
#190=ORIENTED_EDGE('',*,*,#298,.T.);
#191=ORIENTED_EDGE('',*,*,#299,.F.);
#192=ORIENTED_EDGE('',*,*,#300,.F.);
#193=ORIENTED_EDGE('',*,*,#301,.T.);
#194=ORIENTED_EDGE('',*,*,#302,.F.);
#195=ORIENTED_EDGE('',*,*,#303,.F.);
#196=ORIENTED_EDGE('',*,*,#304,.T.);
#197=ORIENTED_EDGE('',*,*,#305,.F.);
#198=ORIENTED_EDGE('',*,*,#306,.F.);
#199=ORIENTED_EDGE('',*,*,#307,.T.);
#200=ORIENTED_EDGE('',*,*,#308,.F.);
#201=ORIENTED_EDGE('',*,*,#309,.F.);
#202=ORIENTED_EDGE('',*,*,#310,.T.);
#203=ORIENTED_EDGE('',*,*,#311,.T.);
#204=ORIENTED_EDGE('',*,*,#312,.T.);
#205=ORIENTED_EDGE('',*,*,#313,.F.);
#206=ORIENTED_EDGE('',*,*,#314,.T.);
#207=ORIENTED_EDGE('',*,*,#315,.F.);
#208=ORIENTED_EDGE('',*,*,#316,.F.);
#209=ORIENTED_EDGE('',*,*,#317,.T.);
#210=ORIENTED_EDGE('',*,*,#318,.F.);
#211=ORIENTED_EDGE('',*,*,#319,.F.);
#212=ORIENTED_EDGE('',*,*,#320,.T.);
#213=ORIENTED_EDGE('',*,*,#321,.T.);
#214=ORIENTED_EDGE('',*,*,#304,.F.);
#215=ORIENTED_EDGE('',*,*,#322,.T.);
#216=ORIENTED_EDGE('',*,*,#313,.T.);
#217=ORIENTED_EDGE('',*,*,#323,.F.);
#218=ORIENTED_EDGE('',*,*,#324,.F.);
#219=ORIENTED_EDGE('',*,*,#306,.T.);
#220=ORIENTED_EDGE('',*,*,#325,.F.);
#221=ORIENTED_EDGE('',*,*,#317,.F.);
#222=ORIENTED_EDGE('',*,*,#311,.F.);
#223=ORIENTED_EDGE('',*,*,#326,.T.);
#224=ORIENTED_EDGE('',*,*,#327,.T.);
#225=ORIENTED_EDGE('',*,*,#328,.F.);
#226=ORIENTED_EDGE('',*,*,#329,.F.);
#227=ORIENTED_EDGE('',*,*,#327,.F.);
#228=ORIENTED_EDGE('',*,*,#330,.T.);
#229=ORIENTED_EDGE('',*,*,#331,.T.);
#230=ORIENTED_EDGE('',*,*,#332,.T.);
#231=ORIENTED_EDGE('',*,*,#319,.T.);
#232=ORIENTED_EDGE('',*,*,#333,.F.);
#233=ORIENTED_EDGE('',*,*,#331,.F.);
#234=ORIENTED_EDGE('',*,*,#301,.F.);
#235=ORIENTED_EDGE('',*,*,#334,.T.);
#236=ORIENTED_EDGE('',*,*,#320,.F.);
#237=ORIENTED_EDGE('',*,*,#332,.F.);
#238=ORIENTED_EDGE('',*,*,#330,.F.);
#239=ORIENTED_EDGE('',*,*,#326,.F.);
#240=ORIENTED_EDGE('',*,*,#310,.F.);
#241=ORIENTED_EDGE('',*,*,#335,.F.);
#242=ORIENTED_EDGE('',*,*,#333,.T.);
#243=ORIENTED_EDGE('',*,*,#318,.T.);
#244=ORIENTED_EDGE('',*,*,#325,.T.);
#245=ORIENTED_EDGE('',*,*,#305,.T.);
#246=ORIENTED_EDGE('',*,*,#323,.T.);
#247=ORIENTED_EDGE('',*,*,#312,.F.);
#248=ORIENTED_EDGE('',*,*,#328,.T.);
#249=ORIENTED_EDGE('',*,*,#329,.T.);
#250=ORIENTED_EDGE('',*,*,#336,.T.);
#251=ORIENTED_EDGE('',*,*,#308,.T.);
#252=ORIENTED_EDGE('',*,*,#322,.F.);
#253=ORIENTED_EDGE('',*,*,#303,.T.);
#254=ORIENTED_EDGE('',*,*,#335,.T.);
#255=ORIENTED_EDGE('',*,*,#309,.T.);
#256=ORIENTED_EDGE('',*,*,#336,.F.);
#257=ORIENTED_EDGE('',*,*,#302,.T.);
#258=ORIENTED_EDGE('',*,*,#315,.T.);
#259=ORIENTED_EDGE('',*,*,#334,.F.);
#260=ORIENTED_EDGE('',*,*,#300,.T.);
#261=ORIENTED_EDGE('',*,*,#337,.T.);
#262=ORIENTED_EDGE('',*,*,#316,.T.);
#263=ORIENTED_EDGE('',*,*,#337,.F.);
#264=ORIENTED_EDGE('',*,*,#299,.T.);
#265=ORIENTED_EDGE('',*,*,#324,.T.);
#266=ORIENTED_EDGE('',*,*,#321,.F.);
#267=ORIENTED_EDGE('',*,*,#298,.F.);
#268=ORIENTED_EDGE('',*,*,#307,.F.);
#269=ORIENTED_EDGE('',*,*,#314,.F.);
#270=VERTEX_POINT('',#443);
#271=VERTEX_POINT('',#445);
#272=VERTEX_POINT('',#446);
#273=VERTEX_POINT('',#448);
#274=VERTEX_POINT('',#450);
#275=VERTEX_POINT('',#452);
#276=VERTEX_POINT('',#454);
#277=VERTEX_POINT('',#456);
#278=VERTEX_POINT('',#458);
#279=VERTEX_POINT('',#461);
#280=VERTEX_POINT('',#464);
#281=VERTEX_POINT('',#465);
#282=VERTEX_POINT('',#467);
#283=VERTEX_POINT('',#469);
#284=VERTEX_POINT('',#471);
#285=VERTEX_POINT('',#473);
#286=VERTEX_POINT('',#476);
#287=VERTEX_POINT('',#479);
#288=VERTEX_POINT('',#480);
#289=VERTEX_POINT('',#482);
#290=VERTEX_POINT('',#484);
#291=VERTEX_POINT('',#486);
#292=VERTEX_POINT('',#488);
#293=VERTEX_POINT('',#491);
#294=VERTEX_POINT('',#500);
#295=VERTEX_POINT('',#502);
#296=VERTEX_POINT('',#506);
#297=VERTEX_POINT('',#508);
#298=EDGE_CURVE('',#270,#270,#338,.T.);
#299=EDGE_CURVE('',#271,#272,#85,.T.);
#300=EDGE_CURVE('',#273,#271,#86,.T.);
#301=EDGE_CURVE('',#273,#274,#87,.T.);
#302=EDGE_CURVE('',#275,#274,#88,.T.);
#303=EDGE_CURVE('',#276,#275,#89,.T.);
#304=EDGE_CURVE('',#276,#277,#90,.T.);
#305=EDGE_CURVE('',#278,#277,#91,.T.);
#306=EDGE_CURVE('',#272,#278,#92,.T.);
#307=EDGE_CURVE('',#279,#279,#339,.T.);
#308=EDGE_CURVE('',#280,#281,#93,.T.);
#309=EDGE_CURVE('',#282,#280,#94,.T.);
#310=EDGE_CURVE('',#282,#283,#95,.T.);
#311=EDGE_CURVE('',#283,#284,#96,.T.);
#312=EDGE_CURVE('',#284,#285,#97,.T.);
#313=EDGE_CURVE('',#281,#285,#98,.T.);
#314=EDGE_CURVE('',#286,#286,#340,.T.);
#315=EDGE_CURVE('',#287,#288,#99,.T.);
#316=EDGE_CURVE('',#289,#287,#100,.T.);
#317=EDGE_CURVE('',#289,#290,#101,.T.);
#318=EDGE_CURVE('',#291,#290,#102,.T.);
#319=EDGE_CURVE('',#292,#291,#103,.T.);
#320=EDGE_CURVE('',#292,#288,#104,.T.);
#321=EDGE_CURVE('',#293,#293,#341,.T.);
#322=EDGE_CURVE('',#276,#281,#105,.T.);
#323=EDGE_CURVE('',#277,#285,#106,.T.);
#324=EDGE_CURVE('',#272,#289,#107,.T.);
#325=EDGE_CURVE('',#290,#278,#108,.T.);
#326=EDGE_CURVE('',#283,#294,#109,.T.);
#327=EDGE_CURVE('',#294,#295,#110,.T.);
#328=EDGE_CURVE('',#284,#295,#111,.T.);
#329=EDGE_CURVE('',#295,#296,#112,.T.);
#330=EDGE_CURVE('',#294,#297,#113,.T.);
#331=EDGE_CURVE('',#297,#296,#114,.T.);
#332=EDGE_CURVE('',#297,#292,#115,.T.);
#333=EDGE_CURVE('',#296,#291,#116,.T.);
#334=EDGE_CURVE('',#273,#288,#117,.T.);
#335=EDGE_CURVE('',#274,#282,#118,.T.);
#336=EDGE_CURVE('',#275,#280,#119,.T.);
#337=EDGE_CURVE('',#271,#287,#120,.T.);
#338=CIRCLE('',#343,3.);
#339=CIRCLE('',#344,3.);
#340=CIRCLE('',#346,3.);
#341=CIRCLE('',#348,3.);
#342=AXIS2_PLACEMENT_3D('',#441,#363,#364);
#343=AXIS2_PLACEMENT_3D('',#442,#365,#366);
#344=AXIS2_PLACEMENT_3D('',#460,#375,#376);
#345=AXIS2_PLACEMENT_3D('',#462,#377,#378);
#346=AXIS2_PLACEMENT_3D('',#475,#385,#386);
#347=AXIS2_PLACEMENT_3D('',#477,#387,#388);
#348=AXIS2_PLACEMENT_3D('',#490,#395,#396);
#349=AXIS2_PLACEMENT_3D('',#492,#397,#398);
#350=AXIS2_PLACEMENT_3D('',#495,#401,#402);
#351=AXIS2_PLACEMENT_3D('',#498,#405,#406);
#352=AXIS2_PLACEMENT_3D('',#504,#410,#411);
#353=AXIS2_PLACEMENT_3D('',#510,#415,#416);
#354=AXIS2_PLACEMENT_3D('',#513,#419,#420);
#355=AXIS2_PLACEMENT_3D('',#516,#423,#424);
#356=AXIS2_PLACEMENT_3D('',#517,#425,#426);
#357=AXIS2_PLACEMENT_3D('',#519,#428,#429);
#358=AXIS2_PLACEMENT_3D('',#520,#430,#431);
#359=AXIS2_PLACEMENT_3D('',#522,#433,#434);
#360=AXIS2_PLACEMENT_3D('',#523,#435,#436);
#361=AXIS2_PLACEMENT_3D('',#524,#437,#438);
#362=AXIS2_PLACEMENT_3D('',#525,#439,#440);
#363=DIRECTION('',(0.,0.,1.));
#364=DIRECTION('',(1.,0.,0.));
#365=DIRECTION('',(-3.46944695195361E-017,0.,-1.));
#366=DIRECTION('',(1.,0.,0.));
#367=DIRECTION('',(0.707106781186547,-0.707106781186548,-2.4532694666934E-017));
#368=DIRECTION('',(1.33440267382831E-016,-1.,-4.62963928939239E-033));
#369=DIRECTION('',(-1.,0.,3.46944695195361E-017));
#370=DIRECTION('',(0.,1.,0.));
#371=DIRECTION('',(0.707106781186548,0.707106781186547,-2.4532694666934E-017));
#372=DIRECTION('',(0.,-1.,0.));
#373=DIRECTION('',(-1.,0.,3.46944695195361E-017));
#374=DIRECTION('',(0.,-1.,0.));
#375=DIRECTION('',(-3.46944695195361E-017,0.,-1.));
#376=DIRECTION('',(1.,0.,0.));
#377=DIRECTION('',(3.46944695195361E-017,0.,1.));
#378=DIRECTION('',(1.,0.,-3.46944695195361E-017));
#379=DIRECTION('',(-0.707106781186548,-0.707106781186547,0.));
#380=DIRECTION('',(0.,-1.,0.));
#381=DIRECTION('',(1.,0.,-1.33226762955019E-016));
#382=DIRECTION('',(0.,-1.,0.));
#383=DIRECTION('',(-1.,0.,1.33226762955019E-016));
#384=DIRECTION('',(0.,-1.,0.));
#385=DIRECTION('',(1.33226762955019E-016,0.,1.));
#386=DIRECTION('',(-1.,0.,0.));
#387=DIRECTION('',(-1.33226762955019E-016,0.,-1.));
#388=DIRECTION('',(-1.,0.,1.33573707650214E-016));
#389=DIRECTION('',(-1.33440267382831E-016,1.,0.));
#390=DIRECTION('',(-0.707106781186547,0.707106781186548,0.));
#391=DIRECTION('',(0.,-1.,0.));
#392=DIRECTION('',(1.,0.,-6.93943600499347E-017));
#393=DIRECTION('',(0.,-1.,0.));
#394=DIRECTION('',(1.,0.,-6.93943600499347E-017));
#395=DIRECTION('',(6.93943600499347E-017,0.,1.));
#396=DIRECTION('',(-1.,0.,0.));
#397=DIRECTION('',(-6.93943600499347E-017,0.,-1.));
#398=DIRECTION('',(-1.,0.,6.93889390390723E-017));
#399=DIRECTION('',(0.,0.,-1.));
#400=DIRECTION('',(0.,0.,-1.));
#401=DIRECTION('',(-1.,0.,0.));
#402=DIRECTION('',(0.,1.,0.));
#403=DIRECTION('',(0.,0.,-1.));
#404=DIRECTION('',(-8.459601709146E-018,0.,1.));
#405=DIRECTION('',(1.,0.,8.459601709146E-018));
#406=DIRECTION('',(6.93889390390723E-018,0.,-1.));
#407=DIRECTION('',(0.,0.,1.));
#408=DIRECTION('',(0.,-1.,0.));
#409=DIRECTION('',(0.,0.,1.));
#410=DIRECTION('',(1.,0.,0.));
#411=DIRECTION('',(0.,-1.,0.));
#412=DIRECTION('',(1.,0.,-1.12757025938492E-016));
#413=DIRECTION('',(1.,0.,-1.12757025938492E-016));
#414=DIRECTION('',(0.,-1.,0.));
#415=DIRECTION('',(-1.12757025938492E-016,0.,-1.));
#416=DIRECTION('',(-1.,0.,1.12757025938492E-016));
#417=DIRECTION('',(0.,0.,-1.));
#418=DIRECTION('',(0.,0.,-1.));
#419=DIRECTION('',(-1.,0.,0.));
#420=DIRECTION('',(0.,1.,0.));
#421=DIRECTION('',(0.,0.,-1.));
#422=DIRECTION('',(0.,0.,-1.));
#423=DIRECTION('',(0.,-1.,0.));
#424=DIRECTION('',(0.,0.,1.));
#425=DIRECTION('',(0.,-1.,0.));
#426=DIRECTION('',(0.,0.,1.));
#427=DIRECTION('',(0.,0.,-1.));
#428=DIRECTION('',(0.707106781186547,-0.707106781186548,0.));
#429=DIRECTION('',(-0.707106781186548,-0.707106781186547,0.));
#430=DIRECTION('',(1.,0.,0.));
#431=DIRECTION('',(0.,-1.,0.));
#432=DIRECTION('',(0.,0.,-1.));
#433=DIRECTION('',(-1.,-1.33440267382831E-016,0.));
#434=DIRECTION('',(-1.31838984174237E-016,1.,0.));
#435=DIRECTION('',(-0.707106781186548,-0.707106781186547,0.));
#436=DIRECTION('',(-0.707106781186547,0.707106781186548,0.));
#437=DIRECTION('',(6.93943600499347E-017,0.,1.));
#438=DIRECTION('',(-1.,0.,0.));
#439=DIRECTION('',(6.93943600499347E-017,0.,1.));
#440=DIRECTION('',(-1.,0.,0.));
#441=CARTESIAN_POINT('',(0.,0.,0.));
#442=CARTESIAN_POINT('',(27.,1.688448461437,9.966987298108));
#443=CARTESIAN_POINT('',(30.,1.688448461437,9.966987298108));
#444=CARTESIAN_POINT('',(41.,0.395999999999999,9.966987298108));
#445=CARTESIAN_POINT('',(45.,-3.604,9.966987298108));
#446=CARTESIAN_POINT('',(50.,-8.604,9.966987298108));
#447=CARTESIAN_POINT('',(45.,9.396,9.966987298108));
#448=CARTESIAN_POINT('',(45.,9.396,9.966987298108));
#449=CARTESIAN_POINT('',(50.,9.396,9.966987298108));
#450=CARTESIAN_POINT('',(-45.,9.396,9.966987298108));
#451=CARTESIAN_POINT('',(-45.,9.396,9.966987298108));
#452=CARTESIAN_POINT('',(-45.,-3.60399999999999,9.966987298108));
#453=CARTESIAN_POINT('',(9.,50.396,9.966987298108));
#454=CARTESIAN_POINT('',(-50.,-8.60399999999999,9.966987298108));
#455=CARTESIAN_POINT('',(-50.,9.396,9.966987298108));
#456=CARTESIAN_POINT('',(-50.,-9.4,9.966987298108));
#457=CARTESIAN_POINT('',(50.,-9.4,9.966987298108));
#458=CARTESIAN_POINT('',(50.,-9.4,9.966987298108));
#459=CARTESIAN_POINT('',(50.,9.396,9.966987298108));
#460=CARTESIAN_POINT('',(-27.,1.688448461437,9.966987298108));
#461=CARTESIAN_POINT('',(-24.,1.688448461437,9.966987298108));
#462=CARTESIAN_POINT('',(50.,9.396,9.966987298108));
#463=CARTESIAN_POINT('',(-45.,-3.60399999999999,-9.95));
#464=CARTESIAN_POINT('',(-45.,-3.60399999999999,-9.94999999999999));
#465=CARTESIAN_POINT('',(-50.,-8.60399999999999,-9.95));
#466=CARTESIAN_POINT('',(-45.,9.396,-9.95));
#467=CARTESIAN_POINT('',(-45.,9.396,-9.95));
#468=CARTESIAN_POINT('',(-50.,9.396,-9.94999999999999));
#469=CARTESIAN_POINT('',(-12.5,9.396,-9.94999999999999));
#470=CARTESIAN_POINT('',(-12.5,9.396,-9.94999999999999));
#471=CARTESIAN_POINT('',(-12.5,-9.4,-9.94999999999999));
#472=CARTESIAN_POINT('',(50.,-9.4,-9.95));
#473=CARTESIAN_POINT('',(-50.,-9.4,-9.94999999999999));
#474=CARTESIAN_POINT('',(-50.,9.396,-9.94999999999999));
#475=CARTESIAN_POINT('',(-27.,1.688448461437,-9.94999999999999));
#476=CARTESIAN_POINT('',(-30.,1.688448461437,-9.94999999999999));
#477=CARTESIAN_POINT('',(-50.,9.396,-9.94999999999999));
#478=CARTESIAN_POINT('',(45.,-3.604,-9.95));
#479=CARTESIAN_POINT('',(45.,-3.60399999999999,-9.94999999999999));
#480=CARTESIAN_POINT('',(45.,9.396,-9.95));
#481=CARTESIAN_POINT('',(50.,-8.604,-9.95));
#482=CARTESIAN_POINT('',(50.,-8.604,-9.95));
#483=CARTESIAN_POINT('',(50.,9.396,-9.95));
#484=CARTESIAN_POINT('',(50.,-9.4,-9.95));
#485=CARTESIAN_POINT('',(12.5,-9.4,-9.95));
#486=CARTESIAN_POINT('',(12.5,-9.4,-9.95));
#487=CARTESIAN_POINT('',(12.5,9.396,-9.95));
#488=CARTESIAN_POINT('',(12.5,9.396,-9.95));
#489=CARTESIAN_POINT('',(12.5,9.396,-9.95));
#490=CARTESIAN_POINT('',(27.,1.688448461437,-9.94999999999999));
#491=CARTESIAN_POINT('',(24.,1.688448461437,-9.94999999999999));
#492=CARTESIAN_POINT('',(12.5,9.396,-9.95));
#493=CARTESIAN_POINT('',(-50.,-8.60399999999999,140.56960107765));
#494=CARTESIAN_POINT('',(-50.,-9.4,9.966987298108));
#495=CARTESIAN_POINT('',(-50.,9.396,9.966987298108));
#496=CARTESIAN_POINT('',(50.,-8.604,140.56960107765));
#497=CARTESIAN_POINT('',(50.,-9.4,-9.95));
#498=CARTESIAN_POINT('',(50.,9.396,-9.95));
#499=CARTESIAN_POINT('',(-12.5,9.396,-9.94999999999999));
#500=CARTESIAN_POINT('',(-12.5,9.396,-8.84999999999999));
#501=CARTESIAN_POINT('',(-12.5,9.396,-8.84999999999999));
#502=CARTESIAN_POINT('',(-12.5,-9.4,-8.84999999999999));
#503=CARTESIAN_POINT('',(-12.5,-9.4,-9.94999999999999));
#504=CARTESIAN_POINT('',(-12.5,9.396,-9.94999999999999));
#505=CARTESIAN_POINT('',(-12.5,-9.4,-8.84999999999999));
#506=CARTESIAN_POINT('',(12.5,-9.4,-8.85));
#507=CARTESIAN_POINT('',(-12.5,9.396,-8.84999999999999));
#508=CARTESIAN_POINT('',(12.5,9.396,-8.85));
#509=CARTESIAN_POINT('',(12.5,9.396,-8.85));
#510=CARTESIAN_POINT('',(-12.5,9.396,-8.84999999999999));
#511=CARTESIAN_POINT('',(12.5,9.396,-8.85));
#512=CARTESIAN_POINT('',(12.5,-9.4,-8.85));
#513=CARTESIAN_POINT('',(12.5,9.396,-8.85));
#514=CARTESIAN_POINT('',(45.,9.396,140.56960107765));
#515=CARTESIAN_POINT('',(-45.,9.396,140.56960107765));
#516=CARTESIAN_POINT('',(50.,9.396,9.966987298108));
#517=CARTESIAN_POINT('',(50.,-9.4,9.966987298108));
#518=CARTESIAN_POINT('',(-45.,-3.60399999999999,140.56960107765));
#519=CARTESIAN_POINT('',(-45.,-3.60399999999999,140.56960107765));
#520=CARTESIAN_POINT('',(-45.,9.396,140.56960107765));
#521=CARTESIAN_POINT('',(45.,-3.604,140.56960107765));
#522=CARTESIAN_POINT('',(45.,-3.604,140.56960107765));
#523=CARTESIAN_POINT('',(50.,-8.604,140.56960107765));
#524=CARTESIAN_POINT('',(27.,1.688448461437,-34.95));
#525=CARTESIAN_POINT('',(-27.,1.688448461437,-34.95));
#526=MECHANICAL_DESIGN_GEOMETRIC_PRESENTATION_REPRESENTATION('',(#32),#527);
#527=(
GEOMETRIC_REPRESENTATION_CONTEXT(3)
GLOBAL_UNCERTAINTY_ASSIGNED_CONTEXT((#528))
GLOBAL_UNIT_ASSIGNED_CONTEXT((#534,#530,#529))
REPRESENTATION_CONTEXT('150','TOP_LEVEL_ASSEMBLY_PART')
);
#528=UNCERTAINTY_MEASURE_WITH_UNIT(LENGTH_MEASURE(2.E-005),#534,
'DISTANCE_ACCURACY_VALUE','Maximum Tolerance applied to model');
#529=(
NAMED_UNIT(*)
SI_UNIT($,.STERADIAN.)
SOLID_ANGLE_UNIT()
);
#530=(
CONVERSION_BASED_UNIT('DEGREE',#532)
NAMED_UNIT(#531)
PLANE_ANGLE_UNIT()
);
#531=DIMENSIONAL_EXPONENTS(0.,0.,0.,0.,0.,0.,0.);
#532=PLANE_ANGLE_MEASURE_WITH_UNIT(PLANE_ANGLE_MEASURE(0.0174532925),#533);
#533=(
NAMED_UNIT(*)
PLANE_ANGLE_UNIT()
SI_UNIT($,.RADIAN.)
);
#534=(
LENGTH_UNIT()
NAMED_UNIT(*)
SI_UNIT(.MILLI.,.METRE.)
);
ENDSEC;
END-ISO-10303-21;
