ISO-10303-21;
HEADER;
/* Generated by software containing ST-Developer
 * from STEP Tools, Inc. (www.steptools.com) 
 */
/* OPTION: using custom schema-name function */

FILE_DESCRIPTION(
/* description */ (''),
/* implementation_level */ '2;1');

FILE_NAME(
/* name */ '05A7601204.stp',
/* time_stamp */ '2014-09-16T16:51:44+05:00',
/* author */ (''),
/* organization */ (''),
/* preprocessor_version */ 'ST-DEVELOPER v11',
/* originating_system */ 'SIEMENS PLM Software NX 7.5',
/* authorisation */ '');

FILE_SCHEMA (('AUTOMOTIVE_DESIGN { 1 0 10303 214 1 1 1 1 }'));
ENDSEC;

DATA;
#10=SHAPE_REPRESENTATION_RELATIONSHIP('None',
'relationship between 05A7601204-None and 05A7601204-None',#22,#11);
#11=ADVANCED_BREP_SHAPE_REPRESENTATION('05A7601204-None',(#43,#44),#391);
#12=SHAPE_DEFINITION_REPRESENTATION(#13,#22);
#13=PRODUCT_DEFINITION_SHAPE('','',#14);
#14=PRODUCT_DEFINITION(' ','',#16,#15);
#15=PRODUCT_DEFINITION_CONTEXT('part definition',#21,'design');
#16=PRODUCT_DEFINITION_FORMATION_WITH_SPECIFIED_SOURCE(' ',' ',#18,.NOT_KNOWN.);
#17=PRODUCT_RELATED_PRODUCT_CATEGORY('part','',(#18));
#18=PRODUCT('05A7601204','05A7601204',' ',(#19));
#19=PRODUCT_CONTEXT(' ',#21,'mechanical');
#20=APPLICATION_PROTOCOL_DEFINITION('international standard',
'automotive_design',2001,#21);
#21=APPLICATION_CONTEXT(
'core data for automotive mechanical design processes');
#22=SHAPE_REPRESENTATION('05A7601204-None',(#236),#391);
#23=CONICAL_SURFACE('',#261,8.250001441953,45.00000492129);
#24=CONICAL_SURFACE('',#265,2.230940107676,30.);
#25=TOROIDAL_SURFACE('',#254,10.3,0.8);
#26=PRESENTATION_LAYER_ASSIGNMENT('1','Layer 1',(#43));
#27=PRESENTATION_LAYER_ASSIGNMENT('2','Layer 2',(#44));
#28=STYLED_ITEM('',(#30),#43);
#29=STYLED_ITEM('',(#31),#44);
#30=PRESENTATION_STYLE_ASSIGNMENT((#32));
#31=PRESENTATION_STYLE_ASSIGNMENT((#33));
#32=SURFACE_STYLE_USAGE(.BOTH.,#34);
#33=SURFACE_STYLE_USAGE(.BOTH.,#35);
#34=SURFACE_SIDE_STYLE('',(#36));
#35=SURFACE_SIDE_STYLE('',(#37));
#36=SURFACE_STYLE_FILL_AREA(#38);
#37=SURFACE_STYLE_FILL_AREA(#39);
#38=FILL_AREA_STYLE('',(#40));
#39=FILL_AREA_STYLE('',(#41));
#40=FILL_AREA_STYLE_COLOUR('',#42);
#41=FILL_AREA_STYLE_COLOUR('',#42);
#42=COLOUR_RGB('Medium Gray',0.490196078431373,0.490196078431373,0.490196078431373);
#43=MANIFOLD_SOLID_BREP('',#45);
#44=MANIFOLD_SOLID_BREP('',#46);
#45=CLOSED_SHELL('',(#90,#91,#92,#93,#94,#95,#96));
#46=CLOSED_SHELL('',(#97,#98,#99,#100,#101,#102,#103,#104,#105));
#47=CYLINDRICAL_SURFACE('',#241,6.);
#48=CYLINDRICAL_SURFACE('',#248,2.);
#49=CYLINDRICAL_SURFACE('',#257,11.5);
#50=CYLINDRICAL_SURFACE('',#259,9.5);
#51=CYLINDRICAL_SURFACE('',#266,2.);
#52=ELLIPSE('',#240,8.48528137423857,6.);
#53=FACE_BOUND('',#119,.T.);
#54=FACE_BOUND('',#120,.T.);
#55=FACE_BOUND('',#123,.T.);
#56=FACE_BOUND('',#124,.T.);
#57=FACE_BOUND('',#126,.T.);
#58=FACE_BOUND('',#127,.T.);
#59=FACE_BOUND('',#128,.T.);
#60=FACE_BOUND('',#129,.T.);
#61=FACE_BOUND('',#130,.T.);
#62=FACE_BOUND('',#131,.T.);
#63=FACE_BOUND('',#132,.T.);
#64=FACE_BOUND('',#133,.T.);
#65=FACE_BOUND('',#134,.T.);
#66=FACE_BOUND('',#135,.T.);
#67=FACE_BOUND('',#136,.T.);
#68=FACE_BOUND('',#137,.T.);
#69=FACE_BOUND('',#138,.T.);
#70=FACE_BOUND('',#139,.T.);
#71=FACE_BOUND('',#140,.T.);
#72=FACE_BOUND('',#141,.T.);
#73=FACE_BOUND('',#142,.T.);
#74=FACE_BOUND('',#143,.T.);
#75=FACE_BOUND('',#144,.T.);
#76=FACE_BOUND('',#145,.T.);
#77=CIRCLE('',#238,6.);
#78=CIRCLE('',#239,6.);
#79=CIRCLE('',#244,2.);
#80=CIRCLE('',#246,2.);
#81=CIRCLE('',#249,2.);
#82=CIRCLE('',#250,11.5);
#83=CIRCLE('',#252,10.29999973595);
#84=CIRCLE('',#253,9.5);
#85=CIRCLE('',#255,11.5);
#86=CIRCLE('',#258,9.5);
#87=CIRCLE('',#260,7.00000021945);
#88=CIRCLE('',#262,2.461880215352);
#89=CIRCLE('',#264,2.);
#90=ADVANCED_FACE('',(#114),#106,.F.);
#91=ADVANCED_FACE('',(#53,#54),#47,.T.);
#92=ADVANCED_FACE('',(#115),#107,.F.);
#93=ADVANCED_FACE('',(#116),#108,.F.);
#94=ADVANCED_FACE('',(#55,#56),#109,.F.);
#95=ADVANCED_FACE('',(#117),#110,.T.);
#96=ADVANCED_FACE('',(#57,#58),#48,.F.);
#97=ADVANCED_FACE('',(#59,#60),#111,.T.);
#98=ADVANCED_FACE('',(#61,#62),#25,.F.);
#99=ADVANCED_FACE('',(#63,#64),#112,.T.);
#100=ADVANCED_FACE('',(#65,#66),#49,.T.);
#101=ADVANCED_FACE('',(#67,#68),#50,.T.);
#102=ADVANCED_FACE('',(#69,#70),#23,.T.);
#103=ADVANCED_FACE('',(#71,#72),#113,.T.);
#104=ADVANCED_FACE('',(#73,#74),#24,.F.);
#105=ADVANCED_FACE('',(#75,#76),#51,.F.);
#106=PLANE('',#237);
#107=PLANE('',#242);
#108=PLANE('',#243);
#109=PLANE('',#245);
#110=PLANE('',#247);
#111=PLANE('',#251);
#112=PLANE('',#256);
#113=PLANE('',#263);
#114=FACE_OUTER_BOUND('',#118,.T.);
#115=FACE_OUTER_BOUND('',#121,.T.);
#116=FACE_OUTER_BOUND('',#122,.T.);
#117=FACE_OUTER_BOUND('',#125,.T.);
#118=EDGE_LOOP('',(#146,#147,#148,#149,#150,#151));
#119=EDGE_LOOP('',(#152));
#120=EDGE_LOOP('',(#153,#154,#155,#156,#157,#158));
#121=EDGE_LOOP('',(#159,#160));
#122=EDGE_LOOP('',(#161,#162));
#123=EDGE_LOOP('',(#163));
#124=EDGE_LOOP('',(#164));
#125=EDGE_LOOP('',(#165));
#126=EDGE_LOOP('',(#166));
#127=EDGE_LOOP('',(#167));
#128=EDGE_LOOP('',(#168));
#129=EDGE_LOOP('',(#169));
#130=EDGE_LOOP('',(#170));
#131=EDGE_LOOP('',(#171));
#132=EDGE_LOOP('',(#172));
#133=EDGE_LOOP('',(#173));
#134=EDGE_LOOP('',(#174));
#135=EDGE_LOOP('',(#175));
#136=EDGE_LOOP('',(#176));
#137=EDGE_LOOP('',(#177));
#138=EDGE_LOOP('',(#178));
#139=EDGE_LOOP('',(#179));
#140=EDGE_LOOP('',(#180));
#141=EDGE_LOOP('',(#181));
#142=EDGE_LOOP('',(#182));
#143=EDGE_LOOP('',(#183));
#144=EDGE_LOOP('',(#184));
#145=EDGE_LOOP('',(#185));
#146=ORIENTED_EDGE('',*,*,#204,.F.);
#147=ORIENTED_EDGE('',*,*,#205,.F.);
#148=ORIENTED_EDGE('',*,*,#206,.T.);
#149=ORIENTED_EDGE('',*,*,#207,.F.);
#150=ORIENTED_EDGE('',*,*,#208,.F.);
#151=ORIENTED_EDGE('',*,*,#209,.T.);
#152=ORIENTED_EDGE('',*,*,#210,.F.);
#153=ORIENTED_EDGE('',*,*,#205,.T.);
#154=ORIENTED_EDGE('',*,*,#211,.T.);
#155=ORIENTED_EDGE('',*,*,#209,.F.);
#156=ORIENTED_EDGE('',*,*,#208,.T.);
#157=ORIENTED_EDGE('',*,*,#212,.F.);
#158=ORIENTED_EDGE('',*,*,#206,.F.);
#159=ORIENTED_EDGE('',*,*,#211,.F.);
#160=ORIENTED_EDGE('',*,*,#204,.T.);
#161=ORIENTED_EDGE('',*,*,#207,.T.);
#162=ORIENTED_EDGE('',*,*,#212,.T.);
#163=ORIENTED_EDGE('',*,*,#210,.T.);
#164=ORIENTED_EDGE('',*,*,#213,.F.);
#165=ORIENTED_EDGE('',*,*,#214,.T.);
#166=ORIENTED_EDGE('',*,*,#213,.T.);
#167=ORIENTED_EDGE('',*,*,#214,.F.);
#168=ORIENTED_EDGE('',*,*,#215,.T.);
#169=ORIENTED_EDGE('',*,*,#216,.T.);
#170=ORIENTED_EDGE('',*,*,#217,.T.);
#171=ORIENTED_EDGE('',*,*,#218,.F.);
#172=ORIENTED_EDGE('',*,*,#217,.F.);
#173=ORIENTED_EDGE('',*,*,#219,.T.);
#174=ORIENTED_EDGE('',*,*,#219,.F.);
#175=ORIENTED_EDGE('',*,*,#216,.F.);
#176=ORIENTED_EDGE('',*,*,#218,.T.);
#177=ORIENTED_EDGE('',*,*,#220,.T.);
#178=ORIENTED_EDGE('',*,*,#220,.F.);
#179=ORIENTED_EDGE('',*,*,#221,.T.);
#180=ORIENTED_EDGE('',*,*,#221,.F.);
#181=ORIENTED_EDGE('',*,*,#222,.F.);
#182=ORIENTED_EDGE('',*,*,#222,.T.);
#183=ORIENTED_EDGE('',*,*,#223,.F.);
#184=ORIENTED_EDGE('',*,*,#223,.T.);
#185=ORIENTED_EDGE('',*,*,#215,.F.);
#186=VERTEX_POINT('',#337);
#187=VERTEX_POINT('',#338);
#188=VERTEX_POINT('',#340);
#189=VERTEX_POINT('',#342);
#190=VERTEX_POINT('',#344);
#191=VERTEX_POINT('',#346);
#192=VERTEX_POINT('',#350);
#193=VERTEX_POINT('',#357);
#194=VERTEX_POINT('',#360);
#195=VERTEX_POINT('',#364);
#196=VERTEX_POINT('',#366);
#197=VERTEX_POINT('',#369);
#198=VERTEX_POINT('',#371);
#199=VERTEX_POINT('',#374);
#200=VERTEX_POINT('',#378);
#201=VERTEX_POINT('',#381);
#202=VERTEX_POINT('',#384);
#203=VERTEX_POINT('',#387);
#204=EDGE_CURVE('',#186,#187,#224,.T.);
#205=EDGE_CURVE('',#188,#186,#225,.T.);
#206=EDGE_CURVE('',#188,#189,#226,.T.);
#207=EDGE_CURVE('',#190,#189,#227,.T.);
#208=EDGE_CURVE('',#191,#190,#228,.T.);
#209=EDGE_CURVE('',#191,#187,#229,.T.);
#210=EDGE_CURVE('',#192,#192,#77,.T.);
#211=EDGE_CURVE('',#186,#187,#78,.T.);
#212=EDGE_CURVE('',#189,#190,#52,.T.);
#213=EDGE_CURVE('',#193,#193,#79,.T.);
#214=EDGE_CURVE('',#194,#194,#80,.T.);
#215=EDGE_CURVE('',#195,#195,#81,.T.);
#216=EDGE_CURVE('',#196,#196,#82,.T.);
#217=EDGE_CURVE('',#197,#197,#83,.T.);
#218=EDGE_CURVE('',#198,#198,#84,.T.);
#219=EDGE_CURVE('',#199,#199,#85,.T.);
#220=EDGE_CURVE('',#200,#200,#86,.T.);
#221=EDGE_CURVE('',#201,#201,#87,.T.);
#222=EDGE_CURVE('',#202,#202,#88,.T.);
#223=EDGE_CURVE('',#203,#203,#89,.T.);
#224=LINE('',#336,#230);
#225=LINE('',#339,#231);
#226=LINE('',#341,#232);
#227=LINE('',#343,#233);
#228=LINE('',#345,#234);
#229=LINE('',#347,#235);
#230=VECTOR('',#269,1.);
#231=VECTOR('',#270,1.);
#232=VECTOR('',#271,1.);
#233=VECTOR('',#272,1.);
#234=VECTOR('',#273,1.);
#235=VECTOR('',#274,1.);
#236=AXIS2_PLACEMENT_3D('',#335,#267,#268);
#237=AXIS2_PLACEMENT_3D('',#348,#275,#276);
#238=AXIS2_PLACEMENT_3D('',#349,#277,#278);
#239=AXIS2_PLACEMENT_3D('',#351,#279,#280);
#240=AXIS2_PLACEMENT_3D('',#352,#281,#282);
#241=AXIS2_PLACEMENT_3D('',#353,#283,#284);
#242=AXIS2_PLACEMENT_3D('',#354,#285,#286);
#243=AXIS2_PLACEMENT_3D('',#355,#287,#288);
#244=AXIS2_PLACEMENT_3D('',#356,#289,#290);
#245=AXIS2_PLACEMENT_3D('',#358,#291,#292);
#246=AXIS2_PLACEMENT_3D('',#359,#293,#294);
#247=AXIS2_PLACEMENT_3D('',#361,#295,#296);
#248=AXIS2_PLACEMENT_3D('',#362,#297,#298);
#249=AXIS2_PLACEMENT_3D('',#363,#299,#300);
#250=AXIS2_PLACEMENT_3D('',#365,#301,#302);
#251=AXIS2_PLACEMENT_3D('',#367,#303,#304);
#252=AXIS2_PLACEMENT_3D('',#368,#305,#306);
#253=AXIS2_PLACEMENT_3D('',#370,#307,#308);
#254=AXIS2_PLACEMENT_3D('',#372,#309,#310);
#255=AXIS2_PLACEMENT_3D('',#373,#311,#312);
#256=AXIS2_PLACEMENT_3D('',#375,#313,#314);
#257=AXIS2_PLACEMENT_3D('',#376,#315,#316);
#258=AXIS2_PLACEMENT_3D('',#377,#317,#318);
#259=AXIS2_PLACEMENT_3D('',#379,#319,#320);
#260=AXIS2_PLACEMENT_3D('',#380,#321,#322);
#261=AXIS2_PLACEMENT_3D('',#382,#323,#324);
#262=AXIS2_PLACEMENT_3D('',#383,#325,#326);
#263=AXIS2_PLACEMENT_3D('',#385,#327,#328);
#264=AXIS2_PLACEMENT_3D('',#386,#329,#330);
#265=AXIS2_PLACEMENT_3D('',#388,#331,#332);
#266=AXIS2_PLACEMENT_3D('',#389,#333,#334);
#267=DIRECTION('',(0.,0.,1.));
#268=DIRECTION('',(1.,0.,0.));
#269=DIRECTION('',(-1.,0.,0.));
#270=DIRECTION('',(0.,0.,1.));
#271=DIRECTION('',(-1.14809405696597E-007,-2.16354084087194E-007,-0.99999999999997));
#272=DIRECTION('',(1.,0.,0.));
#273=DIRECTION('',(1.00747222782198E-007,-1.89854419421596E-007,-0.999999999999977));
#274=DIRECTION('',(0.,0.,1.));
#275=DIRECTION('',(0.,-1.,0.));
#276=DIRECTION('',(0.,0.,1.));
#277=DIRECTION('',(0.,0.,-1.));
#278=DIRECTION('',(1.,0.,0.));
#279=DIRECTION('',(0.,0.,-1.));
#280=DIRECTION('',(-1.,0.,0.));
#281=DIRECTION('',(0.,0.707106781186548,0.707106781186548));
#282=DIRECTION('',(0.,0.707106781186548,-0.707106781186548));
#283=DIRECTION('',(0.,0.,-1.));
#284=DIRECTION('',(0.,1.,0.));
#285=DIRECTION('',(0.,0.,-1.));
#286=DIRECTION('',(1.,0.,0.));
#287=DIRECTION('',(0.,-0.707106781186547,-0.707106781186547));
#288=DIRECTION('',(0.,-0.707106781186547,0.707106781186547));
#289=DIRECTION('',(0.,0.,-1.));
#290=DIRECTION('',(1.,0.,0.));
#291=DIRECTION('',(0.,0.,1.));
#292=DIRECTION('',(1.,0.,0.));
#293=DIRECTION('',(0.,0.,-1.));
#294=DIRECTION('',(0.,1.,0.));
#295=DIRECTION('',(0.,0.,-1.));
#296=DIRECTION('',(-1.,0.,0.));
#297=DIRECTION('',(0.,0.,-1.));
#298=DIRECTION('',(0.,1.,0.));
#299=DIRECTION('',(0.,0.,-1.));
#300=DIRECTION('',(1.,0.,0.));
#301=DIRECTION('',(0.,0.,1.));
#302=DIRECTION('',(-1.,0.,0.));
#303=DIRECTION('',(0.,0.,1.));
#304=DIRECTION('',(1.,0.,0.));
#305=DIRECTION('',(0.,0.,-1.));
#306=DIRECTION('',(0.,-1.,0.));
#307=DIRECTION('',(0.,0.,-1.));
#308=DIRECTION('',(0.,1.,0.));
#309=DIRECTION('',(0.,0.,-1.));
#310=DIRECTION('',(0.0074995843061559,-0.999971877722186,0.));
#311=DIRECTION('',(0.,0.,-1.));
#312=DIRECTION('',(-1.,0.,0.));
#313=DIRECTION('',(0.,0.,-1.));
#314=DIRECTION('',(1.,0.,0.));
#315=DIRECTION('',(0.,0.,-1.));
#316=DIRECTION('',(1.,0.,0.));
#317=DIRECTION('',(0.,0.,1.));
#318=DIRECTION('',(0.,-1.,0.));
#319=DIRECTION('',(0.,0.,-1.));
#320=DIRECTION('',(0.,1.,0.));
#321=DIRECTION('',(0.,0.,1.));
#322=DIRECTION('',(0.,-1.,0.));
#323=DIRECTION('',(0.,0.,1.));
#324=DIRECTION('',(1.,0.,-3.44105763041722E-017));
#325=DIRECTION('',(0.,0.,-1.));
#326=DIRECTION('',(0.,1.,0.));
#327=DIRECTION('',(0.,0.,-1.));
#328=DIRECTION('',(0.,1.,0.));
#329=DIRECTION('',(0.,0.,-1.));
#330=DIRECTION('',(0.,1.,0.));
#331=DIRECTION('',(0.,0.,-1.));
#332=DIRECTION('',(0.,1.,9.57780382468936E-017));
#333=DIRECTION('',(0.,0.,-1.));
#334=DIRECTION('',(0.,1.,0.));
#335=CARTESIAN_POINT('',(0.,0.,0.));
#336=CARTESIAN_POINT('',(0.,5.3,20.));
#337=CARTESIAN_POINT('',(2.81247222208505,5.3,20.));
#338=CARTESIAN_POINT('',(-2.81247222208505,5.3,20.));
#339=CARTESIAN_POINT('',(2.81247222208505,5.3,2.11));
#340=CARTESIAN_POINT('',(2.812472222085,5.3,19.5000177533));
#341=CARTESIAN_POINT('',(2.812473599798,5.300002596249,19.50000221917));
#342=CARTESIAN_POINT('',(2.81247222208496,5.29999999999976,7.50000000000024));
#343=CARTESIAN_POINT('',(-2.812472222085,5.3,7.5));
#344=CARTESIAN_POINT('',(-2.81247222208506,5.30000000000024,7.49999999999976));
#345=CARTESIAN_POINT('',(-2.812473431052,5.300002278254,19.50000257916));
#346=CARTESIAN_POINT('',(-2.812472222085,5.3,19.50002063324));
#347=CARTESIAN_POINT('',(-2.81247222208505,5.3,2.11));
#348=CARTESIAN_POINT('',(-13.8,5.3,20.));
#349=CARTESIAN_POINT('',(0.,0.,0.));
#350=CARTESIAN_POINT('',(6.,0.,0.));
#351=CARTESIAN_POINT('',(0.,0.,20.));
#352=CARTESIAN_POINT('',(0.,0.,12.8));
#353=CARTESIAN_POINT('',(0.,0.,2.11));
#354=CARTESIAN_POINT('',(0.,0.,20.));
#355=CARTESIAN_POINT('',(-13.8,5.3,7.5));
#356=CARTESIAN_POINT('',(0.,0.,0.));
#357=CARTESIAN_POINT('',(2.,0.,0.));
#358=CARTESIAN_POINT('',(0.,0.,0.));
#359=CARTESIAN_POINT('',(0.,0.,3.818014882867));
#360=CARTESIAN_POINT('',(0.,2.,3.818014882867));
#361=CARTESIAN_POINT('',(0.,0.,3.818014882867));
#362=CARTESIAN_POINT('',(0.,0.,21.3875));
#363=CARTESIAN_POINT('',(0.,0.,0.));
#364=CARTESIAN_POINT('',(2.,0.,0.));
#365=CARTESIAN_POINT('',(0.,0.,0.));
#366=CARTESIAN_POINT('',(-11.5,0.,0.));
#367=CARTESIAN_POINT('',(0.,0.,0.));
#368=CARTESIAN_POINT('',(0.,0.,-2.75));
#369=CARTESIAN_POINT('',(0.,-10.29999973595,-2.75));
#370=CARTESIAN_POINT('',(0.,0.,-3.55));
#371=CARTESIAN_POINT('',(0.,9.5,-3.55));
#372=CARTESIAN_POINT('',(0.,0.,-3.55));
#373=CARTESIAN_POINT('',(0.,0.,-2.75));
#374=CARTESIAN_POINT('',(-11.5,0.,-2.75));
#375=CARTESIAN_POINT('',(0.,0.,-2.75));
#376=CARTESIAN_POINT('',(0.,0.,0.));
#377=CARTESIAN_POINT('',(0.,0.,-10.49999895962));
#378=CARTESIAN_POINT('',(0.,-9.5,-10.49999895962));
#379=CARTESIAN_POINT('',(0.,0.,-2.2375));
#380=CARTESIAN_POINT('',(0.,0.,-13.00000098305));
#381=CARTESIAN_POINT('',(0.,-7.00000021945,-13.00000098305));
#382=CARTESIAN_POINT('',(0.,0.,-11.74999997528));
#383=CARTESIAN_POINT('',(0.,0.,-13.));
#384=CARTESIAN_POINT('',(0.,2.461880215352,-13.));
#385=CARTESIAN_POINT('',(0.,0.,-13.));
#386=CARTESIAN_POINT('',(0.,0.,-12.2));
#387=CARTESIAN_POINT('',(0.,2.,-12.2));
#388=CARTESIAN_POINT('',(0.,0.,-12.6));
#389=CARTESIAN_POINT('',(0.,0.,21.3875));
#390=MECHANICAL_DESIGN_GEOMETRIC_PRESENTATION_REPRESENTATION('',(#28,#29),
#391);
#391=(
GEOMETRIC_REPRESENTATION_CONTEXT(3)
GLOBAL_UNCERTAINTY_ASSIGNED_CONTEXT((#392))
GLOBAL_UNIT_ASSIGNED_CONTEXT((#398,#394,#393))
REPRESENTATION_CONTEXT('05A7601204','TOP_LEVEL_ASSEMBLY_PART')
);
#392=UNCERTAINTY_MEASURE_WITH_UNIT(LENGTH_MEASURE(0.001),#398,
'DISTANCE_ACCURACY_VALUE','Maximum Tolerance applied to model');
#393=(
NAMED_UNIT(*)
SI_UNIT($,.STERADIAN.)
SOLID_ANGLE_UNIT()
);
#394=(
CONVERSION_BASED_UNIT('DEGREE',#396)
NAMED_UNIT(#395)
PLANE_ANGLE_UNIT()
);
#395=DIMENSIONAL_EXPONENTS(0.,0.,0.,0.,0.,0.,0.);
#396=PLANE_ANGLE_MEASURE_WITH_UNIT(PLANE_ANGLE_MEASURE(0.0174532925),#397);
#397=(
NAMED_UNIT(*)
PLANE_ANGLE_UNIT()
SI_UNIT($,.RADIAN.)
);
#398=(
LENGTH_UNIT()
NAMED_UNIT(*)
SI_UNIT(.MILLI.,.METRE.)
);
ENDSEC;
END-ISO-10303-21;
