ISO-10303-21;
HEADER;
FILE_DESCRIPTION((''),'2;1');
FILE_NAME('Q05A7600604_PRT','2009-06-11T',('frbxwfabo'),(''),
'PRO/ENGINEER BY PARAMETRIC TECHNOLOGY CORPORATION, 2008250',
'PRO/ENGINEER BY PARAMETRIC TECHNOLOGY CORPORATION, 2008250','');
FILE_SCHEMA(('CONFIG_CONTROL_DESIGN'));
ENDSEC;
DATA;
#1=CARTESIAN_POINT('',(0.E0,0.E0,1.55E1));
#2=DIRECTION('',(0.E0,0.E0,1.E0));
#3=DIRECTION('',(0.E0,1.E0,0.E0));
#4=AXIS2_PLACEMENT_3D('',#1,#2,#3);
#6=DIRECTION('',(0.E0,0.E0,-1.E0));
#7=VECTOR('',#6,1.8E1);
#8=CARTESIAN_POINT('',(0.E0,2.E0,1.55E1));
#9=LINE('',#8,#7);
#10=CARTESIAN_POINT('',(0.E0,0.E0,1.55E1));
#11=DIRECTION('',(0.E0,0.E0,-1.E0));
#12=DIRECTION('',(0.E0,1.E0,0.E0));
#13=AXIS2_PLACEMENT_3D('',#10,#11,#12);
#15=DIRECTION('',(0.E0,0.E0,-1.E0));
#16=VECTOR('',#15,1.8E1);
#17=CARTESIAN_POINT('',(0.E0,-2.E0,1.55E1));
#18=LINE('',#17,#16);
#19=CARTESIAN_POINT('',(0.E0,0.E0,1.55E1));
#20=DIRECTION('',(0.E0,0.E0,1.E0));
#21=DIRECTION('',(0.E0,1.E0,0.E0));
#22=AXIS2_PLACEMENT_3D('',#19,#20,#21);
#24=CARTESIAN_POINT('',(0.E0,0.E0,1.55E1));
#25=DIRECTION('',(0.E0,0.E0,-1.E0));
#26=DIRECTION('',(0.E0,1.E0,0.E0));
#27=AXIS2_PLACEMENT_3D('',#24,#25,#26);
#29=CARTESIAN_POINT('',(0.E0,0.E0,0.E0));
#30=DIRECTION('',(0.E0,0.E0,1.E0));
#31=DIRECTION('',(0.E0,1.E0,0.E0));
#32=AXIS2_PLACEMENT_3D('',#29,#30,#31);
#34=DIRECTION('',(0.E0,0.E0,1.E0));
#35=VECTOR('',#34,1.55E1);
#36=CARTESIAN_POINT('',(0.E0,3.E0,0.E0));
#37=LINE('',#36,#35);
#38=CARTESIAN_POINT('',(0.E0,0.E0,0.E0));
#39=DIRECTION('',(0.E0,0.E0,-1.E0));
#40=DIRECTION('',(0.E0,1.E0,0.E0));
#41=AXIS2_PLACEMENT_3D('',#38,#39,#40);
#43=DIRECTION('',(0.E0,0.E0,1.E0));
#44=VECTOR('',#43,1.55E1);
#45=CARTESIAN_POINT('',(0.E0,-3.E0,0.E0));
#46=LINE('',#45,#44);
#47=CARTESIAN_POINT('',(0.E0,0.E0,0.E0));
#48=DIRECTION('',(0.E0,0.E0,1.E0));
#49=DIRECTION('',(0.E0,1.E0,0.E0));
#50=AXIS2_PLACEMENT_3D('',#47,#48,#49);
#52=CARTESIAN_POINT('',(0.E0,0.E0,0.E0));
#53=DIRECTION('',(0.E0,0.E0,-1.E0));
#54=DIRECTION('',(0.E0,1.E0,0.E0));
#55=AXIS2_PLACEMENT_3D('',#52,#53,#54);
#57=CARTESIAN_POINT('',(0.E0,0.E0,-2.5E0));
#58=DIRECTION('',(0.E0,0.E0,1.E0));
#59=DIRECTION('',(0.E0,1.E0,0.E0));
#60=AXIS2_PLACEMENT_3D('',#57,#58,#59);
#62=DIRECTION('',(0.E0,0.E0,1.E0));
#63=VECTOR('',#62,2.5E0);
#64=CARTESIAN_POINT('',(0.E0,5.E0,-2.5E0));
#65=LINE('',#64,#63);
#66=CARTESIAN_POINT('',(0.E0,0.E0,-2.5E0));
#67=DIRECTION('',(0.E0,0.E0,-1.E0));
#68=DIRECTION('',(0.E0,1.E0,0.E0));
#69=AXIS2_PLACEMENT_3D('',#66,#67,#68);
#71=DIRECTION('',(0.E0,0.E0,1.E0));
#72=VECTOR('',#71,2.5E0);
#73=CARTESIAN_POINT('',(0.E0,-5.E0,-2.5E0));
#74=LINE('',#73,#72);
#75=CARTESIAN_POINT('',(0.E0,0.E0,-2.5E0));
#76=DIRECTION('',(0.E0,0.E0,1.E0));
#77=DIRECTION('',(0.E0,1.E0,0.E0));
#78=AXIS2_PLACEMENT_3D('',#75,#76,#77);
#80=CARTESIAN_POINT('',(0.E0,0.E0,-2.5E0));
#81=DIRECTION('',(0.E0,0.E0,-1.E0));
#82=DIRECTION('',(0.E0,1.E0,0.E0));
#83=AXIS2_PLACEMENT_3D('',#80,#81,#82);
#85=CARTESIAN_POINT('',(0.E0,2.E0,1.55E1));
#86=CARTESIAN_POINT('',(0.E0,2.E0,-2.5E0));
#87=VERTEX_POINT('',#85);
#88=VERTEX_POINT('',#86);
#89=CARTESIAN_POINT('',(0.E0,5.E0,-2.5E0));
#90=CARTESIAN_POINT('',(0.E0,5.E0,0.E0));
#91=VERTEX_POINT('',#89);
#92=VERTEX_POINT('',#90);
#93=CARTESIAN_POINT('',(0.E0,3.E0,0.E0));
#94=CARTESIAN_POINT('',(0.E0,3.E0,1.55E1));
#95=VERTEX_POINT('',#93);
#96=VERTEX_POINT('',#94);
#97=CARTESIAN_POINT('',(0.E0,-2.E0,1.55E1));
#98=CARTESIAN_POINT('',(0.E0,-2.E0,-2.5E0));
#99=VERTEX_POINT('',#97);
#100=VERTEX_POINT('',#98);
#101=CARTESIAN_POINT('',(0.E0,-5.E0,-2.5E0));
#102=CARTESIAN_POINT('',(0.E0,-5.E0,0.E0));
#103=VERTEX_POINT('',#101);
#104=VERTEX_POINT('',#102);
#105=CARTESIAN_POINT('',(0.E0,-3.E0,0.E0));
#106=CARTESIAN_POINT('',(0.E0,-3.E0,1.55E1));
#107=VERTEX_POINT('',#105);
#108=VERTEX_POINT('',#106);
#109=CARTESIAN_POINT('',(0.E0,0.E0,-3.4E0));
#110=DIRECTION('',(0.E0,0.E0,1.E0));
#111=DIRECTION('',(0.E0,1.E0,0.E0));
#112=AXIS2_PLACEMENT_3D('',#109,#110,#111);
#113=CYLINDRICAL_SURFACE('',#112,2.E0);
#115=ORIENTED_EDGE('',*,*,#114,.T.);
#117=ORIENTED_EDGE('',*,*,#116,.T.);
#119=ORIENTED_EDGE('',*,*,#118,.F.);
#121=ORIENTED_EDGE('',*,*,#120,.F.);
#122=EDGE_LOOP('',(#115,#117,#119,#121));
#123=FACE_OUTER_BOUND('',#122,.F.);
#124=ADVANCED_FACE('',(#123),#113,.F.);
#125=CARTESIAN_POINT('',(0.E0,0.E0,-3.4E0));
#126=DIRECTION('',(0.E0,0.E0,1.E0));
#127=DIRECTION('',(0.E0,1.E0,0.E0));
#128=AXIS2_PLACEMENT_3D('',#125,#126,#127);
#129=CYLINDRICAL_SURFACE('',#128,2.E0);
#130=ORIENTED_EDGE('',*,*,#114,.F.);
#132=ORIENTED_EDGE('',*,*,#131,.T.);
#133=ORIENTED_EDGE('',*,*,#118,.T.);
#135=ORIENTED_EDGE('',*,*,#134,.F.);
#136=EDGE_LOOP('',(#130,#132,#133,#135));
#137=FACE_OUTER_BOUND('',#136,.F.);
#138=ADVANCED_FACE('',(#137),#129,.F.);
#139=CARTESIAN_POINT('',(0.E0,0.E0,1.55E1));
#140=DIRECTION('',(0.E0,0.E0,1.E0));
#141=DIRECTION('',(0.E0,1.E0,0.E0));
#142=AXIS2_PLACEMENT_3D('',#139,#140,#141);
#143=PLANE('',#142);
#145=ORIENTED_EDGE('',*,*,#144,.F.);
#147=ORIENTED_EDGE('',*,*,#146,.T.);
#148=EDGE_LOOP('',(#145,#147));
#149=FACE_OUTER_BOUND('',#148,.F.);
#150=ORIENTED_EDGE('',*,*,#131,.F.);
#151=ORIENTED_EDGE('',*,*,#120,.T.);
#152=EDGE_LOOP('',(#150,#151));
#153=FACE_BOUND('',#152,.F.);
#154=ADVANCED_FACE('',(#149,#153),#143,.T.);
#155=CARTESIAN_POINT('',(0.E0,0.E0,-3.4E0));
#156=DIRECTION('',(0.E0,0.E0,1.E0));
#157=DIRECTION('',(0.E0,1.E0,0.E0));
#158=AXIS2_PLACEMENT_3D('',#155,#156,#157);
#159=CYLINDRICAL_SURFACE('',#158,3.E0);
#161=ORIENTED_EDGE('',*,*,#160,.T.);
#162=ORIENTED_EDGE('',*,*,#144,.T.);
#164=ORIENTED_EDGE('',*,*,#163,.F.);
#166=ORIENTED_EDGE('',*,*,#165,.F.);
#167=EDGE_LOOP('',(#161,#162,#164,#166));
#168=FACE_OUTER_BOUND('',#167,.F.);
#169=ADVANCED_FACE('',(#168),#159,.T.);
#170=CARTESIAN_POINT('',(0.E0,0.E0,-3.4E0));
#171=DIRECTION('',(0.E0,0.E0,1.E0));
#172=DIRECTION('',(0.E0,1.E0,0.E0));
#173=AXIS2_PLACEMENT_3D('',#170,#171,#172);
#174=CYLINDRICAL_SURFACE('',#173,3.E0);
#175=ORIENTED_EDGE('',*,*,#160,.F.);
#177=ORIENTED_EDGE('',*,*,#176,.T.);
#178=ORIENTED_EDGE('',*,*,#163,.T.);
#179=ORIENTED_EDGE('',*,*,#146,.F.);
#180=EDGE_LOOP('',(#175,#177,#178,#179));
#181=FACE_OUTER_BOUND('',#180,.F.);
#182=ADVANCED_FACE('',(#181),#174,.T.);
#183=CARTESIAN_POINT('',(0.E0,0.E0,0.E0));
#184=DIRECTION('',(0.E0,0.E0,1.E0));
#185=DIRECTION('',(0.E0,1.E0,0.E0));
#186=AXIS2_PLACEMENT_3D('',#183,#184,#185);
#187=PLANE('',#186);
#189=ORIENTED_EDGE('',*,*,#188,.F.);
#191=ORIENTED_EDGE('',*,*,#190,.T.);
#192=EDGE_LOOP('',(#189,#191));
#193=FACE_OUTER_BOUND('',#192,.F.);
#194=ORIENTED_EDGE('',*,*,#176,.F.);
#195=ORIENTED_EDGE('',*,*,#165,.T.);
#196=EDGE_LOOP('',(#194,#195));
#197=FACE_BOUND('',#196,.F.);
#198=ADVANCED_FACE('',(#193,#197),#187,.T.);
#199=CARTESIAN_POINT('',(0.E0,0.E0,-3.4E0));
#200=DIRECTION('',(0.E0,0.E0,1.E0));
#201=DIRECTION('',(0.E0,1.E0,0.E0));
#202=AXIS2_PLACEMENT_3D('',#199,#200,#201);
#203=CYLINDRICAL_SURFACE('',#202,5.E0);
#205=ORIENTED_EDGE('',*,*,#204,.T.);
#206=ORIENTED_EDGE('',*,*,#188,.T.);
#208=ORIENTED_EDGE('',*,*,#207,.F.);
#210=ORIENTED_EDGE('',*,*,#209,.F.);
#211=EDGE_LOOP('',(#205,#206,#208,#210));
#212=FACE_OUTER_BOUND('',#211,.F.);
#213=ADVANCED_FACE('',(#212),#203,.T.);
#214=CARTESIAN_POINT('',(0.E0,0.E0,-3.4E0));
#215=DIRECTION('',(0.E0,0.E0,1.E0));
#216=DIRECTION('',(0.E0,1.E0,0.E0));
#217=AXIS2_PLACEMENT_3D('',#214,#215,#216);
#218=CYLINDRICAL_SURFACE('',#217,5.E0);
#219=ORIENTED_EDGE('',*,*,#204,.F.);
#221=ORIENTED_EDGE('',*,*,#220,.T.);
#222=ORIENTED_EDGE('',*,*,#207,.T.);
#223=ORIENTED_EDGE('',*,*,#190,.F.);
#224=EDGE_LOOP('',(#219,#221,#222,#223));
#225=FACE_OUTER_BOUND('',#224,.F.);
#226=ADVANCED_FACE('',(#225),#218,.T.);
#227=CARTESIAN_POINT('',(0.E0,0.E0,-2.5E0));
#228=DIRECTION('',(0.E0,0.E0,1.E0));
#229=DIRECTION('',(0.E0,1.E0,0.E0));
#230=AXIS2_PLACEMENT_3D('',#227,#228,#229);
#231=PLANE('',#230);
#232=ORIENTED_EDGE('',*,*,#220,.F.);
#233=ORIENTED_EDGE('',*,*,#209,.T.);
#234=EDGE_LOOP('',(#232,#233));
#235=FACE_OUTER_BOUND('',#234,.F.);
#236=ORIENTED_EDGE('',*,*,#116,.F.);
#237=ORIENTED_EDGE('',*,*,#134,.T.);
#238=EDGE_LOOP('',(#236,#237));
#239=FACE_BOUND('',#238,.F.);
#240=ADVANCED_FACE('',(#235,#239),#231,.F.);
#241=CLOSED_SHELL('',(#124,#138,#154,#169,#182,#198,#213,#226,#240));
#242=MANIFOLD_SOLID_BREP('',#241);
#243=(LENGTH_UNIT()NAMED_UNIT(*)SI_UNIT(.MILLI.,.METRE.));
#244=DIMENSIONAL_EXPONENTS(0.E0,0.E0,0.E0,0.E0,0.E0,0.E0,0.E0);
#245=(NAMED_UNIT(*)PLANE_ANGLE_UNIT()SI_UNIT($,.RADIAN.));
#246=PLANE_ANGLE_MEASURE_WITH_UNIT(PLANE_ANGLE_MEASURE(1.745329251994E-2),#245);
#247=(CONVERSION_BASED_UNIT('DEGREE',#246)NAMED_UNIT(#244)PLANE_ANGLE_UNIT());
#248=(NAMED_UNIT(*)SI_UNIT($,.STERADIAN.)SOLID_ANGLE_UNIT());
#249=UNCERTAINTY_MEASURE_WITH_UNIT(LENGTH_MEASURE(1.907537571071E-4),#243,
'closure',
'Maximum model space distance between geometric entities at asserted connectivities');
#250=(GEOMETRIC_REPRESENTATION_CONTEXT(3)GLOBAL_UNCERTAINTY_ASSIGNED_CONTEXT((
#249))GLOBAL_UNIT_ASSIGNED_CONTEXT((#243,#247,#248))REPRESENTATION_CONTEXT
('ID1','3'));
#252=APPLICATION_CONTEXT(
'CONFIGURATION CONTROLLED 3D DESIGNS OF MECHANICAL PARTS AND ASSEMBLIES');
#253=APPLICATION_PROTOCOL_DEFINITION('international standard',
'config_control_design',1994,#252);
#254=DESIGN_CONTEXT('',#252,'design');
#255=MECHANICAL_CONTEXT('',#252,'mechanical');
#256=PRODUCT('Q05A7600604_PRT','Q05A7600604_PRT','NOT SPECIFIED',(#255));
#257=PRODUCT_DEFINITION_FORMATION_WITH_SPECIFIED_SOURCE('2','LAST_VERSION',#256,
.MADE.);
#261=PRODUCT_CATEGORY('part','');
#262=PRODUCT_RELATED_PRODUCT_CATEGORY('detail','',(#256));
#263=PRODUCT_CATEGORY_RELATIONSHIP('','',#261,#262);
#264=SECURITY_CLASSIFICATION_LEVEL('unclassified');
#265=SECURITY_CLASSIFICATION('','',#264);
#266=CC_DESIGN_SECURITY_CLASSIFICATION(#265,(#257));
#267=APPROVAL_STATUS('approved');
#268=APPROVAL(#267,'');
#269=CC_DESIGN_APPROVAL(#268,(#265,#257,#258));
#270=CALENDAR_DATE(109,11,6);
#271=COORDINATED_UNIVERSAL_TIME_OFFSET(3,0,.AHEAD.);
#272=LOCAL_TIME(11,10,6.E0,#271);
#273=DATE_AND_TIME(#270,#272);
#274=APPROVAL_DATE_TIME(#273,#268);
#275=DATE_TIME_ROLE('creation_date');
#276=CC_DESIGN_DATE_AND_TIME_ASSIGNMENT(#273,#275,(#258));
#277=DATE_TIME_ROLE('classification_date');
#278=CC_DESIGN_DATE_AND_TIME_ASSIGNMENT(#273,#277,(#265));
#279=PERSON('UNSPECIFIED','UNSPECIFIED',$,$,$,$);
#280=ORGANIZATION('UNSPECIFIED','UNSPECIFIED','UNSPECIFIED');
#281=PERSON_AND_ORGANIZATION(#279,#280);
#282=APPROVAL_ROLE('approver');
#283=APPROVAL_PERSON_ORGANIZATION(#281,#268,#282);
#284=PERSON_AND_ORGANIZATION_ROLE('creator');
#285=CC_DESIGN_PERSON_AND_ORGANIZATION_ASSIGNMENT(#281,#284,(#257,#258));
#286=PERSON_AND_ORGANIZATION_ROLE('design_supplier');
#287=CC_DESIGN_PERSON_AND_ORGANIZATION_ASSIGNMENT(#281,#286,(#257));
#288=PERSON_AND_ORGANIZATION_ROLE('classification_officer');
#289=CC_DESIGN_PERSON_AND_ORGANIZATION_ASSIGNMENT(#281,#288,(#265));
#290=PERSON_AND_ORGANIZATION_ROLE('design_owner');
#291=CC_DESIGN_PERSON_AND_ORGANIZATION_ASSIGNMENT(#281,#290,(#256));
#5=CIRCLE('',#4,2.E0);
#14=CIRCLE('',#13,2.E0);
#23=CIRCLE('',#22,3.E0);
#28=CIRCLE('',#27,3.E0);
#33=CIRCLE('',#32,3.E0);
#42=CIRCLE('',#41,3.E0);
#51=CIRCLE('',#50,5.E0);
#56=CIRCLE('',#55,5.E0);
#61=CIRCLE('',#60,5.E0);
#70=CIRCLE('',#69,5.E0);
#79=CIRCLE('',#78,2.E0);
#84=CIRCLE('',#83,2.E0);
#114=EDGE_CURVE('',#87,#88,#9,.T.);
#116=EDGE_CURVE('',#88,#100,#79,.T.);
#118=EDGE_CURVE('',#99,#100,#18,.T.);
#120=EDGE_CURVE('',#87,#99,#5,.T.);
#131=EDGE_CURVE('',#87,#99,#14,.T.);
#134=EDGE_CURVE('',#88,#100,#84,.T.);
#144=EDGE_CURVE('',#96,#108,#23,.T.);
#146=EDGE_CURVE('',#96,#108,#28,.T.);
#160=EDGE_CURVE('',#95,#96,#37,.T.);
#163=EDGE_CURVE('',#107,#108,#46,.T.);
#165=EDGE_CURVE('',#95,#107,#33,.T.);
#176=EDGE_CURVE('',#95,#107,#42,.T.);
#188=EDGE_CURVE('',#92,#104,#51,.T.);
#190=EDGE_CURVE('',#92,#104,#56,.T.);
#204=EDGE_CURVE('',#91,#92,#65,.T.);
#207=EDGE_CURVE('',#103,#104,#74,.T.);
#209=EDGE_CURVE('',#91,#103,#61,.T.);
#220=EDGE_CURVE('',#91,#103,#70,.T.);
#251=ADVANCED_BREP_SHAPE_REPRESENTATION('',(#242),#250);
#258=PRODUCT_DEFINITION('design','',#257,#254);
#259=PRODUCT_DEFINITION_SHAPE('','SHAPE FOR Q05A7600604_PRT.',#258);
#260=SHAPE_DEFINITION_REPRESENTATION(#259,#251);
ENDSEC;
END-ISO-10303-21;
