ISO-10303-21;
HEADER;
/* Generated by software containing ST-Developer
 * from STEP Tools, Inc. (www.steptools.com) 
 */
/* OPTION: using custom schema-name function */

FILE_DESCRIPTION(
/* description */ (''),
/* implementation_level */ '2;1');

FILE_NAME(
/* name */ 'CT-PSFNR3219-1911.stp',
/* time_stamp */ '2015-05-27T11:14:50+06:00',
/* author */ (''),
/* organization */ (''),
/* preprocessor_version */ 'ST-DEVELOPER v11',
/* originating_system */ 'SIEMENS PLM Software NX 7.5',
/* authorisation */ '');

FILE_SCHEMA (('AUTOMOTIVE_DESIGN { 1 0 10303 214 1 1 1 1 }'));
ENDSEC;

DATA;
#10=SHAPE_REPRESENTATION_RELATIONSHIP('None',
'relationship between vino0BA5zin8-None and vino0BA5zin8-None',#22,#11);
#11=ADVANCED_BREP_SHAPE_REPRESENTATION('vino0BA5zin8-None',(#41,#42),#653);
#12=SHAPE_DEFINITION_REPRESENTATION(#13,#22);
#13=PRODUCT_DEFINITION_SHAPE('','',#14);
#14=PRODUCT_DEFINITION(' ','',#16,#15);
#15=PRODUCT_DEFINITION_CONTEXT('part definition',#21,'design');
#16=PRODUCT_DEFINITION_FORMATION_WITH_SPECIFIED_SOURCE(' ',' ',#18,.NOT_KNOWN.);
#17=PRODUCT_RELATED_PRODUCT_CATEGORY('part','',(#18));
#18=PRODUCT('vino0BA5zin8','vino0BA5zin8',' ',(#19));
#19=PRODUCT_CONTEXT(' ',#21,'mechanical');
#20=APPLICATION_PROTOCOL_DEFINITION('international standard',
'automotive_design',2001,#21);
#21=APPLICATION_CONTEXT(
'core data for automotive mechanical design processes');
#22=SHAPE_REPRESENTATION('vino0BA5zin8-None',(#408),#653);
#23=PRESENTATION_LAYER_ASSIGNMENT('2','Layer 2',(#41));
#24=PRESENTATION_LAYER_ASSIGNMENT('3','Layer 3',(#42));
#25=STYLED_ITEM('',(#27),#41);
#26=STYLED_ITEM('',(#28),#42);
#27=PRESENTATION_STYLE_ASSIGNMENT((#29));
#28=PRESENTATION_STYLE_ASSIGNMENT((#30));
#29=SURFACE_STYLE_USAGE(.BOTH.,#31);
#30=SURFACE_STYLE_USAGE(.BOTH.,#32);
#31=SURFACE_SIDE_STYLE('',(#33));
#32=SURFACE_SIDE_STYLE('',(#34));
#33=SURFACE_STYLE_FILL_AREA(#35);
#34=SURFACE_STYLE_FILL_AREA(#36);
#35=FILL_AREA_STYLE('',(#37));
#36=FILL_AREA_STYLE('',(#38));
#37=FILL_AREA_STYLE_COLOUR('',#39);
#38=FILL_AREA_STYLE_COLOUR('',#40);
#39=COLOUR_RGB('Medium Gray',0.490196078431373,0.490196078431373,0.490196078431373);
#40=COLOUR_RGB('Light Gray',0.8,0.8,0.8);
#41=MANIFOLD_SOLID_BREP('',#43);
#42=MANIFOLD_SOLID_BREP('',#44);
#43=CLOSED_SHELL('',(#60,#61,#62,#63,#64,#65,#66,#67,#68,#69,#70));
#44=CLOSED_SHELL('',(#71,#72,#73,#74,#75,#76,#77,#78,#79,#80));
#45=CYLINDRICAL_SURFACE('',#418,4.);
#46=CYLINDRICAL_SURFACE('',#432,4.);
#47=CYLINDRICAL_SURFACE('',#434,4.);
#48=CYLINDRICAL_SURFACE('',#436,4.);
#49=CYLINDRICAL_SURFACE('',#438,4.);
#50=CIRCLE('',#414,4.);
#51=CIRCLE('',#417,4.);
#52=CIRCLE('',#422,4.);
#53=CIRCLE('',#423,4.);
#54=CIRCLE('',#424,4.);
#55=CIRCLE('',#425,4.);
#56=CIRCLE('',#427,4.);
#57=CIRCLE('',#428,4.);
#58=CIRCLE('',#429,4.);
#59=CIRCLE('',#430,4.);
#60=ADVANCED_FACE('',(#97),#81,.F.);
#61=ADVANCED_FACE('',(#98),#82,.F.);
#62=ADVANCED_FACE('',(#99),#83,.F.);
#63=ADVANCED_FACE('',(#100),#84,.F.);
#64=ADVANCED_FACE('',(#101),#85,.F.);
#65=ADVANCED_FACE('',(#102),#86,.T.);
#66=ADVANCED_FACE('',(#103),#87,.F.);
#67=ADVANCED_FACE('',(#104),#45,.T.);
#68=ADVANCED_FACE('',(#105),#88,.F.);
#69=ADVANCED_FACE('',(#106),#89,.F.);
#70=ADVANCED_FACE('',(#107),#90,.T.);
#71=ADVANCED_FACE('',(#108),#91,.T.);
#72=ADVANCED_FACE('',(#109),#92,.F.);
#73=ADVANCED_FACE('',(#110),#46,.T.);
#74=ADVANCED_FACE('',(#111),#93,.T.);
#75=ADVANCED_FACE('',(#112),#47,.T.);
#76=ADVANCED_FACE('',(#113),#94,.T.);
#77=ADVANCED_FACE('',(#114),#48,.T.);
#78=ADVANCED_FACE('',(#115),#95,.T.);
#79=ADVANCED_FACE('',(#116),#49,.T.);
#80=ADVANCED_FACE('',(#117),#96,.T.);
#81=PLANE('',#409);
#82=PLANE('',#410);
#83=PLANE('',#411);
#84=PLANE('',#412);
#85=PLANE('',#413);
#86=PLANE('',#415);
#87=PLANE('',#416);
#88=PLANE('',#419);
#89=PLANE('',#420);
#90=PLANE('',#421);
#91=PLANE('',#426);
#92=PLANE('',#431);
#93=PLANE('',#433);
#94=PLANE('',#435);
#95=PLANE('',#437);
#96=PLANE('',#439);
#97=FACE_OUTER_BOUND('',#118,.T.);
#98=FACE_OUTER_BOUND('',#119,.T.);
#99=FACE_OUTER_BOUND('',#120,.T.);
#100=FACE_OUTER_BOUND('',#121,.T.);
#101=FACE_OUTER_BOUND('',#122,.T.);
#102=FACE_OUTER_BOUND('',#123,.T.);
#103=FACE_OUTER_BOUND('',#124,.T.);
#104=FACE_OUTER_BOUND('',#125,.T.);
#105=FACE_OUTER_BOUND('',#126,.T.);
#106=FACE_OUTER_BOUND('',#127,.T.);
#107=FACE_OUTER_BOUND('',#128,.T.);
#108=FACE_OUTER_BOUND('',#129,.T.);
#109=FACE_OUTER_BOUND('',#130,.T.);
#110=FACE_OUTER_BOUND('',#131,.T.);
#111=FACE_OUTER_BOUND('',#132,.T.);
#112=FACE_OUTER_BOUND('',#133,.T.);
#113=FACE_OUTER_BOUND('',#134,.T.);
#114=FACE_OUTER_BOUND('',#135,.T.);
#115=FACE_OUTER_BOUND('',#136,.T.);
#116=FACE_OUTER_BOUND('',#137,.T.);
#117=FACE_OUTER_BOUND('',#138,.T.);
#118=EDGE_LOOP('',(#139,#140,#141,#142));
#119=EDGE_LOOP('',(#143,#144,#145,#146,#147,#148,#149,#150));
#120=EDGE_LOOP('',(#151,#152,#153,#154));
#121=EDGE_LOOP('',(#155,#156,#157,#158,#159,#160,#161,#162));
#122=EDGE_LOOP('',(#163,#164,#165,#166));
#123=EDGE_LOOP('',(#167,#168,#169,#170,#171));
#124=EDGE_LOOP('',(#172,#173,#174,#175));
#125=EDGE_LOOP('',(#176,#177,#178,#179));
#126=EDGE_LOOP('',(#180,#181,#182,#183));
#127=EDGE_LOOP('',(#184,#185,#186,#187));
#128=EDGE_LOOP('',(#188,#189,#190,#191,#192));
#129=EDGE_LOOP('',(#193,#194,#195,#196,#197,#198,#199,#200));
#130=EDGE_LOOP('',(#201,#202,#203,#204,#205,#206,#207,#208));
#131=EDGE_LOOP('',(#209,#210,#211,#212));
#132=EDGE_LOOP('',(#213,#214,#215,#216));
#133=EDGE_LOOP('',(#217,#218,#219,#220));
#134=EDGE_LOOP('',(#221,#222,#223,#224));
#135=EDGE_LOOP('',(#225,#226,#227,#228));
#136=EDGE_LOOP('',(#229,#230,#231,#232));
#137=EDGE_LOOP('',(#233,#234,#235,#236));
#138=EDGE_LOOP('',(#237,#238,#239,#240));
#139=ORIENTED_EDGE('',*,*,#275,.F.);
#140=ORIENTED_EDGE('',*,*,#276,.F.);
#141=ORIENTED_EDGE('',*,*,#277,.F.);
#142=ORIENTED_EDGE('',*,*,#278,.F.);
#143=ORIENTED_EDGE('',*,*,#279,.T.);
#144=ORIENTED_EDGE('',*,*,#280,.T.);
#145=ORIENTED_EDGE('',*,*,#281,.T.);
#146=ORIENTED_EDGE('',*,*,#282,.F.);
#147=ORIENTED_EDGE('',*,*,#283,.T.);
#148=ORIENTED_EDGE('',*,*,#284,.T.);
#149=ORIENTED_EDGE('',*,*,#277,.T.);
#150=ORIENTED_EDGE('',*,*,#285,.T.);
#151=ORIENTED_EDGE('',*,*,#286,.T.);
#152=ORIENTED_EDGE('',*,*,#287,.T.);
#153=ORIENTED_EDGE('',*,*,#288,.F.);
#154=ORIENTED_EDGE('',*,*,#289,.F.);
#155=ORIENTED_EDGE('',*,*,#290,.F.);
#156=ORIENTED_EDGE('',*,*,#288,.T.);
#157=ORIENTED_EDGE('',*,*,#291,.T.);
#158=ORIENTED_EDGE('',*,*,#292,.T.);
#159=ORIENTED_EDGE('',*,*,#293,.T.);
#160=ORIENTED_EDGE('',*,*,#275,.T.);
#161=ORIENTED_EDGE('',*,*,#294,.T.);
#162=ORIENTED_EDGE('',*,*,#295,.T.);
#163=ORIENTED_EDGE('',*,*,#295,.F.);
#164=ORIENTED_EDGE('',*,*,#296,.T.);
#165=ORIENTED_EDGE('',*,*,#283,.F.);
#166=ORIENTED_EDGE('',*,*,#297,.F.);
#167=ORIENTED_EDGE('',*,*,#297,.T.);
#168=ORIENTED_EDGE('',*,*,#282,.T.);
#169=ORIENTED_EDGE('',*,*,#298,.T.);
#170=ORIENTED_EDGE('',*,*,#289,.T.);
#171=ORIENTED_EDGE('',*,*,#290,.T.);
#172=ORIENTED_EDGE('',*,*,#293,.F.);
#173=ORIENTED_EDGE('',*,*,#299,.T.);
#174=ORIENTED_EDGE('',*,*,#285,.F.);
#175=ORIENTED_EDGE('',*,*,#276,.T.);
#176=ORIENTED_EDGE('',*,*,#300,.F.);
#177=ORIENTED_EDGE('',*,*,#286,.F.);
#178=ORIENTED_EDGE('',*,*,#298,.F.);
#179=ORIENTED_EDGE('',*,*,#281,.F.);
#180=ORIENTED_EDGE('',*,*,#294,.F.);
#181=ORIENTED_EDGE('',*,*,#278,.T.);
#182=ORIENTED_EDGE('',*,*,#284,.F.);
#183=ORIENTED_EDGE('',*,*,#296,.F.);
#184=ORIENTED_EDGE('',*,*,#292,.F.);
#185=ORIENTED_EDGE('',*,*,#301,.F.);
#186=ORIENTED_EDGE('',*,*,#279,.F.);
#187=ORIENTED_EDGE('',*,*,#299,.F.);
#188=ORIENTED_EDGE('',*,*,#301,.T.);
#189=ORIENTED_EDGE('',*,*,#291,.F.);
#190=ORIENTED_EDGE('',*,*,#287,.F.);
#191=ORIENTED_EDGE('',*,*,#300,.T.);
#192=ORIENTED_EDGE('',*,*,#280,.F.);
#193=ORIENTED_EDGE('',*,*,#302,.T.);
#194=ORIENTED_EDGE('',*,*,#303,.T.);
#195=ORIENTED_EDGE('',*,*,#304,.T.);
#196=ORIENTED_EDGE('',*,*,#305,.T.);
#197=ORIENTED_EDGE('',*,*,#306,.T.);
#198=ORIENTED_EDGE('',*,*,#307,.T.);
#199=ORIENTED_EDGE('',*,*,#308,.T.);
#200=ORIENTED_EDGE('',*,*,#309,.T.);
#201=ORIENTED_EDGE('',*,*,#310,.F.);
#202=ORIENTED_EDGE('',*,*,#311,.F.);
#203=ORIENTED_EDGE('',*,*,#312,.F.);
#204=ORIENTED_EDGE('',*,*,#313,.F.);
#205=ORIENTED_EDGE('',*,*,#314,.F.);
#206=ORIENTED_EDGE('',*,*,#315,.F.);
#207=ORIENTED_EDGE('',*,*,#316,.F.);
#208=ORIENTED_EDGE('',*,*,#317,.F.);
#209=ORIENTED_EDGE('',*,*,#302,.F.);
#210=ORIENTED_EDGE('',*,*,#318,.F.);
#211=ORIENTED_EDGE('',*,*,#310,.T.);
#212=ORIENTED_EDGE('',*,*,#319,.T.);
#213=ORIENTED_EDGE('',*,*,#303,.F.);
#214=ORIENTED_EDGE('',*,*,#319,.F.);
#215=ORIENTED_EDGE('',*,*,#317,.T.);
#216=ORIENTED_EDGE('',*,*,#320,.T.);
#217=ORIENTED_EDGE('',*,*,#304,.F.);
#218=ORIENTED_EDGE('',*,*,#320,.F.);
#219=ORIENTED_EDGE('',*,*,#316,.T.);
#220=ORIENTED_EDGE('',*,*,#321,.T.);
#221=ORIENTED_EDGE('',*,*,#305,.F.);
#222=ORIENTED_EDGE('',*,*,#321,.F.);
#223=ORIENTED_EDGE('',*,*,#315,.T.);
#224=ORIENTED_EDGE('',*,*,#322,.T.);
#225=ORIENTED_EDGE('',*,*,#306,.F.);
#226=ORIENTED_EDGE('',*,*,#322,.F.);
#227=ORIENTED_EDGE('',*,*,#314,.T.);
#228=ORIENTED_EDGE('',*,*,#323,.T.);
#229=ORIENTED_EDGE('',*,*,#307,.F.);
#230=ORIENTED_EDGE('',*,*,#323,.F.);
#231=ORIENTED_EDGE('',*,*,#313,.T.);
#232=ORIENTED_EDGE('',*,*,#324,.T.);
#233=ORIENTED_EDGE('',*,*,#308,.F.);
#234=ORIENTED_EDGE('',*,*,#324,.F.);
#235=ORIENTED_EDGE('',*,*,#312,.T.);
#236=ORIENTED_EDGE('',*,*,#325,.T.);
#237=ORIENTED_EDGE('',*,*,#309,.F.);
#238=ORIENTED_EDGE('',*,*,#325,.F.);
#239=ORIENTED_EDGE('',*,*,#311,.T.);
#240=ORIENTED_EDGE('',*,*,#318,.T.);
#241=VERTEX_POINT('',#547);
#242=VERTEX_POINT('',#548);
#243=VERTEX_POINT('',#550);
#244=VERTEX_POINT('',#552);
#245=VERTEX_POINT('',#556);
#246=VERTEX_POINT('',#557);
#247=VERTEX_POINT('',#559);
#248=VERTEX_POINT('',#561);
#249=VERTEX_POINT('',#563);
#250=VERTEX_POINT('',#565);
#251=VERTEX_POINT('',#570);
#252=VERTEX_POINT('',#571);
#253=VERTEX_POINT('',#573);
#254=VERTEX_POINT('',#575);
#255=VERTEX_POINT('',#579);
#256=VERTEX_POINT('',#581);
#257=VERTEX_POINT('',#583);
#258=VERTEX_POINT('',#586);
#259=VERTEX_POINT('',#603);
#260=VERTEX_POINT('',#604);
#261=VERTEX_POINT('',#606);
#262=VERTEX_POINT('',#608);
#263=VERTEX_POINT('',#610);
#264=VERTEX_POINT('',#612);
#265=VERTEX_POINT('',#614);
#266=VERTEX_POINT('',#616);
#267=VERTEX_POINT('',#620);
#268=VERTEX_POINT('',#621);
#269=VERTEX_POINT('',#623);
#270=VERTEX_POINT('',#625);
#271=VERTEX_POINT('',#627);
#272=VERTEX_POINT('',#629);
#273=VERTEX_POINT('',#631);
#274=VERTEX_POINT('',#633);
#275=EDGE_CURVE('',#241,#242,#326,.T.);
#276=EDGE_CURVE('',#243,#241,#327,.T.);
#277=EDGE_CURVE('',#244,#243,#328,.T.);
#278=EDGE_CURVE('',#242,#244,#329,.T.);
#279=EDGE_CURVE('',#245,#246,#330,.T.);
#280=EDGE_CURVE('',#246,#247,#331,.T.);
#281=EDGE_CURVE('',#247,#248,#332,.T.);
#282=EDGE_CURVE('',#249,#248,#333,.T.);
#283=EDGE_CURVE('',#249,#250,#334,.T.);
#284=EDGE_CURVE('',#250,#244,#335,.T.);
#285=EDGE_CURVE('',#243,#245,#336,.T.);
#286=EDGE_CURVE('',#251,#252,#337,.T.);
#287=EDGE_CURVE('',#252,#253,#338,.T.);
#288=EDGE_CURVE('',#254,#253,#339,.T.);
#289=EDGE_CURVE('',#251,#254,#340,.T.);
#290=EDGE_CURVE('',#254,#255,#341,.T.);
#291=EDGE_CURVE('',#253,#256,#342,.T.);
#292=EDGE_CURVE('',#256,#257,#343,.T.);
#293=EDGE_CURVE('',#257,#241,#344,.T.);
#294=EDGE_CURVE('',#242,#258,#345,.T.);
#295=EDGE_CURVE('',#258,#255,#346,.T.);
#296=EDGE_CURVE('',#258,#250,#347,.T.);
#297=EDGE_CURVE('',#255,#249,#348,.T.);
#298=EDGE_CURVE('',#248,#251,#50,.T.);
#299=EDGE_CURVE('',#257,#245,#349,.T.);
#300=EDGE_CURVE('',#252,#247,#51,.T.);
#301=EDGE_CURVE('',#246,#256,#350,.T.);
#302=EDGE_CURVE('',#259,#260,#52,.T.);
#303=EDGE_CURVE('',#260,#261,#351,.T.);
#304=EDGE_CURVE('',#261,#262,#53,.T.);
#305=EDGE_CURVE('',#262,#263,#352,.T.);
#306=EDGE_CURVE('',#263,#264,#54,.T.);
#307=EDGE_CURVE('',#264,#265,#353,.T.);
#308=EDGE_CURVE('',#265,#266,#55,.T.);
#309=EDGE_CURVE('',#266,#259,#354,.T.);
#310=EDGE_CURVE('',#267,#268,#56,.T.);
#311=EDGE_CURVE('',#269,#267,#355,.T.);
#312=EDGE_CURVE('',#270,#269,#57,.T.);
#313=EDGE_CURVE('',#271,#270,#356,.T.);
#314=EDGE_CURVE('',#272,#271,#58,.T.);
#315=EDGE_CURVE('',#273,#272,#357,.T.);
#316=EDGE_CURVE('',#274,#273,#59,.T.);
#317=EDGE_CURVE('',#268,#274,#358,.T.);
#318=EDGE_CURVE('',#267,#259,#359,.T.);
#319=EDGE_CURVE('',#268,#260,#360,.T.);
#320=EDGE_CURVE('',#274,#261,#361,.T.);
#321=EDGE_CURVE('',#273,#262,#362,.T.);
#322=EDGE_CURVE('',#272,#263,#363,.T.);
#323=EDGE_CURVE('',#271,#264,#364,.T.);
#324=EDGE_CURVE('',#270,#265,#365,.T.);
#325=EDGE_CURVE('',#269,#266,#366,.T.);
#326=LINE('',#546,#367);
#327=LINE('',#549,#368);
#328=LINE('',#551,#369);
#329=LINE('',#553,#370);
#330=LINE('',#555,#371);
#331=LINE('',#558,#372);
#332=LINE('',#560,#373);
#333=LINE('',#562,#374);
#334=LINE('',#564,#375);
#335=LINE('',#566,#376);
#336=LINE('',#567,#377);
#337=LINE('',#569,#378);
#338=LINE('',#572,#379);
#339=LINE('',#574,#380);
#340=LINE('',#576,#381);
#341=LINE('',#578,#382);
#342=LINE('',#580,#383);
#343=LINE('',#582,#384);
#344=LINE('',#584,#385);
#345=LINE('',#585,#386);
#346=LINE('',#587,#387);
#347=LINE('',#589,#388);
#348=LINE('',#590,#389);
#349=LINE('',#594,#390);
#350=LINE('',#599,#391);
#351=LINE('',#605,#392);
#352=LINE('',#609,#393);
#353=LINE('',#613,#394);
#354=LINE('',#617,#395);
#355=LINE('',#622,#396);
#356=LINE('',#626,#397);
#357=LINE('',#630,#398);
#358=LINE('',#634,#399);
#359=LINE('',#636,#400);
#360=LINE('',#637,#401);
#361=LINE('',#639,#402);
#362=LINE('',#641,#403);
#363=LINE('',#643,#404);
#364=LINE('',#645,#405);
#365=LINE('',#647,#406);
#366=LINE('',#649,#407);
#367=VECTOR('',#442,1.);
#368=VECTOR('',#443,1.);
#369=VECTOR('',#444,1.);
#370=VECTOR('',#445,1.);
#371=VECTOR('',#448,1.);
#372=VECTOR('',#449,1.);
#373=VECTOR('',#450,1.);
#374=VECTOR('',#451,1.);
#375=VECTOR('',#452,1.);
#376=VECTOR('',#453,1.);
#377=VECTOR('',#454,1.);
#378=VECTOR('',#457,1.);
#379=VECTOR('',#458,1.);
#380=VECTOR('',#459,1.);
#381=VECTOR('',#460,1.);
#382=VECTOR('',#463,1.);
#383=VECTOR('',#464,1.);
#384=VECTOR('',#465,1.);
#385=VECTOR('',#466,1.);
#386=VECTOR('',#467,1.);
#387=VECTOR('',#468,1.);
#388=VECTOR('',#471,1.);
#389=VECTOR('',#472,1.);
#390=VECTOR('',#479,1.);
#391=VECTOR('',#488,1.);
#392=VECTOR('',#495,1.);
#393=VECTOR('',#498,1.);
#394=VECTOR('',#501,1.);
#395=VECTOR('',#504,1.);
#396=VECTOR('',#509,1.);
#397=VECTOR('',#512,1.);
#398=VECTOR('',#515,1.);
#399=VECTOR('',#518,1.);
#400=VECTOR('',#521,1.);
#401=VECTOR('',#522,1.);
#402=VECTOR('',#525,1.);
#403=VECTOR('',#528,1.);
#404=VECTOR('',#531,1.);
#405=VECTOR('',#534,1.);
#406=VECTOR('',#537,1.);
#407=VECTOR('',#540,1.);
#408=AXIS2_PLACEMENT_3D('',#545,#440,#441);
#409=AXIS2_PLACEMENT_3D('',#554,#446,#447);
#410=AXIS2_PLACEMENT_3D('',#568,#455,#456);
#411=AXIS2_PLACEMENT_3D('',#577,#461,#462);
#412=AXIS2_PLACEMENT_3D('',#588,#469,#470);
#413=AXIS2_PLACEMENT_3D('',#591,#473,#474);
#414=AXIS2_PLACEMENT_3D('',#592,#475,#476);
#415=AXIS2_PLACEMENT_3D('',#593,#477,#478);
#416=AXIS2_PLACEMENT_3D('',#595,#480,#481);
#417=AXIS2_PLACEMENT_3D('',#596,#482,#483);
#418=AXIS2_PLACEMENT_3D('',#597,#484,#485);
#419=AXIS2_PLACEMENT_3D('',#598,#486,#487);
#420=AXIS2_PLACEMENT_3D('',#600,#489,#490);
#421=AXIS2_PLACEMENT_3D('',#601,#491,#492);
#422=AXIS2_PLACEMENT_3D('',#602,#493,#494);
#423=AXIS2_PLACEMENT_3D('',#607,#496,#497);
#424=AXIS2_PLACEMENT_3D('',#611,#499,#500);
#425=AXIS2_PLACEMENT_3D('',#615,#502,#503);
#426=AXIS2_PLACEMENT_3D('',#618,#505,#506);
#427=AXIS2_PLACEMENT_3D('',#619,#507,#508);
#428=AXIS2_PLACEMENT_3D('',#624,#510,#511);
#429=AXIS2_PLACEMENT_3D('',#628,#513,#514);
#430=AXIS2_PLACEMENT_3D('',#632,#516,#517);
#431=AXIS2_PLACEMENT_3D('',#635,#519,#520);
#432=AXIS2_PLACEMENT_3D('',#638,#523,#524);
#433=AXIS2_PLACEMENT_3D('',#640,#526,#527);
#434=AXIS2_PLACEMENT_3D('',#642,#529,#530);
#435=AXIS2_PLACEMENT_3D('',#644,#532,#533);
#436=AXIS2_PLACEMENT_3D('',#646,#535,#536);
#437=AXIS2_PLACEMENT_3D('',#648,#538,#539);
#438=AXIS2_PLACEMENT_3D('',#650,#541,#542);
#439=AXIS2_PLACEMENT_3D('',#651,#543,#544);
#440=DIRECTION('',(0.,0.,1.));
#441=DIRECTION('',(1.,0.,0.));
#442=DIRECTION('',(-5.046041997658E-018,-0.999961923064171,-0.00872653549837379));
#443=DIRECTION('',(1.,0.,0.));
#444=DIRECTION('',(6.76372370445006E-018,0.999961923064171,0.00872653549837379));
#445=DIRECTION('',(-1.,0.,0.));
#446=DIRECTION('',(0.,0.00872653549837379,-0.999961923064171));
#447=DIRECTION('',(0.,0.999961923064171,0.00872653549837379));
#448=DIRECTION('',(0.,-1.,0.));
#449=DIRECTION('',(-7.75075481639935E-016,0.,-1.));
#450=DIRECTION('',(0.,-1.,0.));
#451=DIRECTION('',(-7.75075481639935E-016,0.,-1.));
#452=DIRECTION('',(0.,1.,0.));
#453=DIRECTION('',(-7.68444603448745E-016,-0.130526192220053,-0.99144486137381));
#454=DIRECTION('',(-7.75075481639935E-016,0.,-1.));
#455=DIRECTION('',(1.,0.,-7.75075481639935E-016));
#456=DIRECTION('',(-7.73686670285656E-016,0.,-1.));
#457=DIRECTION('',(0.,1.,0.));
#458=DIRECTION('',(1.,0.,-5.46556711609131E-016));
#459=DIRECTION('',(0.,1.,0.));
#460=DIRECTION('',(1.,0.,-5.46556711609131E-016));
#461=DIRECTION('',(5.46556711609131E-016,0.,1.));
#462=DIRECTION('',(1.,0.,-5.48172618408671E-016));
#463=DIRECTION('',(5.78241158658936E-016,0.,1.));
#464=DIRECTION('',(5.78241158658936E-016,0.,1.));
#465=DIRECTION('',(0.,1.,0.));
#466=DIRECTION('',(5.78241158658936E-016,0.,1.));
#467=DIRECTION('',(5.7329422538724E-016,0.130526192220053,0.99144486137381));
#468=DIRECTION('',(0.,-1.,0.));
#469=DIRECTION('',(-1.,0.,5.78241158658936E-016));
#470=DIRECTION('',(5.78241158658936E-016,0.,1.));
#471=DIRECTION('',(-1.,1.00112078130778E-016,7.60426729195313E-016));
#472=DIRECTION('',(-1.,0.,7.60426729195313E-016));
#473=DIRECTION('',(-7.60426729195313E-016,0.,-1.));
#474=DIRECTION('',(-1.,0.,7.60426729195313E-016));
#475=DIRECTION('',(0.,-1.,0.));
#476=DIRECTION('',(0.,0.,-0.999999999999999));
#477=DIRECTION('',(0.,-1.,0.));
#478=DIRECTION('',(0.,0.,-1.));
#479=DIRECTION('',(-1.,0.,3.13977099724309E-016));
#480=DIRECTION('',(0.,-1.,0.));
#481=DIRECTION('',(0.,0.,-1.));
#482=DIRECTION('',(0.,1.,0.));
#483=DIRECTION('',(0.,0.,0.999999999999999));
#484=DIRECTION('',(0.,1.,0.));
#485=DIRECTION('',(0.,0.,0.999999999999999));
#486=DIRECTION('',(0.,-0.99144486137381,0.130526192220053));
#487=DIRECTION('',(0.,-0.130526192220053,-0.99144486137381));
#488=DIRECTION('',(1.,0.,-3.13977099724309E-016));
#489=DIRECTION('',(3.13977099724309E-016,0.,1.));
#490=DIRECTION('',(1.,0.,-3.12250225675825E-016));
#491=DIRECTION('',(0.,1.,0.));
#492=DIRECTION('',(0.,0.,1.));
#493=DIRECTION('',(0.,1.,0.));
#494=DIRECTION('',(0.,0.,1.));
#495=DIRECTION('',(-3.13977099724309E-016,0.,-1.));
#496=DIRECTION('',(0.,1.,0.));
#497=DIRECTION('',(0.,0.,0.999999999999999));
#498=DIRECTION('',(-1.,0.,4.01890687647116E-017));
#499=DIRECTION('',(0.,1.,0.));
#500=DIRECTION('',(0.,0.,0.999999999999999));
#501=DIRECTION('',(0.,0.,1.));
#502=DIRECTION('',(0.,1.,0.));
#503=DIRECTION('',(0.,0.,1.));
#504=DIRECTION('',(1.,0.,-3.13977099724309E-016));
#505=DIRECTION('',(0.,1.,0.));
#506=DIRECTION('',(0.,0.,1.));
#507=DIRECTION('',(0.,1.,0.));
#508=DIRECTION('',(0.,0.,1.));
#509=DIRECTION('',(1.,0.,-3.13977099724309E-016));
#510=DIRECTION('',(0.,1.,0.));
#511=DIRECTION('',(0.,0.,1.));
#512=DIRECTION('',(0.,0.,1.));
#513=DIRECTION('',(0.,1.,0.));
#514=DIRECTION('',(0.,0.,0.999999999999999));
#515=DIRECTION('',(-1.,0.,4.01890687647116E-017));
#516=DIRECTION('',(0.,1.,0.));
#517=DIRECTION('',(0.,0.,0.999999999999999));
#518=DIRECTION('',(-3.13977099724309E-016,0.,-1.));
#519=DIRECTION('',(0.,1.,0.));
#520=DIRECTION('',(0.,0.,1.));
#521=DIRECTION('',(0.,1.,0.));
#522=DIRECTION('',(0.,1.,0.));
#523=DIRECTION('',(0.,1.,0.));
#524=DIRECTION('',(0.,0.,1.));
#525=DIRECTION('',(0.,1.,0.));
#526=DIRECTION('',(1.,0.,-3.13977099724309E-016));
#527=DIRECTION('',(-3.13978172888224E-016,0.,-1.));
#528=DIRECTION('',(0.,1.,0.));
#529=DIRECTION('',(0.,1.,0.));
#530=DIRECTION('',(0.,0.,0.999999999999999));
#531=DIRECTION('',(0.,1.,0.));
#532=DIRECTION('',(-4.01890687647116E-017,0.,-1.));
#533=DIRECTION('',(-1.,0.,4.16333634234434E-017));
#534=DIRECTION('',(0.,1.,0.));
#535=DIRECTION('',(0.,1.,0.));
#536=DIRECTION('',(0.,0.,0.999999999999999));
#537=DIRECTION('',(0.,1.,0.));
#538=DIRECTION('',(-1.,0.,0.));
#539=DIRECTION('',(0.,-1.,0.));
#540=DIRECTION('',(0.,1.,0.));
#541=DIRECTION('',(0.,1.,0.));
#542=DIRECTION('',(0.,0.,1.));
#543=DIRECTION('',(3.13977099724309E-016,0.,1.));
#544=DIRECTION('',(1.,0.,-3.12250225675825E-016));
#545=CARTESIAN_POINT('',(0.,0.,0.));
#546=CARTESIAN_POINT('',(-1.38777878078145E-014,-0.294275878082201,-8.27932436494451));
#547=CARTESIAN_POINT('',(5.78083147922921E-015,31.4,-8.00273260963263));
#548=CARTESIAN_POINT('',(5.68349353174716E-015,12.1107746633045,-8.17106712893212));
#549=CARTESIAN_POINT('',(-18.25,31.4,-8.00273260963261));
#550=CARTESIAN_POINT('',(-18.25,31.4,-8.00273260963261));
#551=CARTESIAN_POINT('',(-18.25,0.0722246571007931,-8.27612596322872));
#552=CARTESIAN_POINT('',(-18.25,12.1107746633045,-8.17106712893212));
#553=CARTESIAN_POINT('',(1.59999999999999,12.1107746633045,-8.17106712893212));
#554=CARTESIAN_POINT('',(1.59999999999999,31.7131260491323,-8.00000000000001));
#555=CARTESIAN_POINT('',(-18.25,0.,-23.95));
#556=CARTESIAN_POINT('',(-18.25,31.4,-23.95));
#557=CARTESIAN_POINT('',(-18.25,21.,-23.95));
#558=CARTESIAN_POINT('',(-18.25,21.,-1.30104260698261E-014));
#559=CARTESIAN_POINT('',(-18.25,21.,-38.));
#560=CARTESIAN_POINT('',(-18.25,0.,-38.));
#561=CARTESIAN_POINT('',(-18.25,0.,-38.));
#562=CARTESIAN_POINT('',(-18.25,0.,-1.30104260698261E-014));
#563=CARTESIAN_POINT('',(-18.25,0.,4.33680868994175E-016));
#564=CARTESIAN_POINT('',(-18.25,0.,8.6736173798835E-016));
#565=CARTESIAN_POINT('',(-18.25,13.1865160587827,1.74660514362022E-016));
#566=CARTESIAN_POINT('',(-18.25,12.9618562393682,-1.70646074728161));
#567=CARTESIAN_POINT('',(-18.25,31.4,-1.30104260698261E-014));
#568=CARTESIAN_POINT('',(-18.25,0.,-1.30104260698261E-014));
#569=CARTESIAN_POINT('',(-14.25,0.,-42.));
#570=CARTESIAN_POINT('',(-14.25,0.,-42.));
#571=CARTESIAN_POINT('',(-14.25,21.,-42.));
#572=CARTESIAN_POINT('',(-18.25,21.,-42.));
#573=CARTESIAN_POINT('',(-1.38777878078145E-014,21.,-42.));
#574=CARTESIAN_POINT('',(-1.38777878078145E-014,0.,-42.));
#575=CARTESIAN_POINT('',(-1.38777878078145E-014,0.,-42.));
#576=CARTESIAN_POINT('',(-18.25,0.,-42.));
#577=CARTESIAN_POINT('',(-18.25,0.,-42.));
#578=CARTESIAN_POINT('',(-1.38777878078145E-014,0.,-42.));
#579=CARTESIAN_POINT('',(1.04083408558608E-014,0.,-1.34441069388203E-014));
#580=CARTESIAN_POINT('',(-1.38777878078145E-014,21.,-42.));
#581=CARTESIAN_POINT('',(-3.44053489402071E-015,21.,-23.95));
#582=CARTESIAN_POINT('',(-3.44053489402071E-015,0.,-23.95));
#583=CARTESIAN_POINT('',(-3.44053489402071E-015,31.4,-23.95));
#584=CARTESIAN_POINT('',(-1.38777878078145E-014,31.4,-42.));
#585=CARTESIAN_POINT('',(-1.38777878078145E-014,7.5266562922153,-42.990903099352));
#586=CARTESIAN_POINT('',(1.04950979612142E-014,13.1865160587827,-1.34441069388203E-014));
#587=CARTESIAN_POINT('',(1.04083408558608E-014,0.,-1.30104260698261E-014));
#588=CARTESIAN_POINT('',(-1.38777878078145E-014,0.,-42.));
#589=CARTESIAN_POINT('',(-1.38777878078145E-014,13.1865160587827,-1.30104260698261E-014));
#590=CARTESIAN_POINT('',(-1.38777878078145E-014,0.,-1.30104260698261E-014));
#591=CARTESIAN_POINT('',(-1.38777878078145E-014,0.,-1.30104260698261E-014));
#592=CARTESIAN_POINT('',(-14.25,0.,-38.));
#593=CARTESIAN_POINT('',(-18.25,0.,-42.));
#594=CARTESIAN_POINT('',(-18.25,31.4,-23.95));
#595=CARTESIAN_POINT('',(-18.25,31.4,-42.));
#596=CARTESIAN_POINT('',(-14.25,21.,-38.));
#597=CARTESIAN_POINT('',(-14.25,0.,-38.));
#598=CARTESIAN_POINT('',(1.59999999999999,12.13,-8.02503619865892));
#599=CARTESIAN_POINT('',(-15.,21.,-23.95));
#600=CARTESIAN_POINT('',(-15.,21.,-23.95));
#601=CARTESIAN_POINT('',(-3.95000000000001,21.,-27.95));
#602=CARTESIAN_POINT('',(-3.95000000000001,32.,-27.95));
#603=CARTESIAN_POINT('',(-3.95000000000001,32.,-23.95));
#604=CARTESIAN_POINT('',(0.0499999999999876,32.,-27.95));
#605=CARTESIAN_POINT('',(0.0499999999999876,32.,-27.95));
#606=CARTESIAN_POINT('',(0.0499999999999876,32.,-39.));
#607=CARTESIAN_POINT('',(-3.95000000000001,32.,-39.));
#608=CARTESIAN_POINT('',(-3.95000000000001,32.,-43.));
#609=CARTESIAN_POINT('',(-3.95000000000001,32.,-43.));
#610=CARTESIAN_POINT('',(-15.,32.,-43.));
#611=CARTESIAN_POINT('',(-15.,32.,-39.));
#612=CARTESIAN_POINT('',(-19.,32.,-39.));
#613=CARTESIAN_POINT('',(-19.,32.,-39.));
#614=CARTESIAN_POINT('',(-19.,32.,-27.95));
#615=CARTESIAN_POINT('',(-15.,32.,-27.95));
#616=CARTESIAN_POINT('',(-15.,32.,-23.95));
#617=CARTESIAN_POINT('',(-15.,32.,-23.95));
#618=CARTESIAN_POINT('',(-3.95000000000001,32.,-27.95));
#619=CARTESIAN_POINT('',(-3.95000000000001,21.,-27.95));
#620=CARTESIAN_POINT('',(-3.95000000000001,21.,-23.95));
#621=CARTESIAN_POINT('',(0.0499999999999876,21.,-27.95));
#622=CARTESIAN_POINT('',(-15.,21.,-23.95));
#623=CARTESIAN_POINT('',(-15.,21.,-23.95));
#624=CARTESIAN_POINT('',(-15.,21.,-27.95));
#625=CARTESIAN_POINT('',(-19.,21.,-27.95));
#626=CARTESIAN_POINT('',(-19.,21.,-39.));
#627=CARTESIAN_POINT('',(-19.,21.,-39.));
#628=CARTESIAN_POINT('',(-15.,21.,-39.));
#629=CARTESIAN_POINT('',(-15.,21.,-43.));
#630=CARTESIAN_POINT('',(-3.95000000000001,21.,-43.));
#631=CARTESIAN_POINT('',(-3.95000000000001,21.,-43.));
#632=CARTESIAN_POINT('',(-3.95000000000001,21.,-39.));
#633=CARTESIAN_POINT('',(0.0499999999999876,21.,-39.));
#634=CARTESIAN_POINT('',(0.0499999999999876,21.,-27.95));
#635=CARTESIAN_POINT('',(-3.95000000000001,21.,-27.95));
#636=CARTESIAN_POINT('',(-3.95000000000001,21.,-23.95));
#637=CARTESIAN_POINT('',(0.0499999999999876,21.,-27.95));
#638=CARTESIAN_POINT('',(-3.95000000000001,21.,-27.95));
#639=CARTESIAN_POINT('',(0.0499999999999876,21.,-39.));
#640=CARTESIAN_POINT('',(0.0499999999999876,21.,-27.95));
#641=CARTESIAN_POINT('',(-3.95000000000001,21.,-43.));
#642=CARTESIAN_POINT('',(-3.95000000000001,21.,-39.));
#643=CARTESIAN_POINT('',(-15.,21.,-43.));
#644=CARTESIAN_POINT('',(-3.95000000000001,21.,-43.));
#645=CARTESIAN_POINT('',(-19.,21.,-39.));
#646=CARTESIAN_POINT('',(-15.,21.,-39.));
#647=CARTESIAN_POINT('',(-19.,21.,-27.95));
#648=CARTESIAN_POINT('',(-19.,21.,-39.));
#649=CARTESIAN_POINT('',(-15.,21.,-23.95));
#650=CARTESIAN_POINT('',(-15.,21.,-27.95));
#651=CARTESIAN_POINT('',(-15.,21.,-23.95));
#652=MECHANICAL_DESIGN_GEOMETRIC_PRESENTATION_REPRESENTATION('',(#25,#26),
#653);
#653=(
GEOMETRIC_REPRESENTATION_CONTEXT(3)
GLOBAL_UNCERTAINTY_ASSIGNED_CONTEXT((#654))
GLOBAL_UNIT_ASSIGNED_CONTEXT((#660,#656,#655))
REPRESENTATION_CONTEXT('CT-PSFNR3219-1911','TOP_LEVEL_ASSEMBLY_PART')
);
#654=UNCERTAINTY_MEASURE_WITH_UNIT(LENGTH_MEASURE(2.E-005),#660,
'DISTANCE_ACCURACY_VALUE','Maximum Tolerance applied to model');
#655=(
NAMED_UNIT(*)
SI_UNIT($,.STERADIAN.)
SOLID_ANGLE_UNIT()
);
#656=(
CONVERSION_BASED_UNIT('DEGREE',#658)
NAMED_UNIT(#657)
PLANE_ANGLE_UNIT()
);
#657=DIMENSIONAL_EXPONENTS(0.,0.,0.,0.,0.,0.,0.);
#658=PLANE_ANGLE_MEASURE_WITH_UNIT(PLANE_ANGLE_MEASURE(0.0174532925),#659);
#659=(
NAMED_UNIT(*)
PLANE_ANGLE_UNIT()
SI_UNIT($,.RADIAN.)
);
#660=(
LENGTH_UNIT()
NAMED_UNIT(*)
SI_UNIT(.MILLI.,.METRE.)
);
ENDSEC;
END-ISO-10303-21;
