ISO-10303-21;
HEADER;
/* Generated by software containing ST-Developer
 * from STEP Tools, Inc. (www.steptools.com) 
 */
/* OPTION: using custom schema-name function */

FILE_DESCRIPTION(
/* description */ (''),
/* implementation_level */ '2;1');

FILE_NAME(
/* name */ 'CT-PLFNR3219-19.stp',
/* time_stamp */ '2018-03-29T15:39:29+05:00',
/* author */ (''),
/* organization */ (''),
/* preprocessor_version */ 'ST-DEVELOPER v16',
/* originating_system */ 'SIEMENS PLM Software NX 11.0',
/* authorisation */ '');

FILE_SCHEMA (('AUTOMOTIVE_DESIGN { 1 0 10303 214 3 1 1 1 }'));
ENDSEC;

DATA;
#10=CONSTRUCTIVE_GEOMETRY_REPRESENTATION_RELATIONSHIP(
'supplemental geometry','',#32,#11);
#11=CONSTRUCTIVE_GEOMETRY_REPRESENTATION('supplemental geometry',(#433,
#434,#435),#689);
#12=PROPERTY_DEFINITION_REPRESENTATION(#16,#14);
#13=PROPERTY_DEFINITION_REPRESENTATION(#17,#15);
#14=REPRESENTATION('',(#18),#689);
#15=REPRESENTATION('',(#19),#689);
#16=PROPERTY_DEFINITION('pmi validation property','',#23);
#17=PROPERTY_DEFINITION('pmi validation property','',#23);
#18=VALUE_REPRESENTATION_ITEM('number of annotations',COUNT_MEASURE(0.));
#19=VALUE_REPRESENTATION_ITEM('number of views',COUNT_MEASURE(0.));
#20=SHAPE_REPRESENTATION_RELATIONSHIP('None',
'relationship between CT-PLFNR3219-19-None and CT-PLFNR3219-19-None',#32,
#21);
#21=ADVANCED_BREP_SHAPE_REPRESENTATION('CT-PLFNR3219-19-None',(#43,#44),
#689);
#22=SHAPE_DEFINITION_REPRESENTATION(#23,#32);
#23=PRODUCT_DEFINITION_SHAPE('','',#24);
#24=PRODUCT_DEFINITION(' ','',#26,#25);
#25=PRODUCT_DEFINITION_CONTEXT('part definition',#31,'design');
#26=PRODUCT_DEFINITION_FORMATION_WITH_SPECIFIED_SOURCE(' ',' ',#28,
 .NOT_KNOWN.);
#27=PRODUCT_RELATED_PRODUCT_CATEGORY('part','',(#28));
#28=PRODUCT('vino0BA5zimr','vino0BA5zimr',' ',(#29));
#29=PRODUCT_CONTEXT(' ',#31,'mechanical');
#30=APPLICATION_PROTOCOL_DEFINITION('international standard',
'automotive_design',2010,#31);
#31=APPLICATION_CONTEXT(
'core data for automotive mechanical design processes');
#32=SHAPE_REPRESENTATION('CT-PLFNR3219-19-None',(#432),#689);
#33=SURFACE_STYLE_USAGE(.BOTH.,#35);
#34=SURFACE_STYLE_USAGE(.BOTH.,#36);
#35=SURFACE_SIDE_STYLE('',(#37));
#36=SURFACE_SIDE_STYLE('',(#38));
#37=SURFACE_STYLE_FILL_AREA(#39);
#38=SURFACE_STYLE_FILL_AREA(#40);
#39=FILL_AREA_STYLE('',(#41));
#40=FILL_AREA_STYLE('',(#42));
#41=FILL_AREA_STYLE_COLOUR('',#427);
#42=FILL_AREA_STYLE_COLOUR('',#428);
#43=MANIFOLD_SOLID_BREP('NOCUT',#45);
#44=MANIFOLD_SOLID_BREP('CUT',#46);
#45=CLOSED_SHELL('',(#62,#63,#64,#65,#66,#67,#68,#69,#70,#71,#72));
#46=CLOSED_SHELL('',(#73,#74,#75,#76,#77,#78,#79,#80,#81,#82));
#47=CYLINDRICAL_SURFACE('',#447,4.5);
#48=CYLINDRICAL_SURFACE('',#459,4.);
#49=CYLINDRICAL_SURFACE('',#461,4.);
#50=CYLINDRICAL_SURFACE('',#463,4.);
#51=CYLINDRICAL_SURFACE('',#465,4.);
#52=CIRCLE('',#442,4.5);
#53=CIRCLE('',#445,4.5);
#54=CIRCLE('',#451,4.);
#55=CIRCLE('',#452,4.);
#56=CIRCLE('',#453,4.);
#57=CIRCLE('',#454,4.);
#58=CIRCLE('',#458,4.);
#59=CIRCLE('',#460,4.);
#60=CIRCLE('',#462,4.);
#61=CIRCLE('',#464,4.);
#62=ADVANCED_FACE('',(#99),#83,.T.);
#63=ADVANCED_FACE('',(#100),#84,.F.);
#64=ADVANCED_FACE('',(#101),#85,.F.);
#65=ADVANCED_FACE('',(#102),#86,.T.);
#66=ADVANCED_FACE('',(#103),#87,.F.);
#67=ADVANCED_FACE('',(#104),#88,.F.);
#68=ADVANCED_FACE('',(#105),#89,.F.);
#69=ADVANCED_FACE('',(#106),#90,.F.);
#70=ADVANCED_FACE('',(#107),#91,.T.);
#71=ADVANCED_FACE('',(#108),#47,.T.);
#72=ADVANCED_FACE('',(#109),#92,.T.);
#73=ADVANCED_FACE('',(#110),#93,.T.);
#74=ADVANCED_FACE('',(#111),#94,.T.);
#75=ADVANCED_FACE('',(#112),#95,.F.);
#76=ADVANCED_FACE('',(#113),#96,.T.);
#77=ADVANCED_FACE('',(#114),#97,.T.);
#78=ADVANCED_FACE('',(#115),#48,.T.);
#79=ADVANCED_FACE('',(#116),#49,.T.);
#80=ADVANCED_FACE('',(#117),#50,.T.);
#81=ADVANCED_FACE('',(#118),#51,.T.);
#82=ADVANCED_FACE('',(#119),#98,.F.);
#83=PLANE('',#436);
#84=PLANE('',#437);
#85=PLANE('',#438);
#86=PLANE('',#439);
#87=PLANE('',#440);
#88=PLANE('',#441);
#89=PLANE('',#443);
#90=PLANE('',#444);
#91=PLANE('',#446);
#92=PLANE('',#448);
#93=PLANE('',#449);
#94=PLANE('',#450);
#95=PLANE('',#455);
#96=PLANE('',#456);
#97=PLANE('',#457);
#98=PLANE('',#466);
#99=FACE_OUTER_BOUND('',#120,.T.);
#100=FACE_OUTER_BOUND('',#121,.T.);
#101=FACE_OUTER_BOUND('',#122,.T.);
#102=FACE_OUTER_BOUND('',#123,.T.);
#103=FACE_OUTER_BOUND('',#124,.T.);
#104=FACE_OUTER_BOUND('',#125,.T.);
#105=FACE_OUTER_BOUND('',#126,.T.);
#106=FACE_OUTER_BOUND('',#127,.T.);
#107=FACE_OUTER_BOUND('',#128,.T.);
#108=FACE_OUTER_BOUND('',#129,.T.);
#109=FACE_OUTER_BOUND('',#130,.T.);
#110=FACE_OUTER_BOUND('',#131,.T.);
#111=FACE_OUTER_BOUND('',#132,.T.);
#112=FACE_OUTER_BOUND('',#133,.T.);
#113=FACE_OUTER_BOUND('',#134,.T.);
#114=FACE_OUTER_BOUND('',#135,.T.);
#115=FACE_OUTER_BOUND('',#136,.T.);
#116=FACE_OUTER_BOUND('',#137,.T.);
#117=FACE_OUTER_BOUND('',#138,.T.);
#118=FACE_OUTER_BOUND('',#139,.T.);
#119=FACE_OUTER_BOUND('',#140,.T.);
#120=EDGE_LOOP('',(#141,#142,#143,#144));
#121=EDGE_LOOP('',(#145,#146,#147,#148,#149,#150,#151,#152));
#122=EDGE_LOOP('',(#153,#154,#155,#156));
#123=EDGE_LOOP('',(#157,#158,#159,#160));
#124=EDGE_LOOP('',(#161,#162,#163,#164,#165,#166,#167,#168));
#125=EDGE_LOOP('',(#169,#170,#171,#172));
#126=EDGE_LOOP('',(#173,#174,#175,#176,#177));
#127=EDGE_LOOP('',(#178,#179,#180,#181));
#128=EDGE_LOOP('',(#182,#183,#184,#185,#186));
#129=EDGE_LOOP('',(#187,#188,#189,#190));
#130=EDGE_LOOP('',(#191,#192,#193,#194));
#131=EDGE_LOOP('',(#195,#196,#197,#198));
#132=EDGE_LOOP('',(#199,#200,#201,#202));
#133=EDGE_LOOP('',(#203,#204,#205,#206,#207,#208,#209,#210));
#134=EDGE_LOOP('',(#211,#212,#213,#214));
#135=EDGE_LOOP('',(#215,#216,#217,#218));
#136=EDGE_LOOP('',(#219,#220,#221,#222));
#137=EDGE_LOOP('',(#223,#224,#225,#226));
#138=EDGE_LOOP('',(#227,#228,#229,#230));
#139=EDGE_LOOP('',(#231,#232,#233,#234));
#140=EDGE_LOOP('',(#235,#236,#237,#238,#239,#240,#241,#242));
#141=ORIENTED_EDGE('',*,*,#277,.F.);
#142=ORIENTED_EDGE('',*,*,#278,.T.);
#143=ORIENTED_EDGE('',*,*,#279,.T.);
#144=ORIENTED_EDGE('',*,*,#280,.F.);
#145=ORIENTED_EDGE('',*,*,#281,.T.);
#146=ORIENTED_EDGE('',*,*,#282,.F.);
#147=ORIENTED_EDGE('',*,*,#283,.T.);
#148=ORIENTED_EDGE('',*,*,#277,.T.);
#149=ORIENTED_EDGE('',*,*,#284,.T.);
#150=ORIENTED_EDGE('',*,*,#285,.T.);
#151=ORIENTED_EDGE('',*,*,#286,.T.);
#152=ORIENTED_EDGE('',*,*,#287,.F.);
#153=ORIENTED_EDGE('',*,*,#280,.T.);
#154=ORIENTED_EDGE('',*,*,#288,.T.);
#155=ORIENTED_EDGE('',*,*,#289,.F.);
#156=ORIENTED_EDGE('',*,*,#284,.F.);
#157=ORIENTED_EDGE('',*,*,#282,.T.);
#158=ORIENTED_EDGE('',*,*,#290,.T.);
#159=ORIENTED_EDGE('',*,*,#291,.T.);
#160=ORIENTED_EDGE('',*,*,#292,.F.);
#161=ORIENTED_EDGE('',*,*,#293,.T.);
#162=ORIENTED_EDGE('',*,*,#294,.F.);
#163=ORIENTED_EDGE('',*,*,#295,.T.);
#164=ORIENTED_EDGE('',*,*,#296,.F.);
#165=ORIENTED_EDGE('',*,*,#288,.F.);
#166=ORIENTED_EDGE('',*,*,#279,.F.);
#167=ORIENTED_EDGE('',*,*,#297,.F.);
#168=ORIENTED_EDGE('',*,*,#291,.F.);
#169=ORIENTED_EDGE('',*,*,#287,.T.);
#170=ORIENTED_EDGE('',*,*,#298,.T.);
#171=ORIENTED_EDGE('',*,*,#299,.F.);
#172=ORIENTED_EDGE('',*,*,#300,.T.);
#173=ORIENTED_EDGE('',*,*,#290,.F.);
#174=ORIENTED_EDGE('',*,*,#281,.F.);
#175=ORIENTED_EDGE('',*,*,#300,.F.);
#176=ORIENTED_EDGE('',*,*,#301,.F.);
#177=ORIENTED_EDGE('',*,*,#293,.F.);
#178=ORIENTED_EDGE('',*,*,#289,.T.);
#179=ORIENTED_EDGE('',*,*,#296,.T.);
#180=ORIENTED_EDGE('',*,*,#302,.F.);
#181=ORIENTED_EDGE('',*,*,#285,.F.);
#182=ORIENTED_EDGE('',*,*,#298,.F.);
#183=ORIENTED_EDGE('',*,*,#286,.F.);
#184=ORIENTED_EDGE('',*,*,#302,.T.);
#185=ORIENTED_EDGE('',*,*,#295,.F.);
#186=ORIENTED_EDGE('',*,*,#303,.F.);
#187=ORIENTED_EDGE('',*,*,#303,.T.);
#188=ORIENTED_EDGE('',*,*,#294,.T.);
#189=ORIENTED_EDGE('',*,*,#301,.T.);
#190=ORIENTED_EDGE('',*,*,#299,.T.);
#191=ORIENTED_EDGE('',*,*,#297,.T.);
#192=ORIENTED_EDGE('',*,*,#278,.F.);
#193=ORIENTED_EDGE('',*,*,#283,.F.);
#194=ORIENTED_EDGE('',*,*,#292,.T.);
#195=ORIENTED_EDGE('',*,*,#304,.T.);
#196=ORIENTED_EDGE('',*,*,#305,.F.);
#197=ORIENTED_EDGE('',*,*,#306,.T.);
#198=ORIENTED_EDGE('',*,*,#307,.T.);
#199=ORIENTED_EDGE('',*,*,#308,.T.);
#200=ORIENTED_EDGE('',*,*,#309,.F.);
#201=ORIENTED_EDGE('',*,*,#310,.T.);
#202=ORIENTED_EDGE('',*,*,#311,.T.);
#203=ORIENTED_EDGE('',*,*,#306,.F.);
#204=ORIENTED_EDGE('',*,*,#312,.F.);
#205=ORIENTED_EDGE('',*,*,#313,.T.);
#206=ORIENTED_EDGE('',*,*,#314,.F.);
#207=ORIENTED_EDGE('',*,*,#310,.F.);
#208=ORIENTED_EDGE('',*,*,#315,.F.);
#209=ORIENTED_EDGE('',*,*,#316,.F.);
#210=ORIENTED_EDGE('',*,*,#317,.F.);
#211=ORIENTED_EDGE('',*,*,#318,.T.);
#212=ORIENTED_EDGE('',*,*,#319,.F.);
#213=ORIENTED_EDGE('',*,*,#313,.F.);
#214=ORIENTED_EDGE('',*,*,#320,.T.);
#215=ORIENTED_EDGE('',*,*,#316,.T.);
#216=ORIENTED_EDGE('',*,*,#321,.T.);
#217=ORIENTED_EDGE('',*,*,#322,.F.);
#218=ORIENTED_EDGE('',*,*,#323,.F.);
#219=ORIENTED_EDGE('',*,*,#324,.T.);
#220=ORIENTED_EDGE('',*,*,#307,.F.);
#221=ORIENTED_EDGE('',*,*,#317,.T.);
#222=ORIENTED_EDGE('',*,*,#323,.T.);
#223=ORIENTED_EDGE('',*,*,#325,.T.);
#224=ORIENTED_EDGE('',*,*,#320,.F.);
#225=ORIENTED_EDGE('',*,*,#312,.T.);
#226=ORIENTED_EDGE('',*,*,#305,.T.);
#227=ORIENTED_EDGE('',*,*,#326,.T.);
#228=ORIENTED_EDGE('',*,*,#311,.F.);
#229=ORIENTED_EDGE('',*,*,#314,.T.);
#230=ORIENTED_EDGE('',*,*,#319,.T.);
#231=ORIENTED_EDGE('',*,*,#327,.T.);
#232=ORIENTED_EDGE('',*,*,#321,.F.);
#233=ORIENTED_EDGE('',*,*,#315,.T.);
#234=ORIENTED_EDGE('',*,*,#309,.T.);
#235=ORIENTED_EDGE('',*,*,#322,.T.);
#236=ORIENTED_EDGE('',*,*,#327,.F.);
#237=ORIENTED_EDGE('',*,*,#308,.F.);
#238=ORIENTED_EDGE('',*,*,#326,.F.);
#239=ORIENTED_EDGE('',*,*,#318,.F.);
#240=ORIENTED_EDGE('',*,*,#325,.F.);
#241=ORIENTED_EDGE('',*,*,#304,.F.);
#242=ORIENTED_EDGE('',*,*,#324,.F.);
#243=VERTEX_POINT('',#583);
#244=VERTEX_POINT('',#584);
#245=VERTEX_POINT('',#586);
#246=VERTEX_POINT('',#588);
#247=VERTEX_POINT('',#592);
#248=VERTEX_POINT('',#593);
#249=VERTEX_POINT('',#595);
#250=VERTEX_POINT('',#598);
#251=VERTEX_POINT('',#600);
#252=VERTEX_POINT('',#602);
#253=VERTEX_POINT('',#606);
#254=VERTEX_POINT('',#610);
#255=VERTEX_POINT('',#612);
#256=VERTEX_POINT('',#616);
#257=VERTEX_POINT('',#618);
#258=VERTEX_POINT('',#620);
#259=VERTEX_POINT('',#625);
#260=VERTEX_POINT('',#627);
#261=VERTEX_POINT('',#639);
#262=VERTEX_POINT('',#640);
#263=VERTEX_POINT('',#642);
#264=VERTEX_POINT('',#644);
#265=VERTEX_POINT('',#648);
#266=VERTEX_POINT('',#649);
#267=VERTEX_POINT('',#651);
#268=VERTEX_POINT('',#653);
#269=VERTEX_POINT('',#657);
#270=VERTEX_POINT('',#659);
#271=VERTEX_POINT('',#662);
#272=VERTEX_POINT('',#664);
#273=VERTEX_POINT('',#668);
#274=VERTEX_POINT('',#669);
#275=VERTEX_POINT('',#674);
#276=VERTEX_POINT('',#676);
#277=EDGE_CURVE('',#243,#244,#328,.T.);
#278=EDGE_CURVE('',#243,#245,#329,.T.);
#279=EDGE_CURVE('',#245,#246,#330,.T.);
#280=EDGE_CURVE('',#244,#246,#331,.T.);
#281=EDGE_CURVE('',#247,#248,#332,.T.);
#282=EDGE_CURVE('',#249,#248,#333,.T.);
#283=EDGE_CURVE('',#249,#243,#334,.T.);
#284=EDGE_CURVE('',#244,#250,#335,.T.);
#285=EDGE_CURVE('',#250,#251,#336,.T.);
#286=EDGE_CURVE('',#251,#252,#337,.T.);
#287=EDGE_CURVE('',#247,#252,#338,.T.);
#288=EDGE_CURVE('',#246,#253,#339,.T.);
#289=EDGE_CURVE('',#250,#253,#340,.T.);
#290=EDGE_CURVE('',#248,#254,#341,.T.);
#291=EDGE_CURVE('',#254,#255,#342,.T.);
#292=EDGE_CURVE('',#249,#255,#343,.T.);
#293=EDGE_CURVE('',#254,#256,#344,.T.);
#294=EDGE_CURVE('',#257,#256,#345,.T.);
#295=EDGE_CURVE('',#257,#258,#346,.T.);
#296=EDGE_CURVE('',#253,#258,#347,.T.);
#297=EDGE_CURVE('',#255,#245,#348,.T.);
#298=EDGE_CURVE('',#252,#259,#349,.T.);
#299=EDGE_CURVE('',#260,#259,#350,.T.);
#300=EDGE_CURVE('',#260,#247,#351,.T.);
#301=EDGE_CURVE('',#256,#260,#52,.T.);
#302=EDGE_CURVE('',#251,#258,#352,.T.);
#303=EDGE_CURVE('',#259,#257,#53,.T.);
#304=EDGE_CURVE('',#261,#262,#353,.T.);
#305=EDGE_CURVE('',#263,#262,#354,.T.);
#306=EDGE_CURVE('',#263,#264,#355,.T.);
#307=EDGE_CURVE('',#264,#261,#356,.T.);
#308=EDGE_CURVE('',#265,#266,#357,.T.);
#309=EDGE_CURVE('',#267,#266,#358,.T.);
#310=EDGE_CURVE('',#267,#268,#359,.T.);
#311=EDGE_CURVE('',#268,#265,#360,.T.);
#312=EDGE_CURVE('',#269,#263,#54,.T.);
#313=EDGE_CURVE('',#269,#270,#361,.T.);
#314=EDGE_CURVE('',#268,#270,#55,.T.);
#315=EDGE_CURVE('',#271,#267,#56,.T.);
#316=EDGE_CURVE('',#272,#271,#362,.T.);
#317=EDGE_CURVE('',#264,#272,#57,.T.);
#318=EDGE_CURVE('',#273,#274,#363,.T.);
#319=EDGE_CURVE('',#270,#274,#364,.T.);
#320=EDGE_CURVE('',#269,#273,#365,.T.);
#321=EDGE_CURVE('',#271,#275,#366,.T.);
#322=EDGE_CURVE('',#276,#275,#367,.T.);
#323=EDGE_CURVE('',#272,#276,#368,.T.);
#324=EDGE_CURVE('',#276,#261,#58,.T.);
#325=EDGE_CURVE('',#262,#273,#59,.T.);
#326=EDGE_CURVE('',#274,#265,#60,.T.);
#327=EDGE_CURVE('',#266,#275,#61,.T.);
#328=LINE('',#582,#369);
#329=LINE('',#585,#370);
#330=LINE('',#587,#371);
#331=LINE('',#589,#372);
#332=LINE('',#591,#373);
#333=LINE('',#594,#374);
#334=LINE('',#596,#375);
#335=LINE('',#597,#376);
#336=LINE('',#599,#377);
#337=LINE('',#601,#378);
#338=LINE('',#603,#379);
#339=LINE('',#605,#380);
#340=LINE('',#607,#381);
#341=LINE('',#609,#382);
#342=LINE('',#611,#383);
#343=LINE('',#613,#384);
#344=LINE('',#615,#385);
#345=LINE('',#617,#386);
#346=LINE('',#619,#387);
#347=LINE('',#621,#388);
#348=LINE('',#622,#389);
#349=LINE('',#624,#390);
#350=LINE('',#626,#391);
#351=LINE('',#628,#392);
#352=LINE('',#632,#393);
#353=LINE('',#638,#394);
#354=LINE('',#641,#395);
#355=LINE('',#643,#396);
#356=LINE('',#645,#397);
#357=LINE('',#647,#398);
#358=LINE('',#650,#399);
#359=LINE('',#652,#400);
#360=LINE('',#654,#401);
#361=LINE('',#658,#402);
#362=LINE('',#663,#403);
#363=LINE('',#667,#404);
#364=LINE('',#670,#405);
#365=LINE('',#671,#406);
#366=LINE('',#673,#407);
#367=LINE('',#675,#408);
#368=LINE('',#677,#409);
#369=VECTOR('',#475,1.);
#370=VECTOR('',#476,1.);
#371=VECTOR('',#477,1.);
#372=VECTOR('',#478,1.);
#373=VECTOR('',#481,1.);
#374=VECTOR('',#482,1.);
#375=VECTOR('',#483,1.);
#376=VECTOR('',#484,1.);
#377=VECTOR('',#485,1.);
#378=VECTOR('',#486,1.);
#379=VECTOR('',#487,1.);
#380=VECTOR('',#490,1.);
#381=VECTOR('',#491,1.);
#382=VECTOR('',#494,1.);
#383=VECTOR('',#495,1.);
#384=VECTOR('',#496,1.);
#385=VECTOR('',#499,1.);
#386=VECTOR('',#500,1.);
#387=VECTOR('',#501,1.);
#388=VECTOR('',#502,1.);
#389=VECTOR('',#503,1.);
#390=VECTOR('',#506,1.);
#391=VECTOR('',#507,1.);
#392=VECTOR('',#508,1.);
#393=VECTOR('',#515,1.);
#394=VECTOR('',#526,1.);
#395=VECTOR('',#527,1.);
#396=VECTOR('',#528,1.);
#397=VECTOR('',#529,1.);
#398=VECTOR('',#532,1.);
#399=VECTOR('',#533,1.);
#400=VECTOR('',#534,1.);
#401=VECTOR('',#535,1.);
#402=VECTOR('',#540,1.);
#403=VECTOR('',#545,1.);
#404=VECTOR('',#550,1.);
#405=VECTOR('',#551,1.);
#406=VECTOR('',#552,1.);
#407=VECTOR('',#555,1.);
#408=VECTOR('',#556,1.);
#409=VECTOR('',#557,1.);
#410=PRESENTATION_LAYER_ASSIGNMENT('1','Layer 1',(#433,#434,#435));
#411=PRESENTATION_LAYER_ASSIGNMENT('2','Layer 2',(#43));
#412=PRESENTATION_LAYER_ASSIGNMENT('3','Layer 3',(#44));
#413=STYLED_ITEM('',(#418),#433);
#414=STYLED_ITEM('',(#419),#434);
#415=STYLED_ITEM('',(#420),#435);
#416=STYLED_ITEM('',(#421),#43);
#417=STYLED_ITEM('',(#422),#44);
#418=PRESENTATION_STYLE_ASSIGNMENT((#423));
#419=PRESENTATION_STYLE_ASSIGNMENT((#424));
#420=PRESENTATION_STYLE_ASSIGNMENT((#425));
#421=PRESENTATION_STYLE_ASSIGNMENT((#33));
#422=PRESENTATION_STYLE_ASSIGNMENT((#34));
#423=CURVE_STYLE('',#429,POSITIVE_LENGTH_MEASURE(0.18),#426);
#424=CURVE_STYLE('',#430,POSITIVE_LENGTH_MEASURE(0.18),#426);
#425=CURVE_STYLE('',#431,POSITIVE_LENGTH_MEASURE(0.18),#426);
#426=COLOUR_RGB('Strong Stone',0.576470588235294,0.54508278019379,0.392156862745098);
#427=COLOUR_RGB('Medium Gray',0.490196078431373,0.490196078431373,0.490196078431373);
#428=COLOUR_RGB('Light Gray',0.8,0.8,0.8);
#429=DRAUGHTING_PRE_DEFINED_CURVE_FONT('continuous');
#430=DRAUGHTING_PRE_DEFINED_CURVE_FONT('continuous');
#431=DRAUGHTING_PRE_DEFINED_CURVE_FONT('continuous');
#432=AXIS2_PLACEMENT_3D('',#578,#467,#468);
#433=AXIS2_PLACEMENT_3D('MCS',#579,#469,#470);
#434=AXIS2_PLACEMENT_3D('PCS',#580,#471,#472);
#435=AXIS2_PLACEMENT_3D('CSW',#581,#473,#474);
#436=AXIS2_PLACEMENT_3D('',#590,#479,#480);
#437=AXIS2_PLACEMENT_3D('',#604,#488,#489);
#438=AXIS2_PLACEMENT_3D('',#608,#492,#493);
#439=AXIS2_PLACEMENT_3D('',#614,#497,#498);
#440=AXIS2_PLACEMENT_3D('',#623,#504,#505);
#441=AXIS2_PLACEMENT_3D('',#629,#509,#510);
#442=AXIS2_PLACEMENT_3D('',#630,#511,#512);
#443=AXIS2_PLACEMENT_3D('',#631,#513,#514);
#444=AXIS2_PLACEMENT_3D('',#633,#516,#517);
#445=AXIS2_PLACEMENT_3D('',#634,#518,#519);
#446=AXIS2_PLACEMENT_3D('',#635,#520,#521);
#447=AXIS2_PLACEMENT_3D('',#636,#522,#523);
#448=AXIS2_PLACEMENT_3D('',#637,#524,#525);
#449=AXIS2_PLACEMENT_3D('',#646,#530,#531);
#450=AXIS2_PLACEMENT_3D('',#655,#536,#537);
#451=AXIS2_PLACEMENT_3D('',#656,#538,#539);
#452=AXIS2_PLACEMENT_3D('',#660,#541,#542);
#453=AXIS2_PLACEMENT_3D('',#661,#543,#544);
#454=AXIS2_PLACEMENT_3D('',#665,#546,#547);
#455=AXIS2_PLACEMENT_3D('',#666,#548,#549);
#456=AXIS2_PLACEMENT_3D('',#672,#553,#554);
#457=AXIS2_PLACEMENT_3D('',#678,#558,#559);
#458=AXIS2_PLACEMENT_3D('',#679,#560,#561);
#459=AXIS2_PLACEMENT_3D('',#680,#562,#563);
#460=AXIS2_PLACEMENT_3D('',#681,#564,#565);
#461=AXIS2_PLACEMENT_3D('',#682,#566,#567);
#462=AXIS2_PLACEMENT_3D('',#683,#568,#569);
#463=AXIS2_PLACEMENT_3D('',#684,#570,#571);
#464=AXIS2_PLACEMENT_3D('',#685,#572,#573);
#465=AXIS2_PLACEMENT_3D('',#686,#574,#575);
#466=AXIS2_PLACEMENT_3D('',#687,#576,#577);
#467=DIRECTION('',(0.,0.,1.));
#468=DIRECTION('',(1.,0.,0.));
#469=DIRECTION('',(0.,0.,1.));
#470=DIRECTION('',(1.,0.,0.));
#471=DIRECTION('',(0.,0.,1.));
#472=DIRECTION('',(1.,0.,0.));
#473=DIRECTION('',(0.,1.,0.));
#474=DIRECTION('',(0.,0.,1.));
#475=DIRECTION('',(0.,0.999961923064171,0.00872653549837418));
#476=DIRECTION('',(1.,0.,0.));
#477=DIRECTION('',(0.,0.999961923064171,0.00872653549837418));
#478=DIRECTION('',(1.,3.80213364597656E-16,3.31807176512341E-18));
#479=DIRECTION('',(0.,-0.00872653549837418,0.999961923064171));
#480=DIRECTION('',(0.,0.999961923064171,0.00872653549837418));
#481=DIRECTION('',(0.,0.,1.));
#482=DIRECTION('',(0.,-1.,0.));
#483=DIRECTION('',(0.,-0.130526192220051,-0.99144486137381));
#484=DIRECTION('',(0.,0.,-1.));
#485=DIRECTION('',(0.,-1.,0.));
#486=DIRECTION('',(0.,0.,-1.));
#487=DIRECTION('',(0.,1.,0.));
#488=DIRECTION('',(1.,0.,0.));
#489=DIRECTION('',(0.,-1.,0.));
#490=DIRECTION('',(0.,0.,-1.));
#491=DIRECTION('',(1.,3.80213364597656E-16,-3.13977099724309E-16));
#492=DIRECTION('',(3.80213364597656E-16,-1.,0.));
#493=DIRECTION('',(-1.,-3.81639164714898E-16,0.));
#494=DIRECTION('',(1.,1.57895921952369E-16,0.));
#495=DIRECTION('',(0.,1.,0.));
#496=DIRECTION('',(1.,0.,0.));
#497=DIRECTION('',(0.,0.,1.));
#498=DIRECTION('',(1.,0.,0.));
#499=DIRECTION('',(0.,0.,-1.));
#500=DIRECTION('',(0.,-1.,0.));
#501=DIRECTION('',(0.,0.,1.));
#502=DIRECTION('',(0.,-1.,0.));
#503=DIRECTION('',(0.,-0.130526192220051,-0.99144486137381));
#504=DIRECTION('',(-1.,0.,0.));
#505=DIRECTION('',(0.,1.,0.));
#506=DIRECTION('',(1.,1.82123199577618E-16,0.));
#507=DIRECTION('',(0.,1.,0.));
#508=DIRECTION('',(-1.,-1.57895921952369E-16,0.));
#509=DIRECTION('',(0.,0.,1.));
#510=DIRECTION('',(1.,0.,0.));
#511=DIRECTION('',(-1.57895921952369E-16,1.,0.));
#512=DIRECTION('',(1.,1.57895921952369E-16,0.));
#513=DIRECTION('',(-1.57895921952369E-16,1.,0.));
#514=DIRECTION('',(1.,1.57895921952369E-16,0.));
#515=DIRECTION('',(1.,1.82123199577618E-16,-3.13977099724309E-16));
#516=DIRECTION('',(3.13977099724309E-16,0.,1.));
#517=DIRECTION('',(-1.,0.,3.12250225675825E-16));
#518=DIRECTION('',(1.82123199577618E-16,-1.,0.));
#519=DIRECTION('',(1.,0.,0.));
#520=DIRECTION('',(-1.82123199577618E-16,1.,0.));
#521=DIRECTION('',(-1.,-1.82145964977565E-16,0.));
#522=DIRECTION('',(0.,-1.,0.));
#523=DIRECTION('',(-1.,0.,0.));
#524=DIRECTION('',(0.,0.99144486137381,-0.130526192220051));
#525=DIRECTION('',(0.,-0.130526192220051,-0.99144486137381));
#526=DIRECTION('',(1.,1.82123199577618E-16,-3.21512550117692E-16));
#527=DIRECTION('',(0.,1.,0.));
#528=DIRECTION('',(-1.,-1.82123199577618E-16,3.21512550117692E-16));
#529=DIRECTION('',(0.,1.,0.));
#530=DIRECTION('',(-3.21512550117692E-16,0.,-1.));
#531=DIRECTION('',(1.,0.,-3.19189119579733E-16));
#532=DIRECTION('',(-1.,-1.82123199577618E-16,3.13977099724309E-16));
#533=DIRECTION('',(0.,1.,0.));
#534=DIRECTION('',(1.,1.82123199577618E-16,-3.13977099724309E-16));
#535=DIRECTION('',(0.,1.,0.));
#536=DIRECTION('',(3.13977099724309E-16,0.,1.));
#537=DIRECTION('',(-1.,0.,3.12250225675825E-16));
#538=DIRECTION('',(-1.82123199577618E-16,1.,0.));
#539=DIRECTION('',(-1.,0.,0.));
#540=DIRECTION('',(0.,0.,1.));
#541=DIRECTION('',(-1.82123199577618E-16,1.,0.));
#542=DIRECTION('',(-1.,0.,0.));
#543=DIRECTION('',(-1.82123199577618E-16,1.,0.));
#544=DIRECTION('',(-1.,0.,0.));
#545=DIRECTION('',(0.,0.,1.));
#546=DIRECTION('',(-1.82123199577618E-16,1.,0.));
#547=DIRECTION('',(-1.,0.,0.));
#548=DIRECTION('',(-1.82123199577618E-16,1.,0.));
#549=DIRECTION('',(-1.,-1.82145964977565E-16,0.));
#550=DIRECTION('',(0.,0.,1.));
#551=DIRECTION('',(0.,1.,0.));
#552=DIRECTION('',(0.,1.,0.));
#553=DIRECTION('',(1.,0.,-8.67361737988404E-16));
#554=DIRECTION('',(8.67361737988404E-16,0.,1.));
#555=DIRECTION('',(0.,1.,0.));
#556=DIRECTION('',(0.,0.,1.));
#557=DIRECTION('',(0.,1.,0.));
#558=DIRECTION('',(-1.,0.,0.));
#559=DIRECTION('',(0.,0.,-1.));
#560=DIRECTION('',(1.82123199577618E-16,-1.,0.));
#561=DIRECTION('',(1.,0.,0.));
#562=DIRECTION('',(0.,1.,0.));
#563=DIRECTION('',(0.,0.,-0.999999999999999));
#564=DIRECTION('',(1.82123199577618E-16,-1.,0.));
#565=DIRECTION('',(1.,0.,0.));
#566=DIRECTION('',(0.,1.,0.));
#567=DIRECTION('',(0.,0.,-0.999999999999999));
#568=DIRECTION('',(1.82123199577618E-16,-1.,0.));
#569=DIRECTION('',(1.,0.,0.));
#570=DIRECTION('',(0.,1.,0.));
#571=DIRECTION('',(0.,0.,-0.999999999999999));
#572=DIRECTION('',(1.82123199577618E-16,-1.,0.));
#573=DIRECTION('',(1.,0.,0.));
#574=DIRECTION('',(0.,1.,0.));
#575=DIRECTION('',(0.,0.,-0.999999999999999));
#576=DIRECTION('',(1.82123199577618E-16,-1.,0.));
#577=DIRECTION('',(1.,1.80411241501588E-16,0.));
#578=CARTESIAN_POINT('',(0.,0.,0.));
#579=CARTESIAN_POINT('',(0.,0.,0.));
#580=CARTESIAN_POINT('',(0.,0.,0.));
#581=CARTESIAN_POINT('',(-9.12499999999999,32.,-38.));
#582=CARTESIAN_POINT('',(-18.25,0.0721833006289626,-8.2713869809507));
#583=CARTESIAN_POINT('',(-18.25,13.0599760237109,-8.1580442309626));
#584=CARTESIAN_POINT('',(-18.25,31.2,-7.99973864000031));
#585=CARTESIAN_POINT('',(-18.25,13.0599760237109,-8.1580442309626));
#586=CARTESIAN_POINT('',(6.93889390390723E-15,13.0599760237109,-8.1580442309626));
#587=CARTESIAN_POINT('',(6.93889390390723E-15,19.1113308945734,-8.1052348570496));
#588=CARTESIAN_POINT('',(6.93889390390723E-15,31.2,-7.9997386400003));
#589=CARTESIAN_POINT('',(-18.25,31.2,-7.9997386400003));
#590=CARTESIAN_POINT('',(-18.25,19.1113308945734,-8.1052348570496));
#591=CARTESIAN_POINT('',(-18.25,-1.14687709965393E-15,0.));
#592=CARTESIAN_POINT('',(-18.25,-2.88160057563073E-15,-42.6));
#593=CARTESIAN_POINT('',(-18.25,-5.73438549826964E-16,0.));
#594=CARTESIAN_POINT('',(-18.25,31.2,0.));
#595=CARTESIAN_POINT('',(-18.25,14.1340029221456,-2.16840434497101E-16));
#596=CARTESIAN_POINT('',(-18.25,14.5138170608267,2.8849748059582));
#597=CARTESIAN_POINT('',(-18.25,31.2,0.));
#598=CARTESIAN_POINT('',(-18.25,31.2,-33.));
#599=CARTESIAN_POINT('',(-18.25,-2.525,-33.));
#600=CARTESIAN_POINT('',(-18.25,12.95,-33.));
#601=CARTESIAN_POINT('',(-18.25,12.95,-68.));
#602=CARTESIAN_POINT('',(-18.25,12.95,-42.6));
#603=CARTESIAN_POINT('',(-18.25,0.,-42.6));
#604=CARTESIAN_POINT('',(-18.25,0.,0.));
#605=CARTESIAN_POINT('',(6.93889390390723E-15,31.2,0.));
#606=CARTESIAN_POINT('',(6.93889390390723E-15,31.2,-33.));
#607=CARTESIAN_POINT('',(-18.25,31.2,-33.));
#608=CARTESIAN_POINT('',(-18.25,31.2,0.));
#609=CARTESIAN_POINT('',(1.04083408558608E-14,0.,0.));
#610=CARTESIAN_POINT('',(6.93889390390723E-15,8.67361737988403E-16,0.));
#611=CARTESIAN_POINT('',(6.93889390390723E-15,31.2,0.));
#612=CARTESIAN_POINT('',(6.93889390390723E-15,14.1340029221456,0.));
#613=CARTESIAN_POINT('',(6.93889390390723E-15,14.1340029221456,0.));
#614=CARTESIAN_POINT('',(6.93889390390723E-15,31.2,0.));
#615=CARTESIAN_POINT('',(6.93889390390723E-15,0.,0.));
#616=CARTESIAN_POINT('',(6.93889390390723E-15,0.,-38.1));
#617=CARTESIAN_POINT('',(6.93889390390723E-15,31.2,-38.1));
#618=CARTESIAN_POINT('',(6.93889390390723E-15,12.95,-38.1));
#619=CARTESIAN_POINT('',(6.93889390390723E-15,12.95,-68.));
#620=CARTESIAN_POINT('',(6.93889390390723E-15,12.95,-33.));
#621=CARTESIAN_POINT('',(6.93889390390723E-15,31.2,-33.));
#622=CARTESIAN_POINT('',(6.93889390390723E-15,14.5138170608267,2.8849748059582));
#623=CARTESIAN_POINT('',(6.93889390390723E-15,31.2,0.));
#624=CARTESIAN_POINT('',(-18.65,12.95,-42.6));
#625=CARTESIAN_POINT('',(-4.49999999999999,12.95,-42.6));
#626=CARTESIAN_POINT('',(-4.49999999999999,31.2,-42.6));
#627=CARTESIAN_POINT('',(-4.49999999999999,1.30104260698261E-15,-42.6));
#628=CARTESIAN_POINT('',(6.93889390390723E-15,1.73472347597681E-15,-42.6));
#629=CARTESIAN_POINT('',(6.93889390390723E-15,31.2,-42.6));
#630=CARTESIAN_POINT('',(-4.49999999999999,3.46944695195362E-15,-38.1));
#631=CARTESIAN_POINT('',(6.93889390390723E-15,1.73472347597681E-15,0.));
#632=CARTESIAN_POINT('',(-18.65,12.95,-33.));
#633=CARTESIAN_POINT('',(-3.59999999999999,-2.525,-33.));
#634=CARTESIAN_POINT('',(-4.49999999999999,12.95,-38.1));
#635=CARTESIAN_POINT('',(-18.65,12.95,-68.));
#636=CARTESIAN_POINT('',(-4.49999999999999,31.2,-38.1));
#637=CARTESIAN_POINT('',(-18.25,14.5138170608267,2.8849748059582));
#638=CARTESIAN_POINT('',(-14.65,32.,-43.));
#639=CARTESIAN_POINT('',(-14.65,32.,-43.));
#640=CARTESIAN_POINT('',(-3.59999999999999,32.,-43.));
#641=CARTESIAN_POINT('',(-3.59999999999999,-2.525,-43.));
#642=CARTESIAN_POINT('',(-3.59999999999999,12.95,-43.));
#643=CARTESIAN_POINT('',(-14.65,12.95,-43.));
#644=CARTESIAN_POINT('',(-14.65,12.95,-43.));
#645=CARTESIAN_POINT('',(-14.65,-2.525,-43.));
#646=CARTESIAN_POINT('',(-14.65,-2.525,-43.));
#647=CARTESIAN_POINT('',(-3.59999999999999,32.,-33.));
#648=CARTESIAN_POINT('',(-3.59999999999999,32.,-33.));
#649=CARTESIAN_POINT('',(-14.65,32.,-33.));
#650=CARTESIAN_POINT('',(-14.65,-2.525,-33.));
#651=CARTESIAN_POINT('',(-14.65,12.95,-33.));
#652=CARTESIAN_POINT('',(-3.59999999999999,12.95,-33.));
#653=CARTESIAN_POINT('',(-3.59999999999999,12.95,-33.));
#654=CARTESIAN_POINT('',(-3.59999999999999,-2.525,-33.));
#655=CARTESIAN_POINT('',(-3.59999999999999,-2.525,-33.));
#656=CARTESIAN_POINT('',(-3.59999999999999,12.95,-39.));
#657=CARTESIAN_POINT('',(0.400000000000008,12.95,-39.));
#658=CARTESIAN_POINT('',(0.400000000000008,12.95,-68.));
#659=CARTESIAN_POINT('',(0.400000000000008,12.95,-37.));
#660=CARTESIAN_POINT('',(-3.59999999999999,12.95,-37.));
#661=CARTESIAN_POINT('',(-14.65,12.95,-37.));
#662=CARTESIAN_POINT('',(-18.65,12.95,-37.));
#663=CARTESIAN_POINT('',(-18.65,12.95,-68.));
#664=CARTESIAN_POINT('',(-18.65,12.95,-39.));
#665=CARTESIAN_POINT('',(-14.65,12.95,-39.));
#666=CARTESIAN_POINT('',(-18.65,12.95,-68.));
#667=CARTESIAN_POINT('',(0.400000000000008,32.,-68.));
#668=CARTESIAN_POINT('',(0.400000000000008,32.,-39.));
#669=CARTESIAN_POINT('',(0.400000000000008,32.,-37.));
#670=CARTESIAN_POINT('',(0.400000000000008,-2.525,-37.));
#671=CARTESIAN_POINT('',(0.400000000000008,-2.525,-39.));
#672=CARTESIAN_POINT('',(0.400000000000008,-2.525,-39.));
#673=CARTESIAN_POINT('',(-18.65,-2.525,-37.));
#674=CARTESIAN_POINT('',(-18.65,32.,-37.));
#675=CARTESIAN_POINT('',(-18.65,32.,-68.));
#676=CARTESIAN_POINT('',(-18.65,32.,-39.));
#677=CARTESIAN_POINT('',(-18.65,-2.525,-39.));
#678=CARTESIAN_POINT('',(-18.65,-2.525,-37.));
#679=CARTESIAN_POINT('',(-14.65,32.,-39.));
#680=CARTESIAN_POINT('',(-14.65,-2.525,-39.));
#681=CARTESIAN_POINT('',(-3.59999999999999,32.,-39.));
#682=CARTESIAN_POINT('',(-3.59999999999999,-2.525,-39.));
#683=CARTESIAN_POINT('',(-3.59999999999999,32.,-37.));
#684=CARTESIAN_POINT('',(-3.59999999999999,-2.525,-37.));
#685=CARTESIAN_POINT('',(-14.65,32.,-37.));
#686=CARTESIAN_POINT('',(-14.65,-2.525,-37.));
#687=CARTESIAN_POINT('',(0.400000000000008,32.,-68.));
#688=MECHANICAL_DESIGN_GEOMETRIC_PRESENTATION_REPRESENTATION('',(#413,#414,
#415,#416,#417),#689);
#689=(
GEOMETRIC_REPRESENTATION_CONTEXT(3)
GLOBAL_UNCERTAINTY_ASSIGNED_CONTEXT((#690))
GLOBAL_UNIT_ASSIGNED_CONTEXT((#696,#692,#691))
REPRESENTATION_CONTEXT('CT-PLFNR3219-19','TOP_LEVEL_ASSEMBLY_PART')
);
#690=UNCERTAINTY_MEASURE_WITH_UNIT(LENGTH_MEASURE(2.E-5),#696,
'DISTANCE_ACCURACY_VALUE','Maximum Tolerance applied to model');
#691=(
NAMED_UNIT(*)
SI_UNIT($,.STERADIAN.)
SOLID_ANGLE_UNIT()
);
#692=(
CONVERSION_BASED_UNIT('DEGREE',#694)
NAMED_UNIT(#693)
PLANE_ANGLE_UNIT()
);
#693=DIMENSIONAL_EXPONENTS(0.,0.,0.,0.,0.,0.,0.);
#694=PLANE_ANGLE_MEASURE_WITH_UNIT(PLANE_ANGLE_MEASURE(0.0174532925),#695);
#695=(
NAMED_UNIT(*)
PLANE_ANGLE_UNIT()
SI_UNIT($,.RADIAN.)
);
#696=(
LENGTH_UNIT()
NAMED_UNIT(*)
SI_UNIT(.MILLI.,.METRE.)
);
ENDSEC;
END-ISO-10303-21;
