ISO-10303-21;
HEADER;
/* Generated by software containing ST-Developer
 * from STEP Tools, Inc. (www.steptools.com) 
 */
/* OPTION: using custom schema-name function */

FILE_DESCRIPTION(
/* description */ (''),
/* implementation_level */ '2;1');

FILE_NAME(
/* name */ 'CT-PLFNL3219-19.stp',
/* time_stamp */ '2018-03-29T15:39:29+05:00',
/* author */ (''),
/* organization */ (''),
/* preprocessor_version */ 'ST-DEVELOPER v16',
/* originating_system */ 'SIEMENS PLM Software NX 11.0',
/* authorisation */ '');

FILE_SCHEMA (('AUTOMOTIVE_DESIGN { 1 0 10303 214 3 1 1 1 }'));
ENDSEC;

DATA;
#10=CONSTRUCTIVE_GEOMETRY_REPRESENTATION_RELATIONSHIP(
'supplemental geometry','',#32,#11);
#11=CONSTRUCTIVE_GEOMETRY_REPRESENTATION('supplemental geometry',(#433,
#434,#435),#689);
#12=PROPERTY_DEFINITION_REPRESENTATION(#16,#14);
#13=PROPERTY_DEFINITION_REPRESENTATION(#17,#15);
#14=REPRESENTATION('',(#18),#689);
#15=REPRESENTATION('',(#19),#689);
#16=PROPERTY_DEFINITION('pmi validation property','',#23);
#17=PROPERTY_DEFINITION('pmi validation property','',#23);
#18=VALUE_REPRESENTATION_ITEM('number of annotations',COUNT_MEASURE(0.));
#19=VALUE_REPRESENTATION_ITEM('number of views',COUNT_MEASURE(0.));
#20=SHAPE_REPRESENTATION_RELATIONSHIP('None',
'relationship between CT-PLFNL3219-19-None and CT-PLFNL3219-19-None',#32,
#21);
#21=ADVANCED_BREP_SHAPE_REPRESENTATION('CT-PLFNL3219-19-None',(#43,#44),
#689);
#22=SHAPE_DEFINITION_REPRESENTATION(#23,#32);
#23=PRODUCT_DEFINITION_SHAPE('','',#24);
#24=PRODUCT_DEFINITION(' ','',#26,#25);
#25=PRODUCT_DEFINITION_CONTEXT('part definition',#31,'design');
#26=PRODUCT_DEFINITION_FORMATION_WITH_SPECIFIED_SOURCE(' ',' ',#28,
 .NOT_KNOWN.);
#27=PRODUCT_RELATED_PRODUCT_CATEGORY('part','',(#28));
#28=PRODUCT('vino0BA5zimm','vino0BA5zimm',' ',(#29));
#29=PRODUCT_CONTEXT(' ',#31,'mechanical');
#30=APPLICATION_PROTOCOL_DEFINITION('international standard',
'automotive_design',2010,#31);
#31=APPLICATION_CONTEXT(
'core data for automotive mechanical design processes');
#32=SHAPE_REPRESENTATION('CT-PLFNL3219-19-None',(#432),#689);
#33=SURFACE_STYLE_USAGE(.BOTH.,#35);
#34=SURFACE_STYLE_USAGE(.BOTH.,#36);
#35=SURFACE_SIDE_STYLE('',(#37));
#36=SURFACE_SIDE_STYLE('',(#38));
#37=SURFACE_STYLE_FILL_AREA(#39);
#38=SURFACE_STYLE_FILL_AREA(#40);
#39=FILL_AREA_STYLE('',(#41));
#40=FILL_AREA_STYLE('',(#42));
#41=FILL_AREA_STYLE_COLOUR('',#427);
#42=FILL_AREA_STYLE_COLOUR('',#428);
#43=MANIFOLD_SOLID_BREP('CUT',#45);
#44=MANIFOLD_SOLID_BREP('NOCUT',#46);
#45=CLOSED_SHELL('',(#62,#63,#64,#65,#66,#67,#68,#69,#70,#71));
#46=CLOSED_SHELL('',(#72,#73,#74,#75,#76,#77,#78,#79,#80,#81,#82));
#47=CYLINDRICAL_SURFACE('',#446,4.);
#48=CYLINDRICAL_SURFACE('',#448,4.);
#49=CYLINDRICAL_SURFACE('',#450,4.);
#50=CYLINDRICAL_SURFACE('',#452,4.);
#51=CYLINDRICAL_SURFACE('',#465,4.5);
#52=CIRCLE('',#438,4.);
#53=CIRCLE('',#439,4.);
#54=CIRCLE('',#440,4.);
#55=CIRCLE('',#441,4.);
#56=CIRCLE('',#445,4.);
#57=CIRCLE('',#447,4.);
#58=CIRCLE('',#449,4.);
#59=CIRCLE('',#451,4.);
#60=CIRCLE('',#460,4.5);
#61=CIRCLE('',#463,4.5);
#62=ADVANCED_FACE('',(#99),#83,.T.);
#63=ADVANCED_FACE('',(#100),#84,.T.);
#64=ADVANCED_FACE('',(#101),#85,.F.);
#65=ADVANCED_FACE('',(#102),#86,.T.);
#66=ADVANCED_FACE('',(#103),#87,.T.);
#67=ADVANCED_FACE('',(#104),#47,.T.);
#68=ADVANCED_FACE('',(#105),#48,.T.);
#69=ADVANCED_FACE('',(#106),#49,.T.);
#70=ADVANCED_FACE('',(#107),#50,.T.);
#71=ADVANCED_FACE('',(#108),#88,.F.);
#72=ADVANCED_FACE('',(#109),#89,.T.);
#73=ADVANCED_FACE('',(#110),#90,.F.);
#74=ADVANCED_FACE('',(#111),#91,.F.);
#75=ADVANCED_FACE('',(#112),#92,.T.);
#76=ADVANCED_FACE('',(#113),#93,.F.);
#77=ADVANCED_FACE('',(#114),#94,.F.);
#78=ADVANCED_FACE('',(#115),#95,.F.);
#79=ADVANCED_FACE('',(#116),#96,.F.);
#80=ADVANCED_FACE('',(#117),#97,.T.);
#81=ADVANCED_FACE('',(#118),#51,.T.);
#82=ADVANCED_FACE('',(#119),#98,.T.);
#83=PLANE('',#436);
#84=PLANE('',#437);
#85=PLANE('',#442);
#86=PLANE('',#443);
#87=PLANE('',#444);
#88=PLANE('',#453);
#89=PLANE('',#454);
#90=PLANE('',#455);
#91=PLANE('',#456);
#92=PLANE('',#457);
#93=PLANE('',#458);
#94=PLANE('',#459);
#95=PLANE('',#461);
#96=PLANE('',#462);
#97=PLANE('',#464);
#98=PLANE('',#466);
#99=FACE_OUTER_BOUND('',#120,.T.);
#100=FACE_OUTER_BOUND('',#121,.T.);
#101=FACE_OUTER_BOUND('',#122,.T.);
#102=FACE_OUTER_BOUND('',#123,.T.);
#103=FACE_OUTER_BOUND('',#124,.T.);
#104=FACE_OUTER_BOUND('',#125,.T.);
#105=FACE_OUTER_BOUND('',#126,.T.);
#106=FACE_OUTER_BOUND('',#127,.T.);
#107=FACE_OUTER_BOUND('',#128,.T.);
#108=FACE_OUTER_BOUND('',#129,.T.);
#109=FACE_OUTER_BOUND('',#130,.T.);
#110=FACE_OUTER_BOUND('',#131,.T.);
#111=FACE_OUTER_BOUND('',#132,.T.);
#112=FACE_OUTER_BOUND('',#133,.T.);
#113=FACE_OUTER_BOUND('',#134,.T.);
#114=FACE_OUTER_BOUND('',#135,.T.);
#115=FACE_OUTER_BOUND('',#136,.T.);
#116=FACE_OUTER_BOUND('',#137,.T.);
#117=FACE_OUTER_BOUND('',#138,.T.);
#118=FACE_OUTER_BOUND('',#139,.T.);
#119=FACE_OUTER_BOUND('',#140,.T.);
#120=EDGE_LOOP('',(#141,#142,#143,#144));
#121=EDGE_LOOP('',(#145,#146,#147,#148));
#122=EDGE_LOOP('',(#149,#150,#151,#152,#153,#154,#155,#156));
#123=EDGE_LOOP('',(#157,#158,#159,#160));
#124=EDGE_LOOP('',(#161,#162,#163,#164));
#125=EDGE_LOOP('',(#165,#166,#167,#168));
#126=EDGE_LOOP('',(#169,#170,#171,#172));
#127=EDGE_LOOP('',(#173,#174,#175,#176));
#128=EDGE_LOOP('',(#177,#178,#179,#180));
#129=EDGE_LOOP('',(#181,#182,#183,#184,#185,#186,#187,#188));
#130=EDGE_LOOP('',(#189,#190,#191,#192));
#131=EDGE_LOOP('',(#193,#194,#195,#196,#197,#198,#199,#200));
#132=EDGE_LOOP('',(#201,#202,#203,#204));
#133=EDGE_LOOP('',(#205,#206,#207,#208));
#134=EDGE_LOOP('',(#209,#210,#211,#212,#213,#214,#215,#216));
#135=EDGE_LOOP('',(#217,#218,#219,#220));
#136=EDGE_LOOP('',(#221,#222,#223,#224,#225));
#137=EDGE_LOOP('',(#226,#227,#228,#229));
#138=EDGE_LOOP('',(#230,#231,#232,#233,#234));
#139=EDGE_LOOP('',(#235,#236,#237,#238));
#140=EDGE_LOOP('',(#239,#240,#241,#242));
#141=ORIENTED_EDGE('',*,*,#277,.F.);
#142=ORIENTED_EDGE('',*,*,#278,.F.);
#143=ORIENTED_EDGE('',*,*,#279,.F.);
#144=ORIENTED_EDGE('',*,*,#280,.T.);
#145=ORIENTED_EDGE('',*,*,#281,.F.);
#146=ORIENTED_EDGE('',*,*,#282,.F.);
#147=ORIENTED_EDGE('',*,*,#283,.F.);
#148=ORIENTED_EDGE('',*,*,#284,.T.);
#149=ORIENTED_EDGE('',*,*,#279,.T.);
#150=ORIENTED_EDGE('',*,*,#285,.T.);
#151=ORIENTED_EDGE('',*,*,#286,.T.);
#152=ORIENTED_EDGE('',*,*,#287,.T.);
#153=ORIENTED_EDGE('',*,*,#283,.T.);
#154=ORIENTED_EDGE('',*,*,#288,.T.);
#155=ORIENTED_EDGE('',*,*,#289,.F.);
#156=ORIENTED_EDGE('',*,*,#290,.T.);
#157=ORIENTED_EDGE('',*,*,#291,.F.);
#158=ORIENTED_EDGE('',*,*,#292,.F.);
#159=ORIENTED_EDGE('',*,*,#289,.T.);
#160=ORIENTED_EDGE('',*,*,#293,.T.);
#161=ORIENTED_EDGE('',*,*,#286,.F.);
#162=ORIENTED_EDGE('',*,*,#294,.T.);
#163=ORIENTED_EDGE('',*,*,#295,.T.);
#164=ORIENTED_EDGE('',*,*,#296,.F.);
#165=ORIENTED_EDGE('',*,*,#297,.F.);
#166=ORIENTED_EDGE('',*,*,#294,.F.);
#167=ORIENTED_EDGE('',*,*,#285,.F.);
#168=ORIENTED_EDGE('',*,*,#278,.T.);
#169=ORIENTED_EDGE('',*,*,#298,.F.);
#170=ORIENTED_EDGE('',*,*,#280,.F.);
#171=ORIENTED_EDGE('',*,*,#290,.F.);
#172=ORIENTED_EDGE('',*,*,#292,.T.);
#173=ORIENTED_EDGE('',*,*,#299,.F.);
#174=ORIENTED_EDGE('',*,*,#293,.F.);
#175=ORIENTED_EDGE('',*,*,#288,.F.);
#176=ORIENTED_EDGE('',*,*,#282,.T.);
#177=ORIENTED_EDGE('',*,*,#300,.F.);
#178=ORIENTED_EDGE('',*,*,#284,.F.);
#179=ORIENTED_EDGE('',*,*,#287,.F.);
#180=ORIENTED_EDGE('',*,*,#296,.T.);
#181=ORIENTED_EDGE('',*,*,#295,.F.);
#182=ORIENTED_EDGE('',*,*,#297,.T.);
#183=ORIENTED_EDGE('',*,*,#277,.T.);
#184=ORIENTED_EDGE('',*,*,#298,.T.);
#185=ORIENTED_EDGE('',*,*,#291,.T.);
#186=ORIENTED_EDGE('',*,*,#299,.T.);
#187=ORIENTED_EDGE('',*,*,#281,.T.);
#188=ORIENTED_EDGE('',*,*,#300,.T.);
#189=ORIENTED_EDGE('',*,*,#301,.T.);
#190=ORIENTED_EDGE('',*,*,#302,.T.);
#191=ORIENTED_EDGE('',*,*,#303,.F.);
#192=ORIENTED_EDGE('',*,*,#304,.F.);
#193=ORIENTED_EDGE('',*,*,#305,.F.);
#194=ORIENTED_EDGE('',*,*,#306,.T.);
#195=ORIENTED_EDGE('',*,*,#307,.F.);
#196=ORIENTED_EDGE('',*,*,#308,.F.);
#197=ORIENTED_EDGE('',*,*,#309,.F.);
#198=ORIENTED_EDGE('',*,*,#301,.F.);
#199=ORIENTED_EDGE('',*,*,#310,.F.);
#200=ORIENTED_EDGE('',*,*,#311,.T.);
#201=ORIENTED_EDGE('',*,*,#302,.F.);
#202=ORIENTED_EDGE('',*,*,#309,.T.);
#203=ORIENTED_EDGE('',*,*,#312,.T.);
#204=ORIENTED_EDGE('',*,*,#313,.F.);
#205=ORIENTED_EDGE('',*,*,#311,.F.);
#206=ORIENTED_EDGE('',*,*,#314,.T.);
#207=ORIENTED_EDGE('',*,*,#315,.F.);
#208=ORIENTED_EDGE('',*,*,#316,.F.);
#209=ORIENTED_EDGE('',*,*,#317,.F.);
#210=ORIENTED_EDGE('',*,*,#315,.T.);
#211=ORIENTED_EDGE('',*,*,#318,.T.);
#212=ORIENTED_EDGE('',*,*,#303,.T.);
#213=ORIENTED_EDGE('',*,*,#313,.T.);
#214=ORIENTED_EDGE('',*,*,#319,.T.);
#215=ORIENTED_EDGE('',*,*,#320,.F.);
#216=ORIENTED_EDGE('',*,*,#321,.T.);
#217=ORIENTED_EDGE('',*,*,#306,.F.);
#218=ORIENTED_EDGE('',*,*,#322,.F.);
#219=ORIENTED_EDGE('',*,*,#323,.T.);
#220=ORIENTED_EDGE('',*,*,#324,.F.);
#221=ORIENTED_EDGE('',*,*,#316,.T.);
#222=ORIENTED_EDGE('',*,*,#317,.T.);
#223=ORIENTED_EDGE('',*,*,#325,.T.);
#224=ORIENTED_EDGE('',*,*,#322,.T.);
#225=ORIENTED_EDGE('',*,*,#305,.T.);
#226=ORIENTED_EDGE('',*,*,#312,.F.);
#227=ORIENTED_EDGE('',*,*,#308,.T.);
#228=ORIENTED_EDGE('',*,*,#326,.T.);
#229=ORIENTED_EDGE('',*,*,#319,.F.);
#230=ORIENTED_EDGE('',*,*,#324,.T.);
#231=ORIENTED_EDGE('',*,*,#327,.T.);
#232=ORIENTED_EDGE('',*,*,#320,.T.);
#233=ORIENTED_EDGE('',*,*,#326,.F.);
#234=ORIENTED_EDGE('',*,*,#307,.T.);
#235=ORIENTED_EDGE('',*,*,#327,.F.);
#236=ORIENTED_EDGE('',*,*,#323,.F.);
#237=ORIENTED_EDGE('',*,*,#325,.F.);
#238=ORIENTED_EDGE('',*,*,#321,.F.);
#239=ORIENTED_EDGE('',*,*,#318,.F.);
#240=ORIENTED_EDGE('',*,*,#314,.F.);
#241=ORIENTED_EDGE('',*,*,#310,.T.);
#242=ORIENTED_EDGE('',*,*,#304,.T.);
#243=VERTEX_POINT('',#583);
#244=VERTEX_POINT('',#584);
#245=VERTEX_POINT('',#586);
#246=VERTEX_POINT('',#588);
#247=VERTEX_POINT('',#592);
#248=VERTEX_POINT('',#593);
#249=VERTEX_POINT('',#595);
#250=VERTEX_POINT('',#597);
#251=VERTEX_POINT('',#601);
#252=VERTEX_POINT('',#603);
#253=VERTEX_POINT('',#606);
#254=VERTEX_POINT('',#608);
#255=VERTEX_POINT('',#612);
#256=VERTEX_POINT('',#613);
#257=VERTEX_POINT('',#618);
#258=VERTEX_POINT('',#620);
#259=VERTEX_POINT('',#633);
#260=VERTEX_POINT('',#634);
#261=VERTEX_POINT('',#636);
#262=VERTEX_POINT('',#638);
#263=VERTEX_POINT('',#642);
#264=VERTEX_POINT('',#643);
#265=VERTEX_POINT('',#645);
#266=VERTEX_POINT('',#647);
#267=VERTEX_POINT('',#649);
#268=VERTEX_POINT('',#652);
#269=VERTEX_POINT('',#656);
#270=VERTEX_POINT('',#660);
#271=VERTEX_POINT('',#662);
#272=VERTEX_POINT('',#666);
#273=VERTEX_POINT('',#669);
#274=VERTEX_POINT('',#671);
#275=VERTEX_POINT('',#675);
#276=VERTEX_POINT('',#677);
#277=EDGE_CURVE('',#243,#244,#328,.T.);
#278=EDGE_CURVE('',#245,#243,#329,.T.);
#279=EDGE_CURVE('',#246,#245,#330,.T.);
#280=EDGE_CURVE('',#246,#244,#331,.T.);
#281=EDGE_CURVE('',#247,#248,#332,.T.);
#282=EDGE_CURVE('',#249,#247,#333,.T.);
#283=EDGE_CURVE('',#250,#249,#334,.T.);
#284=EDGE_CURVE('',#250,#248,#335,.T.);
#285=EDGE_CURVE('',#245,#251,#52,.T.);
#286=EDGE_CURVE('',#251,#252,#336,.T.);
#287=EDGE_CURVE('',#252,#250,#53,.T.);
#288=EDGE_CURVE('',#249,#253,#54,.T.);
#289=EDGE_CURVE('',#254,#253,#337,.T.);
#290=EDGE_CURVE('',#254,#246,#55,.T.);
#291=EDGE_CURVE('',#255,#256,#338,.T.);
#292=EDGE_CURVE('',#254,#255,#339,.T.);
#293=EDGE_CURVE('',#253,#256,#340,.T.);
#294=EDGE_CURVE('',#251,#257,#341,.T.);
#295=EDGE_CURVE('',#257,#258,#342,.T.);
#296=EDGE_CURVE('',#252,#258,#343,.T.);
#297=EDGE_CURVE('',#257,#243,#56,.T.);
#298=EDGE_CURVE('',#244,#255,#57,.T.);
#299=EDGE_CURVE('',#256,#247,#58,.T.);
#300=EDGE_CURVE('',#248,#258,#59,.T.);
#301=EDGE_CURVE('',#259,#260,#344,.T.);
#302=EDGE_CURVE('',#260,#261,#345,.T.);
#303=EDGE_CURVE('',#262,#261,#346,.T.);
#304=EDGE_CURVE('',#259,#262,#347,.T.);
#305=EDGE_CURVE('',#263,#264,#348,.T.);
#306=EDGE_CURVE('',#263,#265,#349,.T.);
#307=EDGE_CURVE('',#266,#265,#350,.T.);
#308=EDGE_CURVE('',#267,#266,#351,.T.);
#309=EDGE_CURVE('',#260,#267,#352,.T.);
#310=EDGE_CURVE('',#268,#259,#353,.T.);
#311=EDGE_CURVE('',#268,#264,#354,.T.);
#312=EDGE_CURVE('',#267,#269,#355,.T.);
#313=EDGE_CURVE('',#261,#269,#356,.T.);
#314=EDGE_CURVE('',#268,#270,#357,.T.);
#315=EDGE_CURVE('',#271,#270,#358,.T.);
#316=EDGE_CURVE('',#264,#271,#359,.T.);
#317=EDGE_CURVE('',#271,#272,#360,.T.);
#318=EDGE_CURVE('',#270,#262,#361,.T.);
#319=EDGE_CURVE('',#269,#273,#362,.T.);
#320=EDGE_CURVE('',#274,#273,#363,.T.);
#321=EDGE_CURVE('',#274,#272,#364,.T.);
#322=EDGE_CURVE('',#275,#263,#365,.T.);
#323=EDGE_CURVE('',#275,#276,#366,.T.);
#324=EDGE_CURVE('',#265,#276,#367,.T.);
#325=EDGE_CURVE('',#272,#275,#60,.T.);
#326=EDGE_CURVE('',#266,#273,#368,.T.);
#327=EDGE_CURVE('',#276,#274,#61,.T.);
#328=LINE('',#582,#369);
#329=LINE('',#585,#370);
#330=LINE('',#587,#371);
#331=LINE('',#589,#372);
#332=LINE('',#591,#373);
#333=LINE('',#594,#374);
#334=LINE('',#596,#375);
#335=LINE('',#598,#376);
#336=LINE('',#602,#377);
#337=LINE('',#607,#378);
#338=LINE('',#611,#379);
#339=LINE('',#614,#380);
#340=LINE('',#615,#381);
#341=LINE('',#617,#382);
#342=LINE('',#619,#383);
#343=LINE('',#621,#384);
#344=LINE('',#632,#385);
#345=LINE('',#635,#386);
#346=LINE('',#637,#387);
#347=LINE('',#639,#388);
#348=LINE('',#641,#389);
#349=LINE('',#644,#390);
#350=LINE('',#646,#391);
#351=LINE('',#648,#392);
#352=LINE('',#650,#393);
#353=LINE('',#651,#394);
#354=LINE('',#653,#395);
#355=LINE('',#655,#396);
#356=LINE('',#657,#397);
#357=LINE('',#659,#398);
#358=LINE('',#661,#399);
#359=LINE('',#663,#400);
#360=LINE('',#665,#401);
#361=LINE('',#667,#402);
#362=LINE('',#668,#403);
#363=LINE('',#670,#404);
#364=LINE('',#672,#405);
#365=LINE('',#674,#406);
#366=LINE('',#676,#407);
#367=LINE('',#678,#408);
#368=LINE('',#682,#409);
#369=VECTOR('',#475,1.);
#370=VECTOR('',#476,1.);
#371=VECTOR('',#477,1.);
#372=VECTOR('',#478,1.);
#373=VECTOR('',#481,1.);
#374=VECTOR('',#482,1.);
#375=VECTOR('',#483,1.);
#376=VECTOR('',#484,1.);
#377=VECTOR('',#489,1.);
#378=VECTOR('',#494,1.);
#379=VECTOR('',#499,1.);
#380=VECTOR('',#500,1.);
#381=VECTOR('',#501,1.);
#382=VECTOR('',#504,1.);
#383=VECTOR('',#505,1.);
#384=VECTOR('',#506,1.);
#385=VECTOR('',#527,1.);
#386=VECTOR('',#528,1.);
#387=VECTOR('',#529,1.);
#388=VECTOR('',#530,1.);
#389=VECTOR('',#533,1.);
#390=VECTOR('',#534,1.);
#391=VECTOR('',#535,1.);
#392=VECTOR('',#536,1.);
#393=VECTOR('',#537,1.);
#394=VECTOR('',#538,1.);
#395=VECTOR('',#539,1.);
#396=VECTOR('',#542,1.);
#397=VECTOR('',#543,1.);
#398=VECTOR('',#546,1.);
#399=VECTOR('',#547,1.);
#400=VECTOR('',#548,1.);
#401=VECTOR('',#551,1.);
#402=VECTOR('',#552,1.);
#403=VECTOR('',#553,1.);
#404=VECTOR('',#554,1.);
#405=VECTOR('',#555,1.);
#406=VECTOR('',#558,1.);
#407=VECTOR('',#559,1.);
#408=VECTOR('',#560,1.);
#409=VECTOR('',#567,1.);
#410=PRESENTATION_LAYER_ASSIGNMENT('1','Layer 1',(#433,#434,#435));
#411=PRESENTATION_LAYER_ASSIGNMENT('3','Layer 3',(#43));
#412=PRESENTATION_LAYER_ASSIGNMENT('2','Layer 2',(#44));
#413=STYLED_ITEM('',(#418),#433);
#414=STYLED_ITEM('',(#419),#434);
#415=STYLED_ITEM('',(#420),#435);
#416=STYLED_ITEM('',(#421),#43);
#417=STYLED_ITEM('',(#422),#44);
#418=PRESENTATION_STYLE_ASSIGNMENT((#423));
#419=PRESENTATION_STYLE_ASSIGNMENT((#424));
#420=PRESENTATION_STYLE_ASSIGNMENT((#425));
#421=PRESENTATION_STYLE_ASSIGNMENT((#33));
#422=PRESENTATION_STYLE_ASSIGNMENT((#34));
#423=CURVE_STYLE('',#429,POSITIVE_LENGTH_MEASURE(0.18),#426);
#424=CURVE_STYLE('',#430,POSITIVE_LENGTH_MEASURE(0.18),#426);
#425=CURVE_STYLE('',#431,POSITIVE_LENGTH_MEASURE(0.18),#426);
#426=COLOUR_RGB('Strong Stone',0.576470588235294,0.54508278019379,0.392156862745098);
#427=COLOUR_RGB('Light Gray',0.8,0.8,0.8);
#428=COLOUR_RGB('Medium Gray',0.490196078431373,0.490196078431373,0.490196078431373);
#429=DRAUGHTING_PRE_DEFINED_CURVE_FONT('continuous');
#430=DRAUGHTING_PRE_DEFINED_CURVE_FONT('continuous');
#431=DRAUGHTING_PRE_DEFINED_CURVE_FONT('continuous');
#432=AXIS2_PLACEMENT_3D('',#578,#467,#468);
#433=AXIS2_PLACEMENT_3D('MCS',#579,#469,#470);
#434=AXIS2_PLACEMENT_3D('PCS',#580,#471,#472);
#435=AXIS2_PLACEMENT_3D('CSW',#581,#473,#474);
#436=AXIS2_PLACEMENT_3D('',#590,#479,#480);
#437=AXIS2_PLACEMENT_3D('',#599,#485,#486);
#438=AXIS2_PLACEMENT_3D('',#600,#487,#488);
#439=AXIS2_PLACEMENT_3D('',#604,#490,#491);
#440=AXIS2_PLACEMENT_3D('',#605,#492,#493);
#441=AXIS2_PLACEMENT_3D('',#609,#495,#496);
#442=AXIS2_PLACEMENT_3D('',#610,#497,#498);
#443=AXIS2_PLACEMENT_3D('',#616,#502,#503);
#444=AXIS2_PLACEMENT_3D('',#622,#507,#508);
#445=AXIS2_PLACEMENT_3D('',#623,#509,#510);
#446=AXIS2_PLACEMENT_3D('',#624,#511,#512);
#447=AXIS2_PLACEMENT_3D('',#625,#513,#514);
#448=AXIS2_PLACEMENT_3D('',#626,#515,#516);
#449=AXIS2_PLACEMENT_3D('',#627,#517,#518);
#450=AXIS2_PLACEMENT_3D('',#628,#519,#520);
#451=AXIS2_PLACEMENT_3D('',#629,#521,#522);
#452=AXIS2_PLACEMENT_3D('',#630,#523,#524);
#453=AXIS2_PLACEMENT_3D('',#631,#525,#526);
#454=AXIS2_PLACEMENT_3D('',#640,#531,#532);
#455=AXIS2_PLACEMENT_3D('',#654,#540,#541);
#456=AXIS2_PLACEMENT_3D('',#658,#544,#545);
#457=AXIS2_PLACEMENT_3D('',#664,#549,#550);
#458=AXIS2_PLACEMENT_3D('',#673,#556,#557);
#459=AXIS2_PLACEMENT_3D('',#679,#561,#562);
#460=AXIS2_PLACEMENT_3D('',#680,#563,#564);
#461=AXIS2_PLACEMENT_3D('',#681,#565,#566);
#462=AXIS2_PLACEMENT_3D('',#683,#568,#569);
#463=AXIS2_PLACEMENT_3D('',#684,#570,#571);
#464=AXIS2_PLACEMENT_3D('',#685,#572,#573);
#465=AXIS2_PLACEMENT_3D('',#686,#574,#575);
#466=AXIS2_PLACEMENT_3D('',#687,#576,#577);
#467=DIRECTION('',(0.,0.,1.));
#468=DIRECTION('',(1.,0.,0.));
#469=DIRECTION('',(0.,0.,1.));
#470=DIRECTION('',(1.,0.,0.));
#471=DIRECTION('',(0.,0.,1.));
#472=DIRECTION('',(1.,0.,0.));
#473=DIRECTION('',(0.,1.,0.));
#474=DIRECTION('',(-1.,0.,0.));
#475=DIRECTION('',(-1.,1.82123199577618E-16,-3.21512550117692E-16));
#476=DIRECTION('',(0.,1.,0.));
#477=DIRECTION('',(1.,-1.82123199577618E-16,3.21512550117692E-16));
#478=DIRECTION('',(0.,1.,0.));
#479=DIRECTION('',(3.21512550117692E-16,0.,-1.));
#480=DIRECTION('',(1.,0.,3.19189119579733E-16));
#481=DIRECTION('',(1.,-1.82123199577618E-16,3.13977099724309E-16));
#482=DIRECTION('',(0.,1.,0.));
#483=DIRECTION('',(-1.,1.82123199577618E-16,-3.13977099724309E-16));
#484=DIRECTION('',(0.,1.,0.));
#485=DIRECTION('',(-3.13977099724309E-16,0.,1.));
#486=DIRECTION('',(-1.,0.,-3.12250225675825E-16));
#487=DIRECTION('',(-1.82123199577618E-16,-1.,0.));
#488=DIRECTION('',(1.,0.,0.));
#489=DIRECTION('',(0.,0.,1.));
#490=DIRECTION('',(-1.82123199577618E-16,-1.,0.));
#491=DIRECTION('',(1.,0.,0.));
#492=DIRECTION('',(-1.82123199577618E-16,-1.,0.));
#493=DIRECTION('',(1.,0.,0.));
#494=DIRECTION('',(0.,0.,1.));
#495=DIRECTION('',(-1.82123199577618E-16,-1.,0.));
#496=DIRECTION('',(1.,0.,0.));
#497=DIRECTION('',(1.82123199577618E-16,1.,0.));
#498=DIRECTION('',(-1.,1.82145964977565E-16,0.));
#499=DIRECTION('',(0.,0.,1.));
#500=DIRECTION('',(0.,1.,0.));
#501=DIRECTION('',(0.,1.,0.));
#502=DIRECTION('',(-1.,0.,-8.67361737988404E-16));
#503=DIRECTION('',(8.67361737988404E-16,0.,-1.));
#504=DIRECTION('',(0.,1.,0.));
#505=DIRECTION('',(0.,0.,1.));
#506=DIRECTION('',(0.,1.,0.));
#507=DIRECTION('',(1.,0.,0.));
#508=DIRECTION('',(0.,0.,1.));
#509=DIRECTION('',(1.82123199577618E-16,1.,0.));
#510=DIRECTION('',(-1.,0.,0.));
#511=DIRECTION('',(0.,1.,0.));
#512=DIRECTION('',(0.,0.,0.999999999999999));
#513=DIRECTION('',(1.82123199577618E-16,1.,0.));
#514=DIRECTION('',(-1.,0.,0.));
#515=DIRECTION('',(0.,1.,0.));
#516=DIRECTION('',(0.,0.,0.999999999999999));
#517=DIRECTION('',(1.82123199577618E-16,1.,0.));
#518=DIRECTION('',(-1.,0.,0.));
#519=DIRECTION('',(0.,1.,0.));
#520=DIRECTION('',(0.,0.,0.999999999999999));
#521=DIRECTION('',(1.82123199577618E-16,1.,0.));
#522=DIRECTION('',(-1.,0.,0.));
#523=DIRECTION('',(0.,1.,0.));
#524=DIRECTION('',(0.,0.,0.999999999999999));
#525=DIRECTION('',(-1.82123199577618E-16,-1.,0.));
#526=DIRECTION('',(1.,-1.80411241501588E-16,0.));
#527=DIRECTION('',(0.,0.999961923064171,0.00872653549837418));
#528=DIRECTION('',(-1.,3.80213364597656E-16,3.31807176512341E-18));
#529=DIRECTION('',(0.,0.999961923064171,0.00872653549837418));
#530=DIRECTION('',(-1.,0.,0.));
#531=DIRECTION('',(0.,-0.00872653549837418,0.999961923064171));
#532=DIRECTION('',(0.,-0.999961923064171,-0.00872653549837418));
#533=DIRECTION('',(0.,0.,1.));
#534=DIRECTION('',(0.,1.,0.));
#535=DIRECTION('',(0.,0.,-1.));
#536=DIRECTION('',(0.,-1.,0.));
#537=DIRECTION('',(0.,0.,-1.));
#538=DIRECTION('',(0.,-0.130526192220051,-0.99144486137381));
#539=DIRECTION('',(0.,-1.,0.));
#540=DIRECTION('',(-1.,0.,0.));
#541=DIRECTION('',(0.,1.,0.));
#542=DIRECTION('',(-1.,3.80213364597656E-16,-3.13977099724309E-16));
#543=DIRECTION('',(0.,0.,-1.));
#544=DIRECTION('',(-3.80213364597656E-16,-1.,0.));
#545=DIRECTION('',(-1.,3.81639164714898E-16,0.));
#546=DIRECTION('',(-1.,0.,0.));
#547=DIRECTION('',(0.,1.,0.));
#548=DIRECTION('',(-1.,1.57895921952369E-16,0.));
#549=DIRECTION('',(0.,0.,1.));
#550=DIRECTION('',(1.,0.,0.));
#551=DIRECTION('',(0.,0.,-1.));
#552=DIRECTION('',(0.,-0.130526192220051,-0.99144486137381));
#553=DIRECTION('',(0.,-1.,0.));
#554=DIRECTION('',(0.,0.,1.));
#555=DIRECTION('',(0.,-1.,0.));
#556=DIRECTION('',(1.,0.,0.));
#557=DIRECTION('',(0.,-1.,0.));
#558=DIRECTION('',(1.,-1.57895921952369E-16,0.));
#559=DIRECTION('',(0.,1.,0.));
#560=DIRECTION('',(-1.,1.82123199577618E-16,0.));
#561=DIRECTION('',(0.,0.,1.));
#562=DIRECTION('',(1.,0.,0.));
#563=DIRECTION('',(-1.57895921952369E-16,-1.,0.));
#564=DIRECTION('',(-1.,1.57895921952369E-16,0.));
#565=DIRECTION('',(1.57895921952369E-16,1.,0.));
#566=DIRECTION('',(1.,-1.57895921952369E-16,0.));
#567=DIRECTION('',(-1.,1.82123199577618E-16,-3.13977099724309E-16));
#568=DIRECTION('',(-3.13977099724309E-16,0.,1.));
#569=DIRECTION('',(-1.,0.,-3.12250225675825E-16));
#570=DIRECTION('',(1.82123199577618E-16,1.,0.));
#571=DIRECTION('',(-1.,0.,0.));
#572=DIRECTION('',(1.82123199577618E-16,1.,0.));
#573=DIRECTION('',(-1.,1.82145964977565E-16,0.));
#574=DIRECTION('',(0.,-1.,0.));
#575=DIRECTION('',(-1.,0.,0.));
#576=DIRECTION('',(0.,0.99144486137381,-0.130526192220051));
#577=DIRECTION('',(0.,0.130526192220051,0.99144486137381));
#578=CARTESIAN_POINT('',(0.,0.,0.));
#579=CARTESIAN_POINT('',(0.,0.,0.));
#580=CARTESIAN_POINT('',(0.,0.,0.));
#581=CARTESIAN_POINT('',(9.12500000000001,32.,-38.));
#582=CARTESIAN_POINT('',(14.65,32.,-43.));
#583=CARTESIAN_POINT('',(14.65,32.,-43.));
#584=CARTESIAN_POINT('',(3.6,32.,-43.));
#585=CARTESIAN_POINT('',(14.65,-2.525,-43.));
#586=CARTESIAN_POINT('',(14.65,12.95,-43.));
#587=CARTESIAN_POINT('',(14.65,12.95,-43.));
#588=CARTESIAN_POINT('',(3.6,12.95,-43.));
#589=CARTESIAN_POINT('',(3.6,-2.525,-43.));
#590=CARTESIAN_POINT('',(14.65,-2.525,-43.));
#591=CARTESIAN_POINT('',(3.6,32.,-33.));
#592=CARTESIAN_POINT('',(3.6,32.,-33.));
#593=CARTESIAN_POINT('',(14.65,32.,-33.));
#594=CARTESIAN_POINT('',(3.6,-2.525,-33.));
#595=CARTESIAN_POINT('',(3.6,12.95,-33.));
#596=CARTESIAN_POINT('',(3.6,12.95,-33.));
#597=CARTESIAN_POINT('',(14.65,12.95,-33.));
#598=CARTESIAN_POINT('',(14.65,-2.525,-33.));
#599=CARTESIAN_POINT('',(3.6,-2.525,-33.));
#600=CARTESIAN_POINT('',(14.65,12.95,-39.));
#601=CARTESIAN_POINT('',(18.65,12.95,-39.));
#602=CARTESIAN_POINT('',(18.65,12.95,-68.));
#603=CARTESIAN_POINT('',(18.65,12.95,-37.));
#604=CARTESIAN_POINT('',(14.65,12.95,-37.));
#605=CARTESIAN_POINT('',(3.6,12.95,-37.));
#606=CARTESIAN_POINT('',(-0.400000000000001,12.95,-37.));
#607=CARTESIAN_POINT('',(-0.400000000000001,12.95,-68.));
#608=CARTESIAN_POINT('',(-0.400000000000001,12.95,-39.));
#609=CARTESIAN_POINT('',(3.6,12.95,-39.));
#610=CARTESIAN_POINT('',(18.65,12.95,-68.));
#611=CARTESIAN_POINT('',(-0.400000000000001,32.,-68.));
#612=CARTESIAN_POINT('',(-0.400000000000001,32.,-39.));
#613=CARTESIAN_POINT('',(-0.400000000000001,32.,-37.));
#614=CARTESIAN_POINT('',(-0.400000000000001,-2.525,-39.));
#615=CARTESIAN_POINT('',(-0.400000000000001,-2.525,-37.));
#616=CARTESIAN_POINT('',(-0.400000000000001,-2.525,-39.));
#617=CARTESIAN_POINT('',(18.65,-2.525,-39.));
#618=CARTESIAN_POINT('',(18.65,32.,-39.));
#619=CARTESIAN_POINT('',(18.65,32.,-68.));
#620=CARTESIAN_POINT('',(18.65,32.,-37.));
#621=CARTESIAN_POINT('',(18.65,-2.525,-37.));
#622=CARTESIAN_POINT('',(18.65,-2.525,-37.));
#623=CARTESIAN_POINT('',(14.65,32.,-39.));
#624=CARTESIAN_POINT('',(14.65,-2.525,-39.));
#625=CARTESIAN_POINT('',(3.6,32.,-39.));
#626=CARTESIAN_POINT('',(3.6,-2.525,-39.));
#627=CARTESIAN_POINT('',(3.6,32.,-37.));
#628=CARTESIAN_POINT('',(3.6,-2.525,-37.));
#629=CARTESIAN_POINT('',(14.65,32.,-37.));
#630=CARTESIAN_POINT('',(14.65,-2.525,-37.));
#631=CARTESIAN_POINT('',(-0.400000000000001,32.,-68.));
#632=CARTESIAN_POINT('',(18.25,0.0721833006289626,-8.2713869809507));
#633=CARTESIAN_POINT('',(18.25,13.0599760237109,-8.1580442309626));
#634=CARTESIAN_POINT('',(18.25,31.2,-7.99973864000031));
#635=CARTESIAN_POINT('',(18.25,31.2,-7.9997386400003));
#636=CARTESIAN_POINT('',(0.,31.2,-7.9997386400003));
#637=CARTESIAN_POINT('',(0.,19.1113308945734,-8.1052348570496));
#638=CARTESIAN_POINT('',(0.,13.0599760237109,-8.1580442309626));
#639=CARTESIAN_POINT('',(18.25,13.0599760237109,-8.1580442309626));
#640=CARTESIAN_POINT('',(18.25,19.1113308945734,-8.1052348570496));
#641=CARTESIAN_POINT('',(18.25,-1.14687709965393E-15,0.));
#642=CARTESIAN_POINT('',(18.25,-2.79515361665524E-16,-42.6));
#643=CARTESIAN_POINT('',(18.25,-1.00711941882117E-15,0.));
#644=CARTESIAN_POINT('',(18.25,0.,-42.6));
#645=CARTESIAN_POINT('',(18.25,12.95,-42.6));
#646=CARTESIAN_POINT('',(18.25,12.95,-68.));
#647=CARTESIAN_POINT('',(18.25,12.95,-33.));
#648=CARTESIAN_POINT('',(18.25,-2.525,-33.));
#649=CARTESIAN_POINT('',(18.25,31.2,-33.));
#650=CARTESIAN_POINT('',(18.25,31.2,0.));
#651=CARTESIAN_POINT('',(18.25,14.5138170608267,2.8849748059582));
#652=CARTESIAN_POINT('',(18.25,14.1340029221456,0.));
#653=CARTESIAN_POINT('',(18.25,31.2,0.));
#654=CARTESIAN_POINT('',(18.25,0.,0.));
#655=CARTESIAN_POINT('',(18.25,31.2,-33.));
#656=CARTESIAN_POINT('',(0.,31.2,-33.));
#657=CARTESIAN_POINT('',(0.,31.2,0.));
#658=CARTESIAN_POINT('',(18.25,31.2,0.));
#659=CARTESIAN_POINT('',(0.,14.1340029221456,0.));
#660=CARTESIAN_POINT('',(0.,14.1340029221456,0.));
#661=CARTESIAN_POINT('',(0.,31.2,0.));
#662=CARTESIAN_POINT('',(0.,2.16840434497101E-15,0.));
#663=CARTESIAN_POINT('',(0.,2.60208521396521E-15,0.));
#664=CARTESIAN_POINT('',(0.,31.2,0.));
#665=CARTESIAN_POINT('',(0.,0.,0.));
#666=CARTESIAN_POINT('',(0.,0.,-38.1));
#667=CARTESIAN_POINT('',(0.,14.5138170608267,2.8849748059582));
#668=CARTESIAN_POINT('',(0.,31.2,-33.));
#669=CARTESIAN_POINT('',(0.,12.95,-33.));
#670=CARTESIAN_POINT('',(0.,12.95,-68.));
#671=CARTESIAN_POINT('',(0.,12.95,-38.1));
#672=CARTESIAN_POINT('',(0.,31.2,-38.1));
#673=CARTESIAN_POINT('',(0.,31.2,0.));
#674=CARTESIAN_POINT('',(0.,1.73472347597681E-15,-42.6));
#675=CARTESIAN_POINT('',(4.5,1.30104260698261E-15,-42.6));
#676=CARTESIAN_POINT('',(4.5,31.2,-42.6));
#677=CARTESIAN_POINT('',(4.5,12.95,-42.6));
#678=CARTESIAN_POINT('',(18.65,12.95,-42.6));
#679=CARTESIAN_POINT('',(0.,31.2,-42.6));
#680=CARTESIAN_POINT('',(4.5,3.46944695195362E-15,-38.1));
#681=CARTESIAN_POINT('',(0.,1.73472347597681E-15,0.));
#682=CARTESIAN_POINT('',(18.65,12.95,-33.));
#683=CARTESIAN_POINT('',(3.6,-2.525,-33.));
#684=CARTESIAN_POINT('',(4.5,12.95,-38.1));
#685=CARTESIAN_POINT('',(18.65,12.95,-68.));
#686=CARTESIAN_POINT('',(4.5,31.2,-38.1));
#687=CARTESIAN_POINT('',(18.25,14.5138170608267,2.8849748059582));
#688=MECHANICAL_DESIGN_GEOMETRIC_PRESENTATION_REPRESENTATION('',(#413,#414,
#415,#416,#417),#689);
#689=(
GEOMETRIC_REPRESENTATION_CONTEXT(3)
GLOBAL_UNCERTAINTY_ASSIGNED_CONTEXT((#690))
GLOBAL_UNIT_ASSIGNED_CONTEXT((#696,#692,#691))
REPRESENTATION_CONTEXT('CT-PLFNL3219-19','TOP_LEVEL_ASSEMBLY_PART')
);
#690=UNCERTAINTY_MEASURE_WITH_UNIT(LENGTH_MEASURE(2.E-5),#696,
'DISTANCE_ACCURACY_VALUE','Maximum Tolerance applied to model');
#691=(
NAMED_UNIT(*)
SI_UNIT($,.STERADIAN.)
SOLID_ANGLE_UNIT()
);
#692=(
CONVERSION_BASED_UNIT('DEGREE',#694)
NAMED_UNIT(#693)
PLANE_ANGLE_UNIT()
);
#693=DIMENSIONAL_EXPONENTS(0.,0.,0.,0.,0.,0.,0.);
#694=PLANE_ANGLE_MEASURE_WITH_UNIT(PLANE_ANGLE_MEASURE(0.0174532925),#695);
#695=(
NAMED_UNIT(*)
PLANE_ANGLE_UNIT()
SI_UNIT($,.RADIAN.)
);
#696=(
LENGTH_UNIT()
NAMED_UNIT(*)
SI_UNIT(.MILLI.,.METRE.)
);
ENDSEC;
END-ISO-10303-21;
