ISO-10303-21;
HEADER;
/* Generated by software containing ST-Developer
 * from STEP Tools, Inc. (www.steptools.com) 
 */
/* OPTION: using custom schema-name function */

FILE_DESCRIPTION(
/* description */ (''),
/* implementation_level */ '2;1');

FILE_NAME(
/* name */ 'JH780038N2R200.0Z4-HXT.stp',
/* time_stamp */ '2018-07-16T10:56:21+05:00',
/* author */ (''),
/* organization */ (''),
/* preprocessor_version */ 'ST-DEVELOPER v16',
/* originating_system */ 'SIEMENS PLM Software NX 11.0',
/* authorisation */ '');

FILE_SCHEMA (('AUTOMOTIVE_DESIGN { 1 0 10303 214 3 1 1 1 }'));
ENDSEC;

DATA;
#10=CONSTRUCTIVE_GEOMETRY_REPRESENTATION_RELATIONSHIP(
'supplemental geometry','',#24,#11);
#11=CONSTRUCTIVE_GEOMETRY_REPRESENTATION('supplemental geometry',(#165,
#166,#167),#265);
#12=SHAPE_REPRESENTATION_RELATIONSHIP('None',
'relationship between JH780038N2R200.0Z4-HXT-None and JH780038N2R200.0
Z4-HXT-None',#24,#13);
#13=ADVANCED_BREP_SHAPE_REPRESENTATION('JH780038N2R200.0Z4-HXT-None',(#42,
#43,#44),#265);
#14=SHAPE_DEFINITION_REPRESENTATION(#15,#24);
#15=PRODUCT_DEFINITION_SHAPE('','',#16);
#16=PRODUCT_DEFINITION(' ','',#18,#17);
#17=PRODUCT_DEFINITION_CONTEXT('part definition',#23,'design');
#18=PRODUCT_DEFINITION_FORMATION_WITH_SPECIFIED_SOURCE(' ',' ',#20,
 .NOT_KNOWN.);
#19=PRODUCT_RELATED_PRODUCT_CATEGORY('part','',(#20));
#20=PRODUCT('JH780038N2R200.0Z4-HXT','JH780038N2R200.0Z4-HXT',' ',(#21));
#21=PRODUCT_CONTEXT(' ',#23,'mechanical');
#22=APPLICATION_PROTOCOL_DEFINITION('international standard',
'automotive_design',2010,#23);
#23=APPLICATION_CONTEXT(
'core data for automotive mechanical design processes');
#24=SHAPE_REPRESENTATION('JH780038N2R200.0Z4-HXT-None',(#164),#265);
#25=TOROIDAL_SURFACE('',#184,7.97217690347702,5.);
#26=SPHERICAL_SURFACE('',#176,2.);
#27=SURFACE_STYLE_USAGE(.BOTH.,#30);
#28=SURFACE_STYLE_USAGE(.BOTH.,#31);
#29=SURFACE_STYLE_USAGE(.BOTH.,#32);
#30=SURFACE_SIDE_STYLE('',(#33));
#31=SURFACE_SIDE_STYLE('',(#34));
#32=SURFACE_SIDE_STYLE('',(#35));
#33=SURFACE_STYLE_FILL_AREA(#36);
#34=SURFACE_STYLE_FILL_AREA(#37);
#35=SURFACE_STYLE_FILL_AREA(#38);
#36=FILL_AREA_STYLE('',(#39));
#37=FILL_AREA_STYLE('',(#40));
#38=FILL_AREA_STYLE('',(#41));
#39=FILL_AREA_STYLE_COLOUR('',#159);
#40=FILL_AREA_STYLE_COLOUR('',#160);
#41=FILL_AREA_STYLE_COLOUR('',#159);
#42=MANIFOLD_SOLID_BREP('NOCUT',#45);
#43=MANIFOLD_SOLID_BREP('CUT',#46);
#44=MANIFOLD_SOLID_BREP('NOCUT',#47);
#45=CLOSED_SHELL('',(#62,#63,#64,#65));
#46=CLOSED_SHELL('',(#66,#67,#68));
#47=CLOSED_SHELL('',(#69,#70,#71,#72));
#48=CYLINDRICAL_SURFACE('',#173,4.);
#49=CYLINDRICAL_SURFACE('',#182,4.);
#50=CONICAL_SURFACE('',#171,4.,45.0000000000433);
#51=CONICAL_SURFACE('',#178,1.99794557090327,2.59719999999894);
#52=FACE_BOUND('',#85,.T.);
#53=FACE_BOUND('',#86,.T.);
#54=FACE_BOUND('',#87,.T.);
#55=FACE_BOUND('',#88,.T.);
#56=FACE_BOUND('',#91,.T.);
#57=FACE_BOUND('',#92,.T.);
#58=FACE_BOUND('',#94,.T.);
#59=FACE_BOUND('',#95,.T.);
#60=FACE_BOUND('',#96,.T.);
#61=FACE_BOUND('',#97,.T.);
#62=ADVANCED_FACE('',(#78),#73,.F.);
#63=ADVANCED_FACE('',(#52,#53),#50,.T.);
#64=ADVANCED_FACE('',(#54,#55),#48,.T.);
#65=ADVANCED_FACE('',(#79),#74,.F.);
#66=ADVANCED_FACE('',(#80),#26,.T.);
#67=ADVANCED_FACE('',(#56,#57),#51,.T.);
#68=ADVANCED_FACE('',(#81),#75,.F.);
#69=ADVANCED_FACE('',(#58,#59),#49,.T.);
#70=ADVANCED_FACE('',(#60,#61),#25,.F.);
#71=ADVANCED_FACE('',(#82),#76,.T.);
#72=ADVANCED_FACE('',(#83),#77,.T.);
#73=PLANE('',#169);
#74=PLANE('',#174);
#75=PLANE('',#179);
#76=PLANE('',#185);
#77=PLANE('',#186);
#78=FACE_OUTER_BOUND('',#84,.T.);
#79=FACE_OUTER_BOUND('',#89,.T.);
#80=FACE_OUTER_BOUND('',#90,.T.);
#81=FACE_OUTER_BOUND('',#93,.T.);
#82=FACE_OUTER_BOUND('',#98,.T.);
#83=FACE_OUTER_BOUND('',#99,.T.);
#84=EDGE_LOOP('',(#100));
#85=EDGE_LOOP('',(#101));
#86=EDGE_LOOP('',(#102));
#87=EDGE_LOOP('',(#103));
#88=EDGE_LOOP('',(#104));
#89=EDGE_LOOP('',(#105));
#90=EDGE_LOOP('',(#106));
#91=EDGE_LOOP('',(#107));
#92=EDGE_LOOP('',(#108));
#93=EDGE_LOOP('',(#109));
#94=EDGE_LOOP('',(#110));
#95=EDGE_LOOP('',(#111));
#96=EDGE_LOOP('',(#112));
#97=EDGE_LOOP('',(#113));
#98=EDGE_LOOP('',(#114));
#99=EDGE_LOOP('',(#115));
#100=ORIENTED_EDGE('',*,*,#124,.T.);
#101=ORIENTED_EDGE('',*,*,#124,.F.);
#102=ORIENTED_EDGE('',*,*,#125,.T.);
#103=ORIENTED_EDGE('',*,*,#126,.T.);
#104=ORIENTED_EDGE('',*,*,#125,.F.);
#105=ORIENTED_EDGE('',*,*,#126,.F.);
#106=ORIENTED_EDGE('',*,*,#127,.F.);
#107=ORIENTED_EDGE('',*,*,#128,.T.);
#108=ORIENTED_EDGE('',*,*,#127,.T.);
#109=ORIENTED_EDGE('',*,*,#128,.F.);
#110=ORIENTED_EDGE('',*,*,#129,.T.);
#111=ORIENTED_EDGE('',*,*,#130,.T.);
#112=ORIENTED_EDGE('',*,*,#129,.F.);
#113=ORIENTED_EDGE('',*,*,#131,.F.);
#114=ORIENTED_EDGE('',*,*,#131,.T.);
#115=ORIENTED_EDGE('',*,*,#130,.F.);
#116=VERTEX_POINT('',#238);
#117=VERTEX_POINT('',#241);
#118=VERTEX_POINT('',#244);
#119=VERTEX_POINT('',#248);
#120=VERTEX_POINT('',#251);
#121=VERTEX_POINT('',#255);
#122=VERTEX_POINT('',#257);
#123=VERTEX_POINT('',#260);
#124=EDGE_CURVE('',#116,#116,#132,.T.);
#125=EDGE_CURVE('',#117,#117,#133,.T.);
#126=EDGE_CURVE('',#118,#118,#134,.T.);
#127=EDGE_CURVE('',#119,#119,#135,.T.);
#128=EDGE_CURVE('',#120,#120,#136,.T.);
#129=EDGE_CURVE('',#121,#121,#137,.T.);
#130=EDGE_CURVE('',#122,#122,#138,.T.);
#131=EDGE_CURVE('',#123,#123,#139,.T.);
#132=CIRCLE('',#168,3.39999999999918);
#133=CIRCLE('',#170,4.);
#134=CIRCLE('',#172,4.);
#135=CIRCLE('',#175,1.99794557090327);
#136=CIRCLE('',#177,2.97731297621881);
#137=CIRCLE('',#180,3.99999999999998);
#138=CIRCLE('',#181,4.);
#139=CIRCLE('',#183,2.97731297621881);
#140=PRESENTATION_LAYER_ASSIGNMENT('1','Layer 1',(#165,#166,#167,#42));
#141=PRESENTATION_LAYER_ASSIGNMENT('3','Layer 3',(#43));
#142=PRESENTATION_LAYER_ASSIGNMENT('2','Layer 2',(#44));
#143=STYLED_ITEM('',(#149),#165);
#144=STYLED_ITEM('',(#150),#166);
#145=STYLED_ITEM('',(#151),#167);
#146=STYLED_ITEM('',(#152),#42);
#147=STYLED_ITEM('',(#153),#43);
#148=STYLED_ITEM('',(#154),#44);
#149=PRESENTATION_STYLE_ASSIGNMENT((#155));
#150=PRESENTATION_STYLE_ASSIGNMENT((#156));
#151=PRESENTATION_STYLE_ASSIGNMENT((#157));
#152=PRESENTATION_STYLE_ASSIGNMENT((#27));
#153=PRESENTATION_STYLE_ASSIGNMENT((#28));
#154=PRESENTATION_STYLE_ASSIGNMENT((#29));
#155=CURVE_STYLE('',#161,POSITIVE_LENGTH_MEASURE(0.18),#158);
#156=CURVE_STYLE('',#162,POSITIVE_LENGTH_MEASURE(0.18),#158);
#157=CURVE_STYLE('',#163,POSITIVE_LENGTH_MEASURE(0.18),#158);
#158=COLOUR_RGB('Strong Stone',0.576470588235294,0.54508278019379,0.392156862745098);
#159=COLOUR_RGB('Medium Gray',0.490196078431373,0.490196078431373,0.490196078431373);
#160=COLOUR_RGB('Light Gray',0.8,0.8,0.8);
#161=DRAUGHTING_PRE_DEFINED_CURVE_FONT('continuous');
#162=DRAUGHTING_PRE_DEFINED_CURVE_FONT('continuous');
#163=DRAUGHTING_PRE_DEFINED_CURVE_FONT('continuous');
#164=AXIS2_PLACEMENT_3D('',#233,#187,#188);
#165=AXIS2_PLACEMENT_3D('MCS',#234,#189,#190);
#166=AXIS2_PLACEMENT_3D('PCS',#235,#191,#192);
#167=AXIS2_PLACEMENT_3D('CIP',#236,#193,#194);
#168=AXIS2_PLACEMENT_3D('',#237,#195,#196);
#169=AXIS2_PLACEMENT_3D('',#239,#197,#198);
#170=AXIS2_PLACEMENT_3D('',#240,#199,#200);
#171=AXIS2_PLACEMENT_3D('',#242,#201,#202);
#172=AXIS2_PLACEMENT_3D('',#243,#203,#204);
#173=AXIS2_PLACEMENT_3D('',#245,#205,#206);
#174=AXIS2_PLACEMENT_3D('',#246,#207,#208);
#175=AXIS2_PLACEMENT_3D('',#247,#209,#210);
#176=AXIS2_PLACEMENT_3D('',#249,#211,#212);
#177=AXIS2_PLACEMENT_3D('',#250,#213,#214);
#178=AXIS2_PLACEMENT_3D('',#252,#215,#216);
#179=AXIS2_PLACEMENT_3D('',#253,#217,#218);
#180=AXIS2_PLACEMENT_3D('',#254,#219,#220);
#181=AXIS2_PLACEMENT_3D('',#256,#221,#222);
#182=AXIS2_PLACEMENT_3D('',#258,#223,#224);
#183=AXIS2_PLACEMENT_3D('',#259,#225,#226);
#184=AXIS2_PLACEMENT_3D('',#261,#227,#228);
#185=AXIS2_PLACEMENT_3D('',#262,#229,#230);
#186=AXIS2_PLACEMENT_3D('',#263,#231,#232);
#187=DIRECTION('',(0.,0.,1.));
#188=DIRECTION('',(1.,0.,0.));
#189=DIRECTION('',(0.,0.,1.));
#190=DIRECTION('',(1.,0.,0.));
#191=DIRECTION('',(0.,0.,1.));
#192=DIRECTION('',(1.,0.,0.));
#193=DIRECTION('',(0.,0.,1.));
#194=DIRECTION('',(1.,0.,0.));
#195=DIRECTION('',(0.,0.,1.));
#196=DIRECTION('',(1.,0.,0.));
#197=DIRECTION('',(0.,0.,-1.));
#198=DIRECTION('',(1.,0.,0.));
#199=DIRECTION('',(0.,0.,1.));
#200=DIRECTION('',(1.,0.,0.));
#201=DIRECTION('',(0.,0.,-1.));
#202=DIRECTION('',(1.,0.,0.));
#203=DIRECTION('',(0.,0.,1.));
#204=DIRECTION('',(1.,0.,0.));
#205=DIRECTION('',(0.,0.,1.));
#206=DIRECTION('',(-1.,0.,0.));
#207=DIRECTION('',(0.,0.,1.));
#208=DIRECTION('',(-1.,0.,0.));
#209=DIRECTION('',(0.,0.,1.));
#210=DIRECTION('',(1.,0.,0.));
#211=DIRECTION('',(0.,-3.69778549322349E-32,1.));
#212=DIRECTION('',(0.,1.,0.));
#213=DIRECTION('',(0.,0.,-1.));
#214=DIRECTION('',(1.,0.,0.));
#215=DIRECTION('',(0.,0.,1.));
#216=DIRECTION('',(-1.,0.,-5.86071192233302E-16));
#217=DIRECTION('',(0.,0.,-1.));
#218=DIRECTION('',(1.,0.,0.));
#219=DIRECTION('',(0.,0.,1.));
#220=DIRECTION('',(1.,0.,0.));
#221=DIRECTION('',(0.,0.,-1.));
#222=DIRECTION('',(1.,0.,0.));
#223=DIRECTION('',(0.,0.,1.));
#224=DIRECTION('',(-1.,0.,0.));
#225=DIRECTION('',(0.,0.,-1.));
#226=DIRECTION('',(1.,0.,0.));
#227=DIRECTION('',(0.,0.,1.));
#228=DIRECTION('',(-1.,0.,0.));
#229=DIRECTION('',(0.,0.,-1.));
#230=DIRECTION('',(1.,0.,0.));
#231=DIRECTION('',(0.,0.,1.));
#232=DIRECTION('',(-1.,0.,0.));
#233=CARTESIAN_POINT('',(0.,0.,0.));
#234=CARTESIAN_POINT('',(0.,0.,0.));
#235=CARTESIAN_POINT('',(0.,0.,36.));
#236=CARTESIAN_POINT('',(0.,0.,-27.));
#237=CARTESIAN_POINT('',(0.,0.,36.));
#238=CARTESIAN_POINT('',(3.39999999999918,0.,36.));
#239=CARTESIAN_POINT('',(0.,3.39999999999918,36.));
#240=CARTESIAN_POINT('',(0.,0.,35.4000000000001));
#241=CARTESIAN_POINT('',(4.,0.,35.4000000000001));
#242=CARTESIAN_POINT('',(0.,0.,35.4000000000001));
#243=CARTESIAN_POINT('',(0.,0.,0.));
#244=CARTESIAN_POINT('',(4.,0.,0.));
#245=CARTESIAN_POINT('',(0.,0.,0.));
#246=CARTESIAN_POINT('',(0.,0.,0.));
#247=CARTESIAN_POINT('',(0.,0.,-25.0906283383274));
#248=CARTESIAN_POINT('',(1.99794557090327,0.,-25.0906283383274));
#249=CARTESIAN_POINT('',(0.,0.,-25.));
#250=CARTESIAN_POINT('',(0.,0.,-3.49999999999864));
#251=CARTESIAN_POINT('',(2.97731297621881,0.,-3.49999999999864));
#252=CARTESIAN_POINT('',(0.,0.,-25.0906283383274));
#253=CARTESIAN_POINT('',(0.,0.,-3.49999999999864));
#254=CARTESIAN_POINT('',(0.,0.,-0.689827417819595));
#255=CARTESIAN_POINT('',(3.99999999999998,0.,-0.689827417819595));
#256=CARTESIAN_POINT('',(0.,0.,0.));
#257=CARTESIAN_POINT('',(4.,0.,0.));
#258=CARTESIAN_POINT('',(0.,0.,0.));
#259=CARTESIAN_POINT('',(0.,0.,-3.49999999999864));
#260=CARTESIAN_POINT('',(2.97731297621881,0.,-3.49999999999864));
#261=CARTESIAN_POINT('',(0.,0.,-3.7265708458167));
#262=CARTESIAN_POINT('',(0.,0.,-3.49999999999864));
#263=CARTESIAN_POINT('',(0.,0.,0.));
#264=MECHANICAL_DESIGN_GEOMETRIC_PRESENTATION_REPRESENTATION('',(#143,#144,
#145,#146,#147,#148),#265);
#265=(
GEOMETRIC_REPRESENTATION_CONTEXT(3)
GLOBAL_UNCERTAINTY_ASSIGNED_CONTEXT((#266))
GLOBAL_UNIT_ASSIGNED_CONTEXT((#272,#268,#267))
REPRESENTATION_CONTEXT('JH780038N2R200','TOP_LEVEL_ASSEMBLY_PART')
);
#266=UNCERTAINTY_MEASURE_WITH_UNIT(LENGTH_MEASURE(2.E-5),#272,
'DISTANCE_ACCURACY_VALUE','Maximum Tolerance applied to model');
#267=(
NAMED_UNIT(*)
SI_UNIT($,.STERADIAN.)
SOLID_ANGLE_UNIT()
);
#268=(
CONVERSION_BASED_UNIT('DEGREE',#270)
NAMED_UNIT(#269)
PLANE_ANGLE_UNIT()
);
#269=DIMENSIONAL_EXPONENTS(0.,0.,0.,0.,0.,0.,0.);
#270=PLANE_ANGLE_MEASURE_WITH_UNIT(PLANE_ANGLE_MEASURE(0.0174532925),#271);
#271=(
NAMED_UNIT(*)
PLANE_ANGLE_UNIT()
SI_UNIT($,.RADIAN.)
);
#272=(
LENGTH_UNIT()
NAMED_UNIT(*)
SI_UNIT(.MILLI.,.METRE.)
);
ENDSEC;
END-ISO-10303-21;
