ISO-10303-21;
HEADER;
/* Generated by software containing ST-Developer
 * from STEP Tools, Inc. (www.steptools.com) 
 */
/* OPTION: using custom schema-name function */

FILE_DESCRIPTION(
/* description */ (''),
/* implementation_level */ '2;1');

FILE_NAME(
/* name */ 'DTM-M10X1.5ISO-12R1.stp',
/* time_stamp */ '2017-09-14T08:51:19+05:00',
/* author */ (''),
/* organization */ (''),
/* preprocessor_version */ 'ST-DEVELOPER v16',
/* originating_system */ 'SIEMENS PLM Software NX 11.0',
/* authorisation */ '');

FILE_SCHEMA (('AUTOMOTIVE_DESIGN { 1 0 10303 214 3 1 1 1 }'));
ENDSEC;

DATA;
#10=CONSTRUCTIVE_GEOMETRY_REPRESENTATION_RELATIONSHIP(
'supplemental geometry','',#24,#11);
#11=CONSTRUCTIVE_GEOMETRY_REPRESENTATION('supplemental geometry',(#388,
#389,#390),#669);
#12=SHAPE_REPRESENTATION_RELATIONSHIP('None',
'relationship between DTM-M10X1.5ISO-12R1-None and DTM-M10X1.5ISO-12R1
-None',#24,#13);
#13=ADVANCED_BREP_SHAPE_REPRESENTATION('DTM-M10X1.5ISO-12R1-None',(#41,
#42,#43),#669);
#14=SHAPE_DEFINITION_REPRESENTATION(#15,#24);
#15=PRODUCT_DEFINITION_SHAPE('','',#16);
#16=PRODUCT_DEFINITION(' ','',#18,#17);
#17=PRODUCT_DEFINITION_CONTEXT('part definition',#23,'design');
#18=PRODUCT_DEFINITION_FORMATION_WITH_SPECIFIED_SOURCE(' ',' ',#20,
 .NOT_KNOWN.);
#19=PRODUCT_RELATED_PRODUCT_CATEGORY('part','',(#20));
#20=PRODUCT('DTM-M10X1.5ISO-12R1','DTM-M10X1.5ISO-12R1',' ',(#21));
#21=PRODUCT_CONTEXT(' ',#23,'mechanical');
#22=APPLICATION_PROTOCOL_DEFINITION('international standard',
'automotive_design',2010,#23);
#23=APPLICATION_CONTEXT(
'core data for automotive mechanical design processes');
#24=SHAPE_REPRESENTATION('DTM-M10X1.5ISO-12R1-None',(#387),#669);
#25=VERTEX_LOOP('',#289);
#26=SURFACE_STYLE_USAGE(.BOTH.,#29);
#27=SURFACE_STYLE_USAGE(.BOTH.,#30);
#28=SURFACE_STYLE_USAGE(.BOTH.,#31);
#29=SURFACE_SIDE_STYLE('',(#32));
#30=SURFACE_SIDE_STYLE('',(#33));
#31=SURFACE_SIDE_STYLE('',(#34));
#32=SURFACE_STYLE_FILL_AREA(#35);
#33=SURFACE_STYLE_FILL_AREA(#36);
#34=SURFACE_STYLE_FILL_AREA(#37);
#35=FILL_AREA_STYLE('',(#38));
#36=FILL_AREA_STYLE('',(#39));
#37=FILL_AREA_STYLE('',(#40));
#38=FILL_AREA_STYLE_COLOUR('',#382);
#39=FILL_AREA_STYLE_COLOUR('',#382);
#40=FILL_AREA_STYLE_COLOUR('',#383);
#41=MANIFOLD_SOLID_BREP('NOCUT',#44);
#42=MANIFOLD_SOLID_BREP('NOCUT',#45);
#43=MANIFOLD_SOLID_BREP('CUT',#46);
#44=CLOSED_SHELL('',(#124,#125,#126,#127));
#45=CLOSED_SHELL('',(#128,#129,#130,#131,#132,#133,#134,#135));
#46=CLOSED_SHELL('',(#136,#137,#138,#139,#140,#141,#142,#143,#144,#145,
#146,#147,#148,#149,#150,#151,#152,#153,#154));
#47=CONICAL_SURFACE('',#396,5.5,45.);
#48=CONICAL_SURFACE('',#403,5.5,44.9999999999995);
#49=CONICAL_SURFACE('',#409,5.88999999999999,30.9637565320656);
#50=CONICAL_SURFACE('',#411,5.97,28.0724869358557);
#51=CONICAL_SURFACE('',#412,6.,30.9637565321266);
#52=CONICAL_SURFACE('',#414,0.,79.9920201985578);
#53=CONICAL_SURFACE('',#416,0.849999999999909,79.2157021324386);
#54=CONICAL_SURFACE('',#418,1.27000000000001,70.3461759419456);
#55=CONICAL_SURFACE('',#420,1.69,69.9047688080954);
#56=CONICAL_SURFACE('',#422,2.91999999999999,70.3461759419485);
#57=CONICAL_SURFACE('',#424,3.34,69.9047688080988);
#58=CONICAL_SURFACE('',#426,4.16,71.5650511770773);
#59=CONICAL_SURFACE('',#430,4.25,60.0183606311528);
#60=CONICAL_SURFACE('',#432,3.20999999999989,71.5650511770971);
#61=CONICAL_SURFACE('',#436,3.17999999999989,60.0183606311542);
#62=CONICAL_SURFACE('',#438,3.96000000000001,63.4349488228979);
#63=CONICAL_SURFACE('',#442,4.03999999999991,60.018360631175);
#64=CONICAL_SURFACE('',#444,4.22,71.5650511770676);
#65=CONICAL_SURFACE('',#446,5.,45.0000000000027);
#66=CONICAL_SURFACE('',#448,5.15000000000001,44.9999999992345);
#67=CYLINDRICAL_SURFACE('',#394,6.);
#68=CYLINDRICAL_SURFACE('',#405,5.5);
#69=CYLINDRICAL_SURFACE('',#428,4.25);
#70=CYLINDRICAL_SURFACE('',#434,3.17999999999989);
#71=CYLINDRICAL_SURFACE('',#440,4.03999999999991);
#72=FACE_BOUND('',#167,.T.);
#73=FACE_BOUND('',#168,.T.);
#74=FACE_BOUND('',#169,.T.);
#75=FACE_BOUND('',#170,.T.);
#76=FACE_BOUND('',#174,.T.);
#77=FACE_BOUND('',#175,.T.);
#78=FACE_BOUND('',#176,.T.);
#79=FACE_BOUND('',#177,.T.);
#80=FACE_BOUND('',#178,.T.);
#81=FACE_BOUND('',#179,.T.);
#82=FACE_BOUND('',#180,.T.);
#83=FACE_BOUND('',#181,.T.);
#84=FACE_BOUND('',#182,.T.);
#85=FACE_BOUND('',#183,.T.);
#86=FACE_BOUND('',#184,.T.);
#87=FACE_BOUND('',#185,.T.);
#88=FACE_BOUND('',#186,.T.);
#89=FACE_BOUND('',#25,.T.);
#90=FACE_BOUND('',#187,.T.);
#91=FACE_BOUND('',#188,.T.);
#92=FACE_BOUND('',#189,.T.);
#93=FACE_BOUND('',#190,.T.);
#94=FACE_BOUND('',#191,.T.);
#95=FACE_BOUND('',#192,.T.);
#96=FACE_BOUND('',#193,.T.);
#97=FACE_BOUND('',#194,.T.);
#98=FACE_BOUND('',#195,.T.);
#99=FACE_BOUND('',#196,.T.);
#100=FACE_BOUND('',#197,.T.);
#101=FACE_BOUND('',#198,.T.);
#102=FACE_BOUND('',#199,.T.);
#103=FACE_BOUND('',#200,.T.);
#104=FACE_BOUND('',#201,.T.);
#105=FACE_BOUND('',#202,.T.);
#106=FACE_BOUND('',#203,.T.);
#107=FACE_BOUND('',#204,.T.);
#108=FACE_BOUND('',#205,.T.);
#109=FACE_BOUND('',#206,.T.);
#110=FACE_BOUND('',#207,.T.);
#111=FACE_BOUND('',#208,.T.);
#112=FACE_BOUND('',#209,.T.);
#113=FACE_BOUND('',#210,.T.);
#114=FACE_BOUND('',#211,.T.);
#115=FACE_BOUND('',#212,.T.);
#116=FACE_BOUND('',#213,.T.);
#117=FACE_BOUND('',#214,.T.);
#118=FACE_BOUND('',#215,.T.);
#119=FACE_BOUND('',#216,.T.);
#120=FACE_BOUND('',#217,.T.);
#121=FACE_BOUND('',#218,.T.);
#122=FACE_BOUND('',#219,.T.);
#123=FACE_BOUND('',#220,.T.);
#124=ADVANCED_FACE('',(#161),#155,.T.);
#125=ADVANCED_FACE('',(#72,#73),#67,.T.);
#126=ADVANCED_FACE('',(#74,#75),#47,.T.);
#127=ADVANCED_FACE('',(#162),#156,.T.);
#128=ADVANCED_FACE('',(#163),#157,.F.);
#129=ADVANCED_FACE('',(#164),#158,.F.);
#130=ADVANCED_FACE('',(#76,#77),#48,.T.);
#131=ADVANCED_FACE('',(#78,#79),#68,.T.);
#132=ADVANCED_FACE('',(#80,#81),#159,.F.);
#133=ADVANCED_FACE('',(#82,#83),#49,.T.);
#134=ADVANCED_FACE('',(#84,#85),#50,.T.);
#135=ADVANCED_FACE('',(#86,#87),#51,.T.);
#136=ADVANCED_FACE('',(#88,#89),#52,.T.);
#137=ADVANCED_FACE('',(#90,#91),#53,.T.);
#138=ADVANCED_FACE('',(#92,#93),#54,.T.);
#139=ADVANCED_FACE('',(#94,#95),#55,.T.);
#140=ADVANCED_FACE('',(#96,#97),#56,.T.);
#141=ADVANCED_FACE('',(#98,#99),#57,.T.);
#142=ADVANCED_FACE('',(#100,#101),#58,.T.);
#143=ADVANCED_FACE('',(#102,#103),#69,.T.);
#144=ADVANCED_FACE('',(#104,#105),#59,.T.);
#145=ADVANCED_FACE('',(#106,#107),#60,.T.);
#146=ADVANCED_FACE('',(#108,#109),#70,.T.);
#147=ADVANCED_FACE('',(#110,#111),#61,.T.);
#148=ADVANCED_FACE('',(#112,#113),#62,.T.);
#149=ADVANCED_FACE('',(#114,#115),#71,.T.);
#150=ADVANCED_FACE('',(#116,#117),#63,.T.);
#151=ADVANCED_FACE('',(#118,#119),#64,.T.);
#152=ADVANCED_FACE('',(#120,#121),#65,.T.);
#153=ADVANCED_FACE('',(#122,#123),#66,.T.);
#154=ADVANCED_FACE('',(#165),#160,.T.);
#155=PLANE('',#392);
#156=PLANE('',#397);
#157=PLANE('',#399);
#158=PLANE('',#401);
#159=PLANE('',#407);
#160=PLANE('',#449);
#161=FACE_OUTER_BOUND('',#166,.T.);
#162=FACE_OUTER_BOUND('',#171,.T.);
#163=FACE_OUTER_BOUND('',#172,.T.);
#164=FACE_OUTER_BOUND('',#173,.T.);
#165=FACE_OUTER_BOUND('',#221,.T.);
#166=EDGE_LOOP('',(#222));
#167=EDGE_LOOP('',(#223));
#168=EDGE_LOOP('',(#224));
#169=EDGE_LOOP('',(#225));
#170=EDGE_LOOP('',(#226));
#171=EDGE_LOOP('',(#227));
#172=EDGE_LOOP('',(#228));
#173=EDGE_LOOP('',(#229));
#174=EDGE_LOOP('',(#230));
#175=EDGE_LOOP('',(#231));
#176=EDGE_LOOP('',(#232));
#177=EDGE_LOOP('',(#233));
#178=EDGE_LOOP('',(#234));
#179=EDGE_LOOP('',(#235));
#180=EDGE_LOOP('',(#236));
#181=EDGE_LOOP('',(#237));
#182=EDGE_LOOP('',(#238));
#183=EDGE_LOOP('',(#239));
#184=EDGE_LOOP('',(#240));
#185=EDGE_LOOP('',(#241));
#186=EDGE_LOOP('',(#242));
#187=EDGE_LOOP('',(#243));
#188=EDGE_LOOP('',(#244));
#189=EDGE_LOOP('',(#245));
#190=EDGE_LOOP('',(#246));
#191=EDGE_LOOP('',(#247));
#192=EDGE_LOOP('',(#248));
#193=EDGE_LOOP('',(#249));
#194=EDGE_LOOP('',(#250));
#195=EDGE_LOOP('',(#251));
#196=EDGE_LOOP('',(#252));
#197=EDGE_LOOP('',(#253));
#198=EDGE_LOOP('',(#254));
#199=EDGE_LOOP('',(#255));
#200=EDGE_LOOP('',(#256));
#201=EDGE_LOOP('',(#257));
#202=EDGE_LOOP('',(#258));
#203=EDGE_LOOP('',(#259));
#204=EDGE_LOOP('',(#260));
#205=EDGE_LOOP('',(#261));
#206=EDGE_LOOP('',(#262));
#207=EDGE_LOOP('',(#263));
#208=EDGE_LOOP('',(#264));
#209=EDGE_LOOP('',(#265));
#210=EDGE_LOOP('',(#266));
#211=EDGE_LOOP('',(#267));
#212=EDGE_LOOP('',(#268));
#213=EDGE_LOOP('',(#269));
#214=EDGE_LOOP('',(#270));
#215=EDGE_LOOP('',(#271));
#216=EDGE_LOOP('',(#272));
#217=EDGE_LOOP('',(#273));
#218=EDGE_LOOP('',(#274));
#219=EDGE_LOOP('',(#275));
#220=EDGE_LOOP('',(#276));
#221=EDGE_LOOP('',(#277));
#222=ORIENTED_EDGE('',*,*,#307,.F.);
#223=ORIENTED_EDGE('',*,*,#307,.T.);
#224=ORIENTED_EDGE('',*,*,#308,.F.);
#225=ORIENTED_EDGE('',*,*,#308,.T.);
#226=ORIENTED_EDGE('',*,*,#309,.F.);
#227=ORIENTED_EDGE('',*,*,#309,.T.);
#228=ORIENTED_EDGE('',*,*,#310,.F.);
#229=ORIENTED_EDGE('',*,*,#311,.T.);
#230=ORIENTED_EDGE('',*,*,#312,.T.);
#231=ORIENTED_EDGE('',*,*,#311,.F.);
#232=ORIENTED_EDGE('',*,*,#312,.F.);
#233=ORIENTED_EDGE('',*,*,#313,.T.);
#234=ORIENTED_EDGE('',*,*,#313,.F.);
#235=ORIENTED_EDGE('',*,*,#314,.T.);
#236=ORIENTED_EDGE('',*,*,#314,.F.);
#237=ORIENTED_EDGE('',*,*,#315,.T.);
#238=ORIENTED_EDGE('',*,*,#315,.F.);
#239=ORIENTED_EDGE('',*,*,#316,.T.);
#240=ORIENTED_EDGE('',*,*,#316,.F.);
#241=ORIENTED_EDGE('',*,*,#310,.T.);
#242=ORIENTED_EDGE('',*,*,#317,.T.);
#243=ORIENTED_EDGE('',*,*,#318,.T.);
#244=ORIENTED_EDGE('',*,*,#317,.F.);
#245=ORIENTED_EDGE('',*,*,#319,.T.);
#246=ORIENTED_EDGE('',*,*,#318,.F.);
#247=ORIENTED_EDGE('',*,*,#320,.T.);
#248=ORIENTED_EDGE('',*,*,#319,.F.);
#249=ORIENTED_EDGE('',*,*,#321,.T.);
#250=ORIENTED_EDGE('',*,*,#320,.F.);
#251=ORIENTED_EDGE('',*,*,#322,.T.);
#252=ORIENTED_EDGE('',*,*,#321,.F.);
#253=ORIENTED_EDGE('',*,*,#323,.T.);
#254=ORIENTED_EDGE('',*,*,#322,.F.);
#255=ORIENTED_EDGE('',*,*,#324,.T.);
#256=ORIENTED_EDGE('',*,*,#323,.F.);
#257=ORIENTED_EDGE('',*,*,#325,.T.);
#258=ORIENTED_EDGE('',*,*,#324,.F.);
#259=ORIENTED_EDGE('',*,*,#326,.T.);
#260=ORIENTED_EDGE('',*,*,#325,.F.);
#261=ORIENTED_EDGE('',*,*,#327,.T.);
#262=ORIENTED_EDGE('',*,*,#326,.F.);
#263=ORIENTED_EDGE('',*,*,#328,.T.);
#264=ORIENTED_EDGE('',*,*,#327,.F.);
#265=ORIENTED_EDGE('',*,*,#329,.T.);
#266=ORIENTED_EDGE('',*,*,#328,.F.);
#267=ORIENTED_EDGE('',*,*,#330,.T.);
#268=ORIENTED_EDGE('',*,*,#329,.F.);
#269=ORIENTED_EDGE('',*,*,#331,.T.);
#270=ORIENTED_EDGE('',*,*,#330,.F.);
#271=ORIENTED_EDGE('',*,*,#332,.T.);
#272=ORIENTED_EDGE('',*,*,#331,.F.);
#273=ORIENTED_EDGE('',*,*,#333,.T.);
#274=ORIENTED_EDGE('',*,*,#332,.F.);
#275=ORIENTED_EDGE('',*,*,#334,.T.);
#276=ORIENTED_EDGE('',*,*,#333,.F.);
#277=ORIENTED_EDGE('',*,*,#334,.F.);
#278=VERTEX_POINT('',#581);
#279=VERTEX_POINT('',#584);
#280=VERTEX_POINT('',#587);
#281=VERTEX_POINT('',#591);
#282=VERTEX_POINT('',#594);
#283=VERTEX_POINT('',#597);
#284=VERTEX_POINT('',#600);
#285=VERTEX_POINT('',#603);
#286=VERTEX_POINT('',#606);
#287=VERTEX_POINT('',#609);
#288=VERTEX_POINT('',#613);
#289=VERTEX_POINT('',#614);
#290=VERTEX_POINT('',#617);
#291=VERTEX_POINT('',#620);
#292=VERTEX_POINT('',#623);
#293=VERTEX_POINT('',#626);
#294=VERTEX_POINT('',#629);
#295=VERTEX_POINT('',#632);
#296=VERTEX_POINT('',#635);
#297=VERTEX_POINT('',#638);
#298=VERTEX_POINT('',#641);
#299=VERTEX_POINT('',#644);
#300=VERTEX_POINT('',#647);
#301=VERTEX_POINT('',#650);
#302=VERTEX_POINT('',#653);
#303=VERTEX_POINT('',#656);
#304=VERTEX_POINT('',#659);
#305=VERTEX_POINT('',#662);
#306=VERTEX_POINT('',#665);
#307=EDGE_CURVE('',#278,#278,#335,.T.);
#308=EDGE_CURVE('',#279,#279,#336,.T.);
#309=EDGE_CURVE('',#280,#280,#337,.T.);
#310=EDGE_CURVE('',#281,#281,#338,.T.);
#311=EDGE_CURVE('',#282,#282,#339,.T.);
#312=EDGE_CURVE('',#283,#283,#340,.T.);
#313=EDGE_CURVE('',#284,#284,#341,.T.);
#314=EDGE_CURVE('',#285,#285,#342,.T.);
#315=EDGE_CURVE('',#286,#286,#343,.T.);
#316=EDGE_CURVE('',#287,#287,#344,.T.);
#317=EDGE_CURVE('',#288,#288,#345,.T.);
#318=EDGE_CURVE('',#290,#290,#346,.T.);
#319=EDGE_CURVE('',#291,#291,#347,.T.);
#320=EDGE_CURVE('',#292,#292,#348,.T.);
#321=EDGE_CURVE('',#293,#293,#349,.T.);
#322=EDGE_CURVE('',#294,#294,#350,.T.);
#323=EDGE_CURVE('',#295,#295,#351,.T.);
#324=EDGE_CURVE('',#296,#296,#352,.T.);
#325=EDGE_CURVE('',#297,#297,#353,.T.);
#326=EDGE_CURVE('',#298,#298,#354,.T.);
#327=EDGE_CURVE('',#299,#299,#355,.T.);
#328=EDGE_CURVE('',#300,#300,#356,.T.);
#329=EDGE_CURVE('',#301,#301,#357,.T.);
#330=EDGE_CURVE('',#302,#302,#358,.T.);
#331=EDGE_CURVE('',#303,#303,#359,.T.);
#332=EDGE_CURVE('',#304,#304,#360,.T.);
#333=EDGE_CURVE('',#305,#305,#361,.T.);
#334=EDGE_CURVE('',#306,#306,#362,.T.);
#335=CIRCLE('',#391,6.);
#336=CIRCLE('',#393,6.);
#337=CIRCLE('',#395,5.5);
#338=CIRCLE('',#398,6.);
#339=CIRCLE('',#400,5.1537329999999);
#340=CIRCLE('',#402,5.5);
#341=CIRCLE('',#404,5.5);
#342=CIRCLE('',#406,5.70800019999999);
#343=CIRCLE('',#408,5.88999999999999);
#344=CIRCLE('',#410,5.97);
#345=CIRCLE('',#413,0.849999999999909);
#346=CIRCLE('',#415,1.27000000000001);
#347=CIRCLE('',#417,1.69);
#348=CIRCLE('',#419,2.91999999999999);
#349=CIRCLE('',#421,3.34);
#350=CIRCLE('',#423,4.16);
#351=CIRCLE('',#425,4.25);
#352=CIRCLE('',#427,4.25);
#353=CIRCLE('',#429,3.20999999999989);
#354=CIRCLE('',#431,3.17999999999989);
#355=CIRCLE('',#433,3.17999999999989);
#356=CIRCLE('',#435,3.96000000000001);
#357=CIRCLE('',#437,4.03999999999991);
#358=CIRCLE('',#439,4.03999999999991);
#359=CIRCLE('',#441,4.22);
#360=CIRCLE('',#443,4.25);
#361=CIRCLE('',#445,5.15000000000001);
#362=CIRCLE('',#447,5.1537329999999);
#363=PRESENTATION_LAYER_ASSIGNMENT('1','Layer 1',(#388,#389,#390,#41));
#364=PRESENTATION_LAYER_ASSIGNMENT('2','Layer 2',(#42));
#365=PRESENTATION_LAYER_ASSIGNMENT('3','Layer 3',(#43));
#366=STYLED_ITEM('',(#372),#388);
#367=STYLED_ITEM('',(#373),#389);
#368=STYLED_ITEM('',(#374),#390);
#369=STYLED_ITEM('',(#375),#41);
#370=STYLED_ITEM('',(#376),#42);
#371=STYLED_ITEM('',(#377),#43);
#372=PRESENTATION_STYLE_ASSIGNMENT((#378));
#373=PRESENTATION_STYLE_ASSIGNMENT((#379));
#374=PRESENTATION_STYLE_ASSIGNMENT((#380));
#375=PRESENTATION_STYLE_ASSIGNMENT((#26));
#376=PRESENTATION_STYLE_ASSIGNMENT((#27));
#377=PRESENTATION_STYLE_ASSIGNMENT((#28));
#378=CURVE_STYLE('',#384,POSITIVE_LENGTH_MEASURE(0.18),#381);
#379=CURVE_STYLE('',#385,POSITIVE_LENGTH_MEASURE(0.18),#381);
#380=CURVE_STYLE('',#386,POSITIVE_LENGTH_MEASURE(0.18),#381);
#381=COLOUR_RGB('Medium Maroon',0.6,0.4,0.4);
#382=COLOUR_RGB('Medium Gray',0.490196078431373,0.490196078431373,0.490196078431373);
#383=COLOUR_RGB('Light Gray',0.8,0.8,0.8);
#384=DRAUGHTING_PRE_DEFINED_CURVE_FONT('continuous');
#385=DRAUGHTING_PRE_DEFINED_CURVE_FONT('continuous');
#386=DRAUGHTING_PRE_DEFINED_CURVE_FONT('continuous');
#387=AXIS2_PLACEMENT_3D('',#576,#450,#451);
#388=AXIS2_PLACEMENT_3D('MCS',#577,#452,#453);
#389=AXIS2_PLACEMENT_3D('PCS',#578,#454,#455);
#390=AXIS2_PLACEMENT_3D('CIP',#579,#456,#457);
#391=AXIS2_PLACEMENT_3D('',#580,#458,#459);
#392=AXIS2_PLACEMENT_3D('',#582,#460,#461);
#393=AXIS2_PLACEMENT_3D('',#583,#462,#463);
#394=AXIS2_PLACEMENT_3D('',#585,#464,#465);
#395=AXIS2_PLACEMENT_3D('',#586,#466,#467);
#396=AXIS2_PLACEMENT_3D('',#588,#468,#469);
#397=AXIS2_PLACEMENT_3D('',#589,#470,#471);
#398=AXIS2_PLACEMENT_3D('',#590,#472,#473);
#399=AXIS2_PLACEMENT_3D('',#592,#474,#475);
#400=AXIS2_PLACEMENT_3D('',#593,#476,#477);
#401=AXIS2_PLACEMENT_3D('',#595,#478,#479);
#402=AXIS2_PLACEMENT_3D('',#596,#480,#481);
#403=AXIS2_PLACEMENT_3D('',#598,#482,#483);
#404=AXIS2_PLACEMENT_3D('',#599,#484,#485);
#405=AXIS2_PLACEMENT_3D('',#601,#486,#487);
#406=AXIS2_PLACEMENT_3D('',#602,#488,#489);
#407=AXIS2_PLACEMENT_3D('',#604,#490,#491);
#408=AXIS2_PLACEMENT_3D('',#605,#492,#493);
#409=AXIS2_PLACEMENT_3D('',#607,#494,#495);
#410=AXIS2_PLACEMENT_3D('',#608,#496,#497);
#411=AXIS2_PLACEMENT_3D('',#610,#498,#499);
#412=AXIS2_PLACEMENT_3D('',#611,#500,#501);
#413=AXIS2_PLACEMENT_3D('',#612,#502,#503);
#414=AXIS2_PLACEMENT_3D('',#615,#504,#505);
#415=AXIS2_PLACEMENT_3D('',#616,#506,#507);
#416=AXIS2_PLACEMENT_3D('',#618,#508,#509);
#417=AXIS2_PLACEMENT_3D('',#619,#510,#511);
#418=AXIS2_PLACEMENT_3D('',#621,#512,#513);
#419=AXIS2_PLACEMENT_3D('',#622,#514,#515);
#420=AXIS2_PLACEMENT_3D('',#624,#516,#517);
#421=AXIS2_PLACEMENT_3D('',#625,#518,#519);
#422=AXIS2_PLACEMENT_3D('',#627,#520,#521);
#423=AXIS2_PLACEMENT_3D('',#628,#522,#523);
#424=AXIS2_PLACEMENT_3D('',#630,#524,#525);
#425=AXIS2_PLACEMENT_3D('',#631,#526,#527);
#426=AXIS2_PLACEMENT_3D('',#633,#528,#529);
#427=AXIS2_PLACEMENT_3D('',#634,#530,#531);
#428=AXIS2_PLACEMENT_3D('',#636,#532,#533);
#429=AXIS2_PLACEMENT_3D('',#637,#534,#535);
#430=AXIS2_PLACEMENT_3D('',#639,#536,#537);
#431=AXIS2_PLACEMENT_3D('',#640,#538,#539);
#432=AXIS2_PLACEMENT_3D('',#642,#540,#541);
#433=AXIS2_PLACEMENT_3D('',#643,#542,#543);
#434=AXIS2_PLACEMENT_3D('',#645,#544,#545);
#435=AXIS2_PLACEMENT_3D('',#646,#546,#547);
#436=AXIS2_PLACEMENT_3D('',#648,#548,#549);
#437=AXIS2_PLACEMENT_3D('',#649,#550,#551);
#438=AXIS2_PLACEMENT_3D('',#651,#552,#553);
#439=AXIS2_PLACEMENT_3D('',#652,#554,#555);
#440=AXIS2_PLACEMENT_3D('',#654,#556,#557);
#441=AXIS2_PLACEMENT_3D('',#655,#558,#559);
#442=AXIS2_PLACEMENT_3D('',#657,#560,#561);
#443=AXIS2_PLACEMENT_3D('',#658,#562,#563);
#444=AXIS2_PLACEMENT_3D('',#660,#564,#565);
#445=AXIS2_PLACEMENT_3D('',#661,#566,#567);
#446=AXIS2_PLACEMENT_3D('',#663,#568,#569);
#447=AXIS2_PLACEMENT_3D('',#664,#570,#571);
#448=AXIS2_PLACEMENT_3D('',#666,#572,#573);
#449=AXIS2_PLACEMENT_3D('',#667,#574,#575);
#450=DIRECTION('',(0.,0.,1.));
#451=DIRECTION('',(1.,0.,0.));
#452=DIRECTION('',(0.,0.,1.));
#453=DIRECTION('',(1.,0.,0.));
#454=DIRECTION('',(0.,0.,1.));
#455=DIRECTION('',(1.,0.,0.));
#456=DIRECTION('',(0.,0.,1.));
#457=DIRECTION('',(1.,0.,0.));
#458=DIRECTION('',(0.,0.,1.));
#459=DIRECTION('',(1.,0.,0.));
#460=DIRECTION('',(0.,0.,-1.));
#461=DIRECTION('',(1.,0.,0.));
#462=DIRECTION('',(0.,0.,1.));
#463=DIRECTION('',(1.,0.,0.));
#464=DIRECTION('',(0.,0.,1.));
#465=DIRECTION('',(-1.,0.,0.));
#466=DIRECTION('',(0.,0.,1.));
#467=DIRECTION('',(1.,0.,0.));
#468=DIRECTION('',(0.,0.,-1.));
#469=DIRECTION('',(1.,0.,4.83065711858285E-17));
#470=DIRECTION('',(0.,0.,1.));
#471=DIRECTION('',(-1.,0.,0.));
#472=DIRECTION('',(0.,0.,-1.));
#473=DIRECTION('',(-1.,0.,0.));
#474=DIRECTION('',(0.,0.,-1.));
#475=DIRECTION('',(1.,0.,0.));
#476=DIRECTION('',(0.,0.,-1.));
#477=DIRECTION('',(-1.,0.,0.));
#478=DIRECTION('',(0.,0.,1.));
#479=DIRECTION('',(-1.,0.,0.));
#480=DIRECTION('',(0.,0.,-1.));
#481=DIRECTION('',(-1.,0.,0.));
#482=DIRECTION('',(0.,0.,1.));
#483=DIRECTION('',(-1.,0.,4.65813365006212E-17));
#484=DIRECTION('',(0.,0.,-1.));
#485=DIRECTION('',(-1.,0.,0.));
#486=DIRECTION('',(0.,0.,-1.));
#487=DIRECTION('',(1.,0.,0.));
#488=DIRECTION('',(0.,0.,-1.));
#489=DIRECTION('',(-1.,0.,0.));
#490=DIRECTION('',(0.,0.,1.));
#491=DIRECTION('',(-1.,0.,0.));
#492=DIRECTION('',(0.,0.,-1.));
#493=DIRECTION('',(-1.,0.,0.));
#494=DIRECTION('',(0.,0.,1.));
#495=DIRECTION('',(-1.,0.,6.07066607826209E-17));
#496=DIRECTION('',(0.,0.,-1.));
#497=DIRECTION('',(-1.,0.,0.));
#498=DIRECTION('',(0.,0.,1.));
#499=DIRECTION('',(-1.,0.,2.57076758546337E-17));
#500=DIRECTION('',(0.,0.,1.));
#501=DIRECTION('',(-1.,0.,0.));
#502=DIRECTION('',(0.,0.,-1.));
#503=DIRECTION('',(-1.,0.,0.));
#504=DIRECTION('',(0.,0.,1.));
#505=DIRECTION('',(-1.,0.,-2.44902137784983E-18));
#506=DIRECTION('',(0.,0.,-1.));
#507=DIRECTION('',(-1.,0.,0.));
#508=DIRECTION('',(0.,0.,1.));
#509=DIRECTION('',(-1.,0.,-5.28592049203953E-18));
#510=DIRECTION('',(0.,0.,-1.));
#511=DIRECTION('',(-1.,0.,0.));
#512=DIRECTION('',(0.,0.,1.));
#513=DIRECTION('',(-1.,0.,1.73393701168947E-17));
#514=DIRECTION('',(0.,0.,-1.));
#515=DIRECTION('',(-1.,0.,0.));
#516=DIRECTION('',(0.,0.,1.));
#517=DIRECTION('',(-1.,0.,1.26852554041108E-17));
#518=DIRECTION('',(0.,0.,-1.));
#519=DIRECTION('',(-1.,0.,0.));
#520=DIRECTION('',(0.,0.,1.));
#521=DIRECTION('',(-1.,0.,-4.95118940526775E-18));
#522=DIRECTION('',(0.,0.,-1.));
#523=DIRECTION('',(-1.,0.,0.));
#524=DIRECTION('',(0.,0.,1.));
#525=DIRECTION('',(-1.,0.,-1.2677607187143E-17));
#526=DIRECTION('',(0.,0.,-1.));
#527=DIRECTION('',(-1.,0.,0.));
#528=DIRECTION('',(0.,0.,1.));
#529=DIRECTION('',(-1.,0.,1.15488088249419E-17));
#530=DIRECTION('',(0.,0.,-1.));
#531=DIRECTION('',(-1.,0.,0.));
#532=DIRECTION('',(0.,0.,-1.));
#533=DIRECTION('',(1.,0.,0.));
#534=DIRECTION('',(0.,0.,-1.));
#535=DIRECTION('',(-1.,0.,0.));
#536=DIRECTION('',(0.,0.,-1.));
#537=DIRECTION('',(1.,0.,-2.59572070646356E-17));
#538=DIRECTION('',(0.,0.,-1.));
#539=DIRECTION('',(-1.,0.,0.));
#540=DIRECTION('',(0.,0.,-1.));
#541=DIRECTION('',(1.,0.,3.58126323202316E-17));
#542=DIRECTION('',(0.,0.,-1.));
#543=DIRECTION('',(-1.,0.,0.));
#544=DIRECTION('',(0.,0.,-1.));
#545=DIRECTION('',(1.,0.,0.));
#546=DIRECTION('',(0.,0.,-1.));
#547=DIRECTION('',(-1.,0.,0.));
#548=DIRECTION('',(0.,0.,1.));
#549=DIRECTION('',(-1.,0.,2.59732013049466E-17));
#550=DIRECTION('',(0.,0.,-1.));
#551=DIRECTION('',(-1.,0.,0.));
#552=DIRECTION('',(0.,0.,1.));
#553=DIRECTION('',(-1.,0.,-1.73129551086711E-18));
#554=DIRECTION('',(0.,0.,-1.));
#555=DIRECTION('',(-1.,0.,0.));
#556=DIRECTION('',(0.,0.,-1.));
#557=DIRECTION('',(1.,0.,0.));
#558=DIRECTION('',(0.,0.,-1.));
#559=DIRECTION('',(-1.,0.,0.));
#560=DIRECTION('',(0.,0.,1.));
#561=DIRECTION('',(-1.,0.,2.49618697762395E-17));
#562=DIRECTION('',(0.,0.,-1.));
#563=DIRECTION('',(-1.,0.,0.));
#564=DIRECTION('',(0.,0.,1.));
#565=DIRECTION('',(-1.,0.,2.88714454330551E-18));
#566=DIRECTION('',(0.,0.,-1.));
#567=DIRECTION('',(-1.,0.,0.));
#568=DIRECTION('',(0.,0.,1.));
#569=DIRECTION('',(-1.,0.,-8.63046505461017E-18));
#570=DIRECTION('',(0.,0.,-1.));
#571=DIRECTION('',(-1.,0.,0.));
#572=DIRECTION('',(0.,0.,1.));
#573=DIRECTION('',(-1.,0.,-2.416169593028E-17));
#574=DIRECTION('',(0.,0.,1.));
#575=DIRECTION('',(-1.,0.,0.));
#576=CARTESIAN_POINT('',(0.,0.,0.));
#577=CARTESIAN_POINT('',(0.,0.,0.));
#578=CARTESIAN_POINT('',(0.,0.,44.996667));
#579=CARTESIAN_POINT('',(0.,0.,-34.003333));
#580=CARTESIAN_POINT('',(0.,0.,3.46987046842724E-15));
#581=CARTESIAN_POINT('',(6.,0.,3.46987046842724E-15));
#582=CARTESIAN_POINT('',(0.,6.,1.76987534328786E-15));
#583=CARTESIAN_POINT('',(0.,0.,44.496667));
#584=CARTESIAN_POINT('',(6.,0.,44.496667));
#585=CARTESIAN_POINT('',(0.,0.,44.996667));
#586=CARTESIAN_POINT('',(0.,0.,44.996667));
#587=CARTESIAN_POINT('',(5.5,0.,44.996667));
#588=CARTESIAN_POINT('',(0.,0.,44.996667));
#589=CARTESIAN_POINT('',(0.,0.,44.996667));
#590=CARTESIAN_POINT('',(0.,0.,0.));
#591=CARTESIAN_POINT('',(-6.,0.,0.));
#592=CARTESIAN_POINT('',(0.,0.,0.));
#593=CARTESIAN_POINT('',(0.,0.,-10.6296));
#594=CARTESIAN_POINT('',(-5.1537329999999,0.,-10.6296));
#595=CARTESIAN_POINT('',(0.,5.1537329999999,-10.6296));
#596=CARTESIAN_POINT('',(0.,0.,-10.283333));
#597=CARTESIAN_POINT('',(-5.5,0.,-10.283333));
#598=CARTESIAN_POINT('',(0.,0.,-10.283333));
#599=CARTESIAN_POINT('',(0.,0.,-0.503332999999998));
#600=CARTESIAN_POINT('',(-5.5,0.,-0.503332999999998));
#601=CARTESIAN_POINT('',(0.,0.,-10.6296));
#602=CARTESIAN_POINT('',(0.,0.,-0.503332999999998));
#603=CARTESIAN_POINT('',(-5.70800019999999,0.,-0.503332999999998));
#604=CARTESIAN_POINT('',(0.,5.70800019999999,-0.503332999999998));
#605=CARTESIAN_POINT('',(0.,0.,-0.199999999999904));
#606=CARTESIAN_POINT('',(-5.88999999999999,0.,-0.199999999999904));
#607=CARTESIAN_POINT('',(0.,0.,-0.199999999999904));
#608=CARTESIAN_POINT('',(0.,0.,-0.0499999999998973));
#609=CARTESIAN_POINT('',(-5.97,0.,-0.0499999999998973));
#610=CARTESIAN_POINT('',(0.,0.,-0.0499999999998973));
#611=CARTESIAN_POINT('',(0.,0.,0.));
#612=CARTESIAN_POINT('',(0.,0.,-33.8533329999999));
#613=CARTESIAN_POINT('',(-0.849999999999909,0.,-33.8533329999999));
#614=CARTESIAN_POINT('',(0.,0.,-34.0033329999999));
#615=CARTESIAN_POINT('',(0.,0.,-34.0033329999999));
#616=CARTESIAN_POINT('',(0.,0.,-33.7733329999999));
#617=CARTESIAN_POINT('',(-1.27000000000001,0.,-33.7733329999999));
#618=CARTESIAN_POINT('',(0.,0.,-33.8533329999999));
#619=CARTESIAN_POINT('',(0.,0.,-33.6233329999999));
#620=CARTESIAN_POINT('',(-1.69,0.,-33.6233329999999));
#621=CARTESIAN_POINT('',(0.,0.,-33.7733329999999));
#622=CARTESIAN_POINT('',(0.,0.,-33.1733329999999));
#623=CARTESIAN_POINT('',(-2.91999999999999,0.,-33.1733329999999));
#624=CARTESIAN_POINT('',(0.,0.,-33.6233329999999));
#625=CARTESIAN_POINT('',(0.,0.,-33.0233329999999));
#626=CARTESIAN_POINT('',(-3.34,0.,-33.0233329999999));
#627=CARTESIAN_POINT('',(0.,0.,-33.1733329999999));
#628=CARTESIAN_POINT('',(0.,0.,-32.723333));
#629=CARTESIAN_POINT('',(-4.16,0.,-32.723333));
#630=CARTESIAN_POINT('',(0.,0.,-33.0233329999999));
#631=CARTESIAN_POINT('',(0.,0.,-32.693333));
#632=CARTESIAN_POINT('',(-4.25,0.,-32.693333));
#633=CARTESIAN_POINT('',(0.,0.,-32.723333));
#634=CARTESIAN_POINT('',(0.,0.,-31.193333));
#635=CARTESIAN_POINT('',(-4.25,0.,-31.193333));
#636=CARTESIAN_POINT('',(0.,0.,-10.6296));
#637=CARTESIAN_POINT('',(0.,0.,-30.593333));
#638=CARTESIAN_POINT('',(-3.20999999999989,0.,-30.593333));
#639=CARTESIAN_POINT('',(0.,0.,-31.193333));
#640=CARTESIAN_POINT('',(0.,0.,-30.583333));
#641=CARTESIAN_POINT('',(-3.17999999999989,0.,-30.583333));
#642=CARTESIAN_POINT('',(0.,0.,-30.593333));
#643=CARTESIAN_POINT('',(0.,0.,-30.213333));
#644=CARTESIAN_POINT('',(-3.17999999999989,0.,-30.213333));
#645=CARTESIAN_POINT('',(0.,0.,-10.6296));
#646=CARTESIAN_POINT('',(0.,0.,-29.763333));
#647=CARTESIAN_POINT('',(-3.96000000000001,0.,-29.763333));
#648=CARTESIAN_POINT('',(0.,0.,-30.213333));
#649=CARTESIAN_POINT('',(0.,0.,-29.723333));
#650=CARTESIAN_POINT('',(-4.03999999999991,0.,-29.723333));
#651=CARTESIAN_POINT('',(0.,0.,-29.763333));
#652=CARTESIAN_POINT('',(0.,0.,-11.6471791538461));
#653=CARTESIAN_POINT('',(-4.03999999999991,0.,-11.6471791538461));
#654=CARTESIAN_POINT('',(0.,0.,-10.6296));
#655=CARTESIAN_POINT('',(0.,0.,-11.543333));
#656=CARTESIAN_POINT('',(-4.22,0.,-11.543333));
#657=CARTESIAN_POINT('',(0.,0.,-11.6471791538461));
#658=CARTESIAN_POINT('',(0.,0.,-11.533333));
#659=CARTESIAN_POINT('',(-4.25,0.,-11.533333));
#660=CARTESIAN_POINT('',(0.,0.,-11.543333));
#661=CARTESIAN_POINT('',(0.,0.,-10.633333));
#662=CARTESIAN_POINT('',(-5.15000000000001,0.,-10.633333));
#663=CARTESIAN_POINT('',(0.,0.,-10.783333));
#664=CARTESIAN_POINT('',(0.,0.,-10.6296));
#665=CARTESIAN_POINT('',(-5.1537329999999,0.,-10.6296));
#666=CARTESIAN_POINT('',(0.,0.,-10.633333));
#667=CARTESIAN_POINT('',(0.,5.1537329999999,-10.6296));
#668=MECHANICAL_DESIGN_GEOMETRIC_PRESENTATION_REPRESENTATION('',(#366,#367,
#368,#369,#370,#371),#669);
#669=(
GEOMETRIC_REPRESENTATION_CONTEXT(3)
GLOBAL_UNCERTAINTY_ASSIGNED_CONTEXT((#670))
GLOBAL_UNIT_ASSIGNED_CONTEXT((#676,#672,#671))
REPRESENTATION_CONTEXT('DTM-M10X1','TOP_LEVEL_ASSEMBLY_PART')
);
#670=UNCERTAINTY_MEASURE_WITH_UNIT(LENGTH_MEASURE(2.E-5),#676,
'DISTANCE_ACCURACY_VALUE','Maximum Tolerance applied to model');
#671=(
NAMED_UNIT(*)
SI_UNIT($,.STERADIAN.)
SOLID_ANGLE_UNIT()
);
#672=(
CONVERSION_BASED_UNIT('DEGREE',#674)
NAMED_UNIT(#673)
PLANE_ANGLE_UNIT()
);
#673=DIMENSIONAL_EXPONENTS(0.,0.,0.,0.,0.,0.,0.);
#674=PLANE_ANGLE_MEASURE_WITH_UNIT(PLANE_ANGLE_MEASURE(0.0174532925),#675);
#675=(
NAMED_UNIT(*)
PLANE_ANGLE_UNIT()
SI_UNIT($,.RADIAN.)
);
#676=(
LENGTH_UNIT()
NAMED_UNIT(*)
SI_UNIT(.MILLI.,.METRE.)
);
ENDSEC;
END-ISO-10303-21;
