ISO-10303-21;
HEADER;
/* Generated by software containing ST-Developer
 * from STEP Tools, Inc. (www.steptools.com) 
 */
/* OPTION: using custom schema-name function */

FILE_DESCRIPTION(
/* description */ (''),
/* implementation_level */ '2;1');

FILE_NAME(
/* name */ 'DTM-5_16X24UNF-10R1.stp',
/* time_stamp */ '2017-09-14T08:51:19+05:00',
/* author */ (''),
/* organization */ (''),
/* preprocessor_version */ 'ST-DEVELOPER v16',
/* originating_system */ 'SIEMENS PLM Software NX 11.0',
/* authorisation */ '');

FILE_SCHEMA (('AUTOMOTIVE_DESIGN { 1 0 10303 214 3 1 1 1 }'));
ENDSEC;

DATA;
#10=CONSTRUCTIVE_GEOMETRY_REPRESENTATION_RELATIONSHIP(
'supplemental geometry','',#24,#11);
#11=CONSTRUCTIVE_GEOMETRY_REPRESENTATION('supplemental geometry',(#311,
#312,#313),#529);
#12=SHAPE_REPRESENTATION_RELATIONSHIP('None',
'relationship between DTM-5_16X24UNF-10R1-None and DTM-5_16X24UNF-10R1
-None',#24,#13);
#13=ADVANCED_BREP_SHAPE_REPRESENTATION('DTM-5_16X24UNF-10R1-None',(#41,
#42,#43),#529);
#14=SHAPE_DEFINITION_REPRESENTATION(#15,#24);
#15=PRODUCT_DEFINITION_SHAPE('','',#16);
#16=PRODUCT_DEFINITION(' ','',#18,#17);
#17=PRODUCT_DEFINITION_CONTEXT('part definition',#23,'design');
#18=PRODUCT_DEFINITION_FORMATION_WITH_SPECIFIED_SOURCE(' ',' ',#20,
 .NOT_KNOWN.);
#19=PRODUCT_RELATED_PRODUCT_CATEGORY('part','',(#20));
#20=PRODUCT('DTM-5_16X24UNF-10R1','DTM-5_16X24UNF-10R1',' ',(#21));
#21=PRODUCT_CONTEXT(' ',#23,'mechanical');
#22=APPLICATION_PROTOCOL_DEFINITION('international standard',
'automotive_design',2010,#23);
#23=APPLICATION_CONTEXT(
'core data for automotive mechanical design processes');
#24=SHAPE_REPRESENTATION('DTM-5_16X24UNF-10R1-None',(#310),#529);
#25=VERTEX_LOOP('',#239);
#26=SURFACE_STYLE_USAGE(.BOTH.,#29);
#27=SURFACE_STYLE_USAGE(.BOTH.,#30);
#28=SURFACE_STYLE_USAGE(.BOTH.,#31);
#29=SURFACE_SIDE_STYLE('',(#32));
#30=SURFACE_SIDE_STYLE('',(#33));
#31=SURFACE_SIDE_STYLE('',(#34));
#32=SURFACE_STYLE_FILL_AREA(#35);
#33=SURFACE_STYLE_FILL_AREA(#36);
#34=SURFACE_STYLE_FILL_AREA(#37);
#35=FILL_AREA_STYLE('',(#38));
#36=FILL_AREA_STYLE('',(#39));
#37=FILL_AREA_STYLE('',(#40));
#38=FILL_AREA_STYLE_COLOUR('',#305);
#39=FILL_AREA_STYLE_COLOUR('',#306);
#40=FILL_AREA_STYLE_COLOUR('',#305);
#41=MANIFOLD_SOLID_BREP('NOCUT',#44);
#42=MANIFOLD_SOLID_BREP('CUT',#45);
#43=MANIFOLD_SOLID_BREP('NOCUT',#46);
#44=CLOSED_SHELL('',(#104,#105,#106,#107));
#45=CLOSED_SHELL('',(#108,#109,#110,#111,#112,#113,#114,#115,#116,#117,
#118,#119,#120,#121,#122));
#46=CLOSED_SHELL('',(#123,#124,#125,#126,#127));
#47=CYLINDRICAL_SURFACE('',#319,4.99999999999991);
#48=CYLINDRICAL_SURFACE('',#327,3.25016699999992);
#49=CYLINDRICAL_SURFACE('',#331,2.67000000000002);
#50=CYLINDRICAL_SURFACE('',#337,3.43999999999991);
#51=CYLINDRICAL_SURFACE('',#355,4.5);
#52=CONICAL_SURFACE('',#317,4.5,44.9999999999951);
#53=CONICAL_SURFACE('',#323,4.03999999999991,44.9999999999986);
#54=CONICAL_SURFACE('',#325,3.43999999999991,60.7511736634581);
#55=CONICAL_SURFACE('',#329,3.25016699999992,60.0183606311468);
#56=CONICAL_SURFACE('',#333,2.67000000000002,60.7511736634504);
#57=CONICAL_SURFACE('',#335,2.92000000000002,60.0183606311473);
#58=CONICAL_SURFACE('',#339,3.43999999999991,71.0753555839459);
#59=CONICAL_SURFACE('',#341,3.09,69.9047688080959);
#60=CONICAL_SURFACE('',#343,1.8599999999999,70.3461759419436);
#61=CONICAL_SURFACE('',#345,1.44,69.9047688080983);
#62=CONICAL_SURFACE('',#347,1.02999999999992,77.4711922908473);
#63=CONICAL_SURFACE('',#348,0.849999999999909,79.9920201985569);
#64=CONICAL_SURFACE('',#353,4.65000000000001,44.9999999999972);
#65=CONICAL_SURFACE('',#357,4.03999999999991,44.9999999999986);
#66=FACE_BOUND('',#139,.T.);
#67=FACE_BOUND('',#140,.T.);
#68=FACE_BOUND('',#141,.T.);
#69=FACE_BOUND('',#142,.T.);
#70=FACE_BOUND('',#144,.T.);
#71=FACE_BOUND('',#145,.T.);
#72=FACE_BOUND('',#146,.T.);
#73=FACE_BOUND('',#147,.T.);
#74=FACE_BOUND('',#148,.T.);
#75=FACE_BOUND('',#149,.T.);
#76=FACE_BOUND('',#150,.T.);
#77=FACE_BOUND('',#151,.T.);
#78=FACE_BOUND('',#152,.T.);
#79=FACE_BOUND('',#153,.T.);
#80=FACE_BOUND('',#154,.T.);
#81=FACE_BOUND('',#155,.T.);
#82=FACE_BOUND('',#156,.T.);
#83=FACE_BOUND('',#157,.T.);
#84=FACE_BOUND('',#158,.T.);
#85=FACE_BOUND('',#159,.T.);
#86=FACE_BOUND('',#160,.T.);
#87=FACE_BOUND('',#161,.T.);
#88=FACE_BOUND('',#162,.T.);
#89=FACE_BOUND('',#163,.T.);
#90=FACE_BOUND('',#164,.T.);
#91=FACE_BOUND('',#165,.T.);
#92=FACE_BOUND('',#166,.T.);
#93=FACE_BOUND('',#167,.T.);
#94=FACE_BOUND('',#168,.T.);
#95=FACE_BOUND('',#169,.T.);
#96=FACE_BOUND('',#25,.T.);
#97=FACE_BOUND('',#170,.T.);
#98=FACE_BOUND('',#173,.T.);
#99=FACE_BOUND('',#174,.T.);
#100=FACE_BOUND('',#175,.T.);
#101=FACE_BOUND('',#176,.T.);
#102=FACE_BOUND('',#177,.T.);
#103=FACE_BOUND('',#178,.T.);
#104=ADVANCED_FACE('',(#133),#128,.T.);
#105=ADVANCED_FACE('',(#66,#67),#52,.T.);
#106=ADVANCED_FACE('',(#68,#69),#47,.T.);
#107=ADVANCED_FACE('',(#134),#129,.T.);
#108=ADVANCED_FACE('',(#70,#71),#53,.T.);
#109=ADVANCED_FACE('',(#72,#73),#54,.T.);
#110=ADVANCED_FACE('',(#74,#75),#48,.T.);
#111=ADVANCED_FACE('',(#76,#77),#55,.T.);
#112=ADVANCED_FACE('',(#78,#79),#49,.T.);
#113=ADVANCED_FACE('',(#80,#81),#56,.T.);
#114=ADVANCED_FACE('',(#82,#83),#57,.T.);
#115=ADVANCED_FACE('',(#84,#85),#50,.T.);
#116=ADVANCED_FACE('',(#86,#87),#58,.T.);
#117=ADVANCED_FACE('',(#88,#89),#59,.T.);
#118=ADVANCED_FACE('',(#90,#91),#60,.T.);
#119=ADVANCED_FACE('',(#92,#93),#61,.T.);
#120=ADVANCED_FACE('',(#94,#95),#62,.T.);
#121=ADVANCED_FACE('',(#96,#97),#63,.T.);
#122=ADVANCED_FACE('',(#135),#130,.T.);
#123=ADVANCED_FACE('',(#136),#131,.T.);
#124=ADVANCED_FACE('',(#98,#99),#64,.T.);
#125=ADVANCED_FACE('',(#100,#101),#51,.T.);
#126=ADVANCED_FACE('',(#102,#103),#65,.T.);
#127=ADVANCED_FACE('',(#137),#132,.F.);
#128=PLANE('',#315);
#129=PLANE('',#320);
#130=PLANE('',#349);
#131=PLANE('',#351);
#132=PLANE('',#358);
#133=FACE_OUTER_BOUND('',#138,.T.);
#134=FACE_OUTER_BOUND('',#143,.T.);
#135=FACE_OUTER_BOUND('',#171,.T.);
#136=FACE_OUTER_BOUND('',#172,.T.);
#137=FACE_OUTER_BOUND('',#179,.T.);
#138=EDGE_LOOP('',(#180));
#139=EDGE_LOOP('',(#181));
#140=EDGE_LOOP('',(#182));
#141=EDGE_LOOP('',(#183));
#142=EDGE_LOOP('',(#184));
#143=EDGE_LOOP('',(#185));
#144=EDGE_LOOP('',(#186));
#145=EDGE_LOOP('',(#187));
#146=EDGE_LOOP('',(#188));
#147=EDGE_LOOP('',(#189));
#148=EDGE_LOOP('',(#190));
#149=EDGE_LOOP('',(#191));
#150=EDGE_LOOP('',(#192));
#151=EDGE_LOOP('',(#193));
#152=EDGE_LOOP('',(#194));
#153=EDGE_LOOP('',(#195));
#154=EDGE_LOOP('',(#196));
#155=EDGE_LOOP('',(#197));
#156=EDGE_LOOP('',(#198));
#157=EDGE_LOOP('',(#199));
#158=EDGE_LOOP('',(#200));
#159=EDGE_LOOP('',(#201));
#160=EDGE_LOOP('',(#202));
#161=EDGE_LOOP('',(#203));
#162=EDGE_LOOP('',(#204));
#163=EDGE_LOOP('',(#205));
#164=EDGE_LOOP('',(#206));
#165=EDGE_LOOP('',(#207));
#166=EDGE_LOOP('',(#208));
#167=EDGE_LOOP('',(#209));
#168=EDGE_LOOP('',(#210));
#169=EDGE_LOOP('',(#211));
#170=EDGE_LOOP('',(#212));
#171=EDGE_LOOP('',(#213));
#172=EDGE_LOOP('',(#214));
#173=EDGE_LOOP('',(#215));
#174=EDGE_LOOP('',(#216));
#175=EDGE_LOOP('',(#217));
#176=EDGE_LOOP('',(#218));
#177=EDGE_LOOP('',(#219));
#178=EDGE_LOOP('',(#220));
#179=EDGE_LOOP('',(#221));
#180=ORIENTED_EDGE('',*,*,#244,.T.);
#181=ORIENTED_EDGE('',*,*,#245,.T.);
#182=ORIENTED_EDGE('',*,*,#244,.F.);
#183=ORIENTED_EDGE('',*,*,#246,.T.);
#184=ORIENTED_EDGE('',*,*,#245,.F.);
#185=ORIENTED_EDGE('',*,*,#246,.F.);
#186=ORIENTED_EDGE('',*,*,#247,.T.);
#187=ORIENTED_EDGE('',*,*,#248,.T.);
#188=ORIENTED_EDGE('',*,*,#249,.T.);
#189=ORIENTED_EDGE('',*,*,#247,.F.);
#190=ORIENTED_EDGE('',*,*,#250,.T.);
#191=ORIENTED_EDGE('',*,*,#249,.F.);
#192=ORIENTED_EDGE('',*,*,#251,.T.);
#193=ORIENTED_EDGE('',*,*,#250,.F.);
#194=ORIENTED_EDGE('',*,*,#252,.T.);
#195=ORIENTED_EDGE('',*,*,#251,.F.);
#196=ORIENTED_EDGE('',*,*,#253,.T.);
#197=ORIENTED_EDGE('',*,*,#252,.F.);
#198=ORIENTED_EDGE('',*,*,#254,.T.);
#199=ORIENTED_EDGE('',*,*,#253,.F.);
#200=ORIENTED_EDGE('',*,*,#255,.T.);
#201=ORIENTED_EDGE('',*,*,#254,.F.);
#202=ORIENTED_EDGE('',*,*,#256,.T.);
#203=ORIENTED_EDGE('',*,*,#255,.F.);
#204=ORIENTED_EDGE('',*,*,#257,.T.);
#205=ORIENTED_EDGE('',*,*,#256,.F.);
#206=ORIENTED_EDGE('',*,*,#258,.T.);
#207=ORIENTED_EDGE('',*,*,#257,.F.);
#208=ORIENTED_EDGE('',*,*,#259,.T.);
#209=ORIENTED_EDGE('',*,*,#258,.F.);
#210=ORIENTED_EDGE('',*,*,#260,.T.);
#211=ORIENTED_EDGE('',*,*,#259,.F.);
#212=ORIENTED_EDGE('',*,*,#260,.F.);
#213=ORIENTED_EDGE('',*,*,#248,.F.);
#214=ORIENTED_EDGE('',*,*,#261,.T.);
#215=ORIENTED_EDGE('',*,*,#262,.T.);
#216=ORIENTED_EDGE('',*,*,#261,.F.);
#217=ORIENTED_EDGE('',*,*,#263,.T.);
#218=ORIENTED_EDGE('',*,*,#262,.F.);
#219=ORIENTED_EDGE('',*,*,#264,.F.);
#220=ORIENTED_EDGE('',*,*,#263,.F.);
#221=ORIENTED_EDGE('',*,*,#264,.T.);
#222=VERTEX_POINT('',#462);
#223=VERTEX_POINT('',#465);
#224=VERTEX_POINT('',#468);
#225=VERTEX_POINT('',#472);
#226=VERTEX_POINT('',#474);
#227=VERTEX_POINT('',#477);
#228=VERTEX_POINT('',#480);
#229=VERTEX_POINT('',#483);
#230=VERTEX_POINT('',#486);
#231=VERTEX_POINT('',#489);
#232=VERTEX_POINT('',#492);
#233=VERTEX_POINT('',#495);
#234=VERTEX_POINT('',#498);
#235=VERTEX_POINT('',#501);
#236=VERTEX_POINT('',#504);
#237=VERTEX_POINT('',#507);
#238=VERTEX_POINT('',#510);
#239=VERTEX_POINT('',#512);
#240=VERTEX_POINT('',#516);
#241=VERTEX_POINT('',#519);
#242=VERTEX_POINT('',#522);
#243=VERTEX_POINT('',#525);
#244=EDGE_CURVE('',#222,#222,#265,.T.);
#245=EDGE_CURVE('',#223,#223,#266,.T.);
#246=EDGE_CURVE('',#224,#224,#267,.T.);
#247=EDGE_CURVE('',#225,#225,#268,.T.);
#248=EDGE_CURVE('',#226,#226,#269,.T.);
#249=EDGE_CURVE('',#227,#227,#270,.T.);
#250=EDGE_CURVE('',#228,#228,#271,.T.);
#251=EDGE_CURVE('',#229,#229,#272,.T.);
#252=EDGE_CURVE('',#230,#230,#273,.T.);
#253=EDGE_CURVE('',#231,#231,#274,.T.);
#254=EDGE_CURVE('',#232,#232,#275,.T.);
#255=EDGE_CURVE('',#233,#233,#276,.T.);
#256=EDGE_CURVE('',#234,#234,#277,.T.);
#257=EDGE_CURVE('',#235,#235,#278,.T.);
#258=EDGE_CURVE('',#236,#236,#279,.T.);
#259=EDGE_CURVE('',#237,#237,#280,.T.);
#260=EDGE_CURVE('',#238,#238,#281,.T.);
#261=EDGE_CURVE('',#240,#240,#282,.T.);
#262=EDGE_CURVE('',#241,#241,#283,.T.);
#263=EDGE_CURVE('',#242,#242,#284,.T.);
#264=EDGE_CURVE('',#243,#243,#285,.T.);
#265=CIRCLE('',#314,4.5);
#266=CIRCLE('',#316,4.99999999999991);
#267=CIRCLE('',#318,4.99999999999991);
#268=CIRCLE('',#321,3.43999999999991);
#269=CIRCLE('',#322,4.11987099999988);
#270=CIRCLE('',#324,3.25016699999992);
#271=CIRCLE('',#326,3.25016699999992);
#272=CIRCLE('',#328,2.67000000000002);
#273=CIRCLE('',#330,2.67000000000002);
#274=CIRCLE('',#332,2.92000000000002);
#275=CIRCLE('',#334,3.43999999999991);
#276=CIRCLE('',#336,3.43999999999991);
#277=CIRCLE('',#338,3.09);
#278=CIRCLE('',#340,1.8599999999999);
#279=CIRCLE('',#342,1.44);
#280=CIRCLE('',#344,1.02999999999992);
#281=CIRCLE('',#346,0.849999999999909);
#282=CIRCLE('',#350,4.99999999999991);
#283=CIRCLE('',#352,4.5);
#284=CIRCLE('',#354,4.5);
#285=CIRCLE('',#356,4.11987099999988);
#286=PRESENTATION_LAYER_ASSIGNMENT('1','Layer 1',(#311,#312,#313,#41));
#287=PRESENTATION_LAYER_ASSIGNMENT('3','Layer 3',(#42));
#288=PRESENTATION_LAYER_ASSIGNMENT('2','Layer 2',(#43));
#289=STYLED_ITEM('',(#295),#311);
#290=STYLED_ITEM('',(#296),#312);
#291=STYLED_ITEM('',(#297),#313);
#292=STYLED_ITEM('',(#298),#41);
#293=STYLED_ITEM('',(#299),#42);
#294=STYLED_ITEM('',(#300),#43);
#295=PRESENTATION_STYLE_ASSIGNMENT((#301));
#296=PRESENTATION_STYLE_ASSIGNMENT((#302));
#297=PRESENTATION_STYLE_ASSIGNMENT((#303));
#298=PRESENTATION_STYLE_ASSIGNMENT((#26));
#299=PRESENTATION_STYLE_ASSIGNMENT((#27));
#300=PRESENTATION_STYLE_ASSIGNMENT((#28));
#301=CURVE_STYLE('',#307,POSITIVE_LENGTH_MEASURE(0.18),#304);
#302=CURVE_STYLE('',#308,POSITIVE_LENGTH_MEASURE(0.18),#304);
#303=CURVE_STYLE('',#309,POSITIVE_LENGTH_MEASURE(0.18),#304);
#304=COLOUR_RGB('Medium Maroon',0.6,0.4,0.4);
#305=COLOUR_RGB('Medium Gray',0.490196078431373,0.490196078431373,0.490196078431373);
#306=COLOUR_RGB('Light Gray',0.8,0.8,0.8);
#307=DRAUGHTING_PRE_DEFINED_CURVE_FONT('continuous');
#308=DRAUGHTING_PRE_DEFINED_CURVE_FONT('continuous');
#309=DRAUGHTING_PRE_DEFINED_CURVE_FONT('continuous');
#310=AXIS2_PLACEMENT_3D('',#457,#359,#360);
#311=AXIS2_PLACEMENT_3D('MCS',#458,#361,#362);
#312=AXIS2_PLACEMENT_3D('PCS',#459,#363,#364);
#313=AXIS2_PLACEMENT_3D('CIP',#460,#365,#366);
#314=AXIS2_PLACEMENT_3D('',#461,#367,#368);
#315=AXIS2_PLACEMENT_3D('',#463,#369,#370);
#316=AXIS2_PLACEMENT_3D('',#464,#371,#372);
#317=AXIS2_PLACEMENT_3D('',#466,#373,#374);
#318=AXIS2_PLACEMENT_3D('',#467,#375,#376);
#319=AXIS2_PLACEMENT_3D('',#469,#377,#378);
#320=AXIS2_PLACEMENT_3D('',#470,#379,#380);
#321=AXIS2_PLACEMENT_3D('',#471,#381,#382);
#322=AXIS2_PLACEMENT_3D('',#473,#383,#384);
#323=AXIS2_PLACEMENT_3D('',#475,#385,#386);
#324=AXIS2_PLACEMENT_3D('',#476,#387,#388);
#325=AXIS2_PLACEMENT_3D('',#478,#389,#390);
#326=AXIS2_PLACEMENT_3D('',#479,#391,#392);
#327=AXIS2_PLACEMENT_3D('',#481,#393,#394);
#328=AXIS2_PLACEMENT_3D('',#482,#395,#396);
#329=AXIS2_PLACEMENT_3D('',#484,#397,#398);
#330=AXIS2_PLACEMENT_3D('',#485,#399,#400);
#331=AXIS2_PLACEMENT_3D('',#487,#401,#402);
#332=AXIS2_PLACEMENT_3D('',#488,#403,#404);
#333=AXIS2_PLACEMENT_3D('',#490,#405,#406);
#334=AXIS2_PLACEMENT_3D('',#491,#407,#408);
#335=AXIS2_PLACEMENT_3D('',#493,#409,#410);
#336=AXIS2_PLACEMENT_3D('',#494,#411,#412);
#337=AXIS2_PLACEMENT_3D('',#496,#413,#414);
#338=AXIS2_PLACEMENT_3D('',#497,#415,#416);
#339=AXIS2_PLACEMENT_3D('',#499,#417,#418);
#340=AXIS2_PLACEMENT_3D('',#500,#419,#420);
#341=AXIS2_PLACEMENT_3D('',#502,#421,#422);
#342=AXIS2_PLACEMENT_3D('',#503,#423,#424);
#343=AXIS2_PLACEMENT_3D('',#505,#425,#426);
#344=AXIS2_PLACEMENT_3D('',#506,#427,#428);
#345=AXIS2_PLACEMENT_3D('',#508,#429,#430);
#346=AXIS2_PLACEMENT_3D('',#509,#431,#432);
#347=AXIS2_PLACEMENT_3D('',#511,#433,#434);
#348=AXIS2_PLACEMENT_3D('',#513,#435,#436);
#349=AXIS2_PLACEMENT_3D('',#514,#437,#438);
#350=AXIS2_PLACEMENT_3D('',#515,#439,#440);
#351=AXIS2_PLACEMENT_3D('',#517,#441,#442);
#352=AXIS2_PLACEMENT_3D('',#518,#443,#444);
#353=AXIS2_PLACEMENT_3D('',#520,#445,#446);
#354=AXIS2_PLACEMENT_3D('',#521,#447,#448);
#355=AXIS2_PLACEMENT_3D('',#523,#449,#450);
#356=AXIS2_PLACEMENT_3D('',#524,#451,#452);
#357=AXIS2_PLACEMENT_3D('',#526,#453,#454);
#358=AXIS2_PLACEMENT_3D('',#527,#455,#456);
#359=DIRECTION('',(0.,0.,1.));
#360=DIRECTION('',(1.,0.,0.));
#361=DIRECTION('',(0.,0.,1.));
#362=DIRECTION('',(1.,0.,0.));
#363=DIRECTION('',(0.,0.,1.));
#364=DIRECTION('',(1.,0.,0.));
#365=DIRECTION('',(0.,0.,1.));
#366=DIRECTION('',(1.,0.,0.));
#367=DIRECTION('',(0.,0.,1.));
#368=DIRECTION('',(1.,0.,0.));
#369=DIRECTION('',(0.,0.,1.));
#370=DIRECTION('',(-1.,0.,0.));
#371=DIRECTION('',(0.,0.,1.));
#372=DIRECTION('',(1.,0.,0.));
#373=DIRECTION('',(0.,0.,-1.));
#374=DIRECTION('',(1.,0.,3.45390438223415E-17));
#375=DIRECTION('',(0.,0.,1.));
#376=DIRECTION('',(1.,0.,0.));
#377=DIRECTION('',(0.,0.,1.));
#378=DIRECTION('',(-1.,0.,0.));
#379=DIRECTION('',(0.,0.,-1.));
#380=DIRECTION('',(1.,0.,0.));
#381=DIRECTION('',(0.,0.,1.));
#382=DIRECTION('',(1.,0.,0.));
#383=DIRECTION('',(0.,0.,-1.));
#384=DIRECTION('',(1.,0.,0.));
#385=DIRECTION('',(0.,0.,1.));
#386=DIRECTION('',(-1.,0.,2.59161508900575E-17));
#387=DIRECTION('',(0.,0.,1.));
#388=DIRECTION('',(1.,0.,0.));
#389=DIRECTION('',(0.,0.,1.));
#390=DIRECTION('',(-1.,0.,-1.7452392349221E-17));
#391=DIRECTION('',(0.,0.,1.));
#392=DIRECTION('',(1.,0.,0.));
#393=DIRECTION('',(0.,0.,1.));
#394=DIRECTION('',(-1.,0.,0.));
#395=DIRECTION('',(0.,0.,1.));
#396=DIRECTION('',(1.,0.,0.));
#397=DIRECTION('',(0.,0.,1.));
#398=DIRECTION('',(-1.,0.,-2.59721518526156E-17));
#399=DIRECTION('',(0.,0.,1.));
#400=DIRECTION('',(1.,0.,0.));
#401=DIRECTION('',(0.,0.,1.));
#402=DIRECTION('',(-1.,0.,0.));
#403=DIRECTION('',(0.,0.,1.));
#404=DIRECTION('',(1.,0.,0.));
#405=DIRECTION('',(0.,0.,-1.));
#406=DIRECTION('',(1.,0.,-7.75995848245396E-18));
#407=DIRECTION('',(0.,0.,1.));
#408=DIRECTION('',(1.,0.,0.));
#409=DIRECTION('',(0.,0.,-1.));
#410=DIRECTION('',(1.,0.,-2.39788529842702E-17));
#411=DIRECTION('',(0.,0.,1.));
#412=DIRECTION('',(1.,0.,0.));
#413=DIRECTION('',(0.,0.,1.));
#414=DIRECTION('',(-1.,0.,0.));
#415=DIRECTION('',(0.,0.,1.));
#416=DIRECTION('',(1.,0.,0.));
#417=DIRECTION('',(0.,0.,1.));
#418=DIRECTION('',(-1.,0.,1.42574803512144E-17));
#419=DIRECTION('',(0.,0.,1.));
#420=DIRECTION('',(1.,0.,0.));
#421=DIRECTION('',(0.,0.,1.));
#422=DIRECTION('',(-1.,0.,1.26787654150253E-17));
#423=DIRECTION('',(0.,0.,1.));
#424=DIRECTION('',(1.,0.,0.));
#425=DIRECTION('',(0.,0.,1.));
#426=DIRECTION('',(-1.,0.,-9.90612507963769E-18));
#427=DIRECTION('',(0.,0.,1.));
#428=DIRECTION('',(1.,0.,0.));
#429=DIRECTION('',(0.,0.,1.));
#430=DIRECTION('',(-1.,0.,-5.07456601198349E-18));
#431=DIRECTION('',(0.,0.,1.));
#432=DIRECTION('',(1.,0.,0.));
#433=DIRECTION('',(0.,0.,1.));
#434=DIRECTION('',(-1.,0.,1.54162356258632E-18));
#435=DIRECTION('',(0.,0.,1.));
#436=DIRECTION('',(-1.,0.,-6.12163519934523E-18));
#437=DIRECTION('',(0.,0.,1.));
#438=DIRECTION('',(-1.,0.,0.));
#439=DIRECTION('',(0.,0.,1.));
#440=DIRECTION('',(1.,0.,0.));
#441=DIRECTION('',(0.,0.,1.));
#442=DIRECTION('',(-1.,0.,0.));
#443=DIRECTION('',(0.,0.,1.));
#444=DIRECTION('',(1.,0.,0.));
#445=DIRECTION('',(0.,0.,1.));
#446=DIRECTION('',(-1.,0.,-5.22325040046818E-17));
#447=DIRECTION('',(0.,0.,1.));
#448=DIRECTION('',(1.,0.,0.));
#449=DIRECTION('',(0.,0.,1.));
#450=DIRECTION('',(-1.,0.,0.));
#451=DIRECTION('',(0.,0.,-1.));
#452=DIRECTION('',(1.,0.,0.));
#453=DIRECTION('',(0.,0.,1.));
#454=DIRECTION('',(-1.,0.,2.59161508900575E-17));
#455=DIRECTION('',(0.,0.,1.));
#456=DIRECTION('',(-1.,0.,0.));
#457=CARTESIAN_POINT('',(0.,0.,0.));
#458=CARTESIAN_POINT('',(0.,0.,0.));
#459=CARTESIAN_POINT('',(0.,0.,40.));
#460=CARTESIAN_POINT('',(0.,0.,-34.));
#461=CARTESIAN_POINT('',(0.,0.,40.));
#462=CARTESIAN_POINT('',(4.5,0.,40.));
#463=CARTESIAN_POINT('',(0.,0.,40.));
#464=CARTESIAN_POINT('',(0.,0.,39.5));
#465=CARTESIAN_POINT('',(4.99999999999991,0.,39.5));
#466=CARTESIAN_POINT('',(0.,0.,40.));
#467=CARTESIAN_POINT('',(0.,0.,9.71445146547012E-14));
#468=CARTESIAN_POINT('',(4.99999999999991,0.,9.71445146547012E-14));
#469=CARTESIAN_POINT('',(0.,0.,9.9475983006414E-14));
#470=CARTESIAN_POINT('',(0.,4.99999999999991,9.83102488305576E-14));
#471=CARTESIAN_POINT('',(0.,0.,-15.85));
#472=CARTESIAN_POINT('',(3.43999999999991,0.,-15.85));
#473=CARTESIAN_POINT('',(0.,0.,-15.170129));
#474=CARTESIAN_POINT('',(4.11987099999988,0.,-15.170129));
#475=CARTESIAN_POINT('',(0.,0.,-15.2499999999999));
#476=CARTESIAN_POINT('',(0.,0.,-15.9563064799999));
#477=CARTESIAN_POINT('',(3.25016699999992,0.,-15.9563064799999));
#478=CARTESIAN_POINT('',(0.,0.,-15.85));
#479=CARTESIAN_POINT('',(0.,0.,-30.8152882692307));
#480=CARTESIAN_POINT('',(3.25016699999992,0.,-30.8152882692307));
#481=CARTESIAN_POINT('',(0.,0.,-15.1667959999999));
#482=CARTESIAN_POINT('',(0.,0.,-31.1499999999999));
#483=CARTESIAN_POINT('',(2.67000000000002,0.,-31.1499999999999));
#484=CARTESIAN_POINT('',(0.,0.,-30.8152882692307));
#485=CARTESIAN_POINT('',(0.,0.,-31.4399999999999));
#486=CARTESIAN_POINT('',(2.67000000000002,0.,-31.4399999999999));
#487=CARTESIAN_POINT('',(0.,0.,-15.1667959999999));
#488=CARTESIAN_POINT('',(0.,0.,-31.5799999999999));
#489=CARTESIAN_POINT('',(2.92000000000002,0.,-31.5799999999999));
#490=CARTESIAN_POINT('',(0.,0.,-31.4399999999999));
#491=CARTESIAN_POINT('',(0.,0.,-31.8799999999999));
#492=CARTESIAN_POINT('',(3.43999999999991,0.,-31.8799999999999));
#493=CARTESIAN_POINT('',(0.,0.,-31.5799999999999));
#494=CARTESIAN_POINT('',(0.,0.,-32.9399999999999));
#495=CARTESIAN_POINT('',(3.43999999999991,0.,-32.9399999999999));
#496=CARTESIAN_POINT('',(0.,0.,-15.1667959999999));
#497=CARTESIAN_POINT('',(0.,0.,-33.0599999999999));
#498=CARTESIAN_POINT('',(3.09,0.,-33.0599999999999));
#499=CARTESIAN_POINT('',(0.,0.,-32.9399999999999));
#500=CARTESIAN_POINT('',(0.,0.,-33.5099999999999));
#501=CARTESIAN_POINT('',(1.8599999999999,0.,-33.5099999999999));
#502=CARTESIAN_POINT('',(0.,0.,-33.0599999999999));
#503=CARTESIAN_POINT('',(0.,0.,-33.6599999999999));
#504=CARTESIAN_POINT('',(1.44,0.,-33.6599999999999));
#505=CARTESIAN_POINT('',(0.,0.,-33.5099999999999));
#506=CARTESIAN_POINT('',(0.,0.,-33.8099999999999));
#507=CARTESIAN_POINT('',(1.02999999999992,0.,-33.8099999999999));
#508=CARTESIAN_POINT('',(0.,0.,-33.6599999999999));
#509=CARTESIAN_POINT('',(0.,0.,-33.8499999999999));
#510=CARTESIAN_POINT('',(0.849999999999909,0.,-33.8499999999999));
#511=CARTESIAN_POINT('',(0.,0.,-33.8099999999999));
#512=CARTESIAN_POINT('',(0.,-1.0842021724855E-16,-34.));
#513=CARTESIAN_POINT('',(0.,0.,-33.8499999999999));
#514=CARTESIAN_POINT('',(0.,0.,-15.170129));
#515=CARTESIAN_POINT('',(0.,0.,9.8879238130678E-14));
#516=CARTESIAN_POINT('',(4.99999999999991,0.,9.8879238130678E-14));
#517=CARTESIAN_POINT('',(0.,0.,9.9177610568546E-14));
#518=CARTESIAN_POINT('',(0.,0.,-0.499999999999929));
#519=CARTESIAN_POINT('',(4.5,0.,-0.499999999999929));
#520=CARTESIAN_POINT('',(0.,0.,-0.349999999999909));
#521=CARTESIAN_POINT('',(0.,0.,-14.7899999999999));
#522=CARTESIAN_POINT('',(4.5,0.,-14.7899999999999));
#523=CARTESIAN_POINT('',(0.,0.,-15.1667959999999));
#524=CARTESIAN_POINT('',(0.,0.,-15.170129));
#525=CARTESIAN_POINT('',(4.11987099999988,0.,-15.170129));
#526=CARTESIAN_POINT('',(0.,0.,-15.2499999999999));
#527=CARTESIAN_POINT('',(0.,0.,-15.170129));
#528=MECHANICAL_DESIGN_GEOMETRIC_PRESENTATION_REPRESENTATION('',(#289,#290,
#291,#292,#293,#294),#529);
#529=(
GEOMETRIC_REPRESENTATION_CONTEXT(3)
GLOBAL_UNCERTAINTY_ASSIGNED_CONTEXT((#530))
GLOBAL_UNIT_ASSIGNED_CONTEXT((#536,#532,#531))
REPRESENTATION_CONTEXT('DTM-5_16X24UNF-10R1','TOP_LEVEL_ASSEMBLY_PART')
);
#530=UNCERTAINTY_MEASURE_WITH_UNIT(LENGTH_MEASURE(2.E-5),#536,
'DISTANCE_ACCURACY_VALUE','Maximum Tolerance applied to model');
#531=(
NAMED_UNIT(*)
SI_UNIT($,.STERADIAN.)
SOLID_ANGLE_UNIT()
);
#532=(
CONVERSION_BASED_UNIT('DEGREE',#534)
NAMED_UNIT(#533)
PLANE_ANGLE_UNIT()
);
#533=DIMENSIONAL_EXPONENTS(0.,0.,0.,0.,0.,0.,0.);
#534=PLANE_ANGLE_MEASURE_WITH_UNIT(PLANE_ANGLE_MEASURE(0.0174532925),#535);
#535=(
NAMED_UNIT(*)
PLANE_ANGLE_UNIT()
SI_UNIT($,.RADIAN.)
);
#536=(
LENGTH_UNIT()
NAMED_UNIT(*)
SI_UNIT(.MILLI.,.METRE.)
);
ENDSEC;
END-ISO-10303-21;
