ISO-10303-21;
HEADER;
/* Generated by software containing ST-Developer
 * from STEP Tools, Inc. (www.steptools.com) 
 */
/* OPTION: using custom schema-name function */

FILE_DESCRIPTION(
/* description */ (''),
/* implementation_level */ '2;1');

FILE_NAME(
/* name */ 'DTM-5_16X18UNC-10R1.stp',
/* time_stamp */ '2017-09-14T08:51:19+05:00',
/* author */ (''),
/* organization */ (''),
/* preprocessor_version */ 'ST-DEVELOPER v16',
/* originating_system */ 'SIEMENS PLM Software NX 11.0',
/* authorisation */ '');

FILE_SCHEMA (('AUTOMOTIVE_DESIGN { 1 0 10303 214 3 1 1 1 }'));
ENDSEC;

DATA;
#10=CONSTRUCTIVE_GEOMETRY_REPRESENTATION_RELATIONSHIP(
'supplemental geometry','',#24,#11);
#11=CONSTRUCTIVE_GEOMETRY_REPRESENTATION('supplemental geometry',(#344,
#345,#346),#589);
#12=SHAPE_REPRESENTATION_RELATIONSHIP('None',
'relationship between DTM-5_16X18UNC-10R1-None and DTM-5_16X18UNC-10R1
-None',#24,#13);
#13=ADVANCED_BREP_SHAPE_REPRESENTATION('DTM-5_16X18UNC-10R1-None',(#41,
#42,#43),#589);
#14=SHAPE_DEFINITION_REPRESENTATION(#15,#24);
#15=PRODUCT_DEFINITION_SHAPE('','',#16);
#16=PRODUCT_DEFINITION(' ','',#18,#17);
#17=PRODUCT_DEFINITION_CONTEXT('part definition',#23,'design');
#18=PRODUCT_DEFINITION_FORMATION_WITH_SPECIFIED_SOURCE(' ',' ',#20,
 .NOT_KNOWN.);
#19=PRODUCT_RELATED_PRODUCT_CATEGORY('part','',(#20));
#20=PRODUCT('DTM-5_16X18UNC-10R1','DTM-5_16X18UNC-10R1',' ',(#21));
#21=PRODUCT_CONTEXT(' ',#23,'mechanical');
#22=APPLICATION_PROTOCOL_DEFINITION('international standard',
'automotive_design',2010,#23);
#23=APPLICATION_CONTEXT(
'core data for automotive mechanical design processes');
#24=SHAPE_REPRESENTATION('DTM-5_16X18UNC-10R1-None',(#343),#589);
#25=VERTEX_LOOP('',#254);
#26=SURFACE_STYLE_USAGE(.BOTH.,#29);
#27=SURFACE_STYLE_USAGE(.BOTH.,#30);
#28=SURFACE_STYLE_USAGE(.BOTH.,#31);
#29=SURFACE_SIDE_STYLE('',(#32));
#30=SURFACE_SIDE_STYLE('',(#33));
#31=SURFACE_SIDE_STYLE('',(#34));
#32=SURFACE_STYLE_FILL_AREA(#35);
#33=SURFACE_STYLE_FILL_AREA(#36);
#34=SURFACE_STYLE_FILL_AREA(#37);
#35=FILL_AREA_STYLE('',(#38));
#36=FILL_AREA_STYLE('',(#39));
#37=FILL_AREA_STYLE('',(#40));
#38=FILL_AREA_STYLE_COLOUR('',#338);
#39=FILL_AREA_STYLE_COLOUR('',#338);
#40=FILL_AREA_STYLE_COLOUR('',#339);
#41=MANIFOLD_SOLID_BREP('NOCUT',#44);
#42=MANIFOLD_SOLID_BREP('NOCUT',#45);
#43=MANIFOLD_SOLID_BREP('CUT',#46);
#44=CLOSED_SHELL('',(#113,#114,#115,#116));
#45=CLOSED_SHELL('',(#117,#118,#119,#120,#121));
#46=CLOSED_SHELL('',(#122,#123,#124,#125,#126,#127,#128,#129,#130,#131,
#132,#133,#134,#135,#136,#137,#138,#139));
#47=CYLINDRICAL_SURFACE('',#352,5.);
#48=CYLINDRICAL_SURFACE('',#358,4.5);
#49=CYLINDRICAL_SURFACE('',#376,3.26000000000002);
#50=CYLINDRICAL_SURFACE('',#382,2.24000000000001);
#51=CYLINDRICAL_SURFACE('',#388,3.00366700000001);
#52=CONICAL_SURFACE('',#350,4.5,45.);
#53=CONICAL_SURFACE('',#356,4.65000000000001,44.9999999999999);
#54=CONICAL_SURFACE('',#360,4.27000000000001,44.999999999978);
#55=CONICAL_SURFACE('',#364,0.,79.9920201985592);
#56=CONICAL_SURFACE('',#366,0.849999999999909,77.005383208096);
#57=CONICAL_SURFACE('',#368,0.980000000000018,69.9047688080942);
#58=CONICAL_SURFACE('',#370,2.21000000000001,70.3461759419485);
#59=CONICAL_SURFACE('',#372,2.63000000000002,69.9047688080894);
#60=CONICAL_SURFACE('',#374,3.03999999999991,70.0168934781054);
#61=CONICAL_SURFACE('',#378,3.26000000000002,60.01836063115);
#62=CONICAL_SURFACE('',#380,2.48000000000002,59.7435628364714);
#63=CONICAL_SURFACE('',#384,2.24000000000001,60.0183606311533);
#64=CONICAL_SURFACE('',#386,2.76000000000002,59.7435628364647);
#65=CONICAL_SURFACE('',#390,3.00366700000001,60.0183606314791);
#66=CONICAL_SURFACE('',#392,3.02000000000001,59.7435628364462);
#67=CONICAL_SURFACE('',#394,3.56,45.0000000000013);
#68=CONICAL_SURFACE('',#396,3.86000000000001,46.1194886482222);
#69=FACE_BOUND('',#151,.T.);
#70=FACE_BOUND('',#152,.T.);
#71=FACE_BOUND('',#153,.T.);
#72=FACE_BOUND('',#154,.T.);
#73=FACE_BOUND('',#156,.T.);
#74=FACE_BOUND('',#157,.T.);
#75=FACE_BOUND('',#158,.T.);
#76=FACE_BOUND('',#159,.T.);
#77=FACE_BOUND('',#160,.T.);
#78=FACE_BOUND('',#161,.T.);
#79=FACE_BOUND('',#164,.T.);
#80=FACE_BOUND('',#25,.T.);
#81=FACE_BOUND('',#165,.T.);
#82=FACE_BOUND('',#166,.T.);
#83=FACE_BOUND('',#167,.T.);
#84=FACE_BOUND('',#168,.T.);
#85=FACE_BOUND('',#169,.T.);
#86=FACE_BOUND('',#170,.T.);
#87=FACE_BOUND('',#171,.T.);
#88=FACE_BOUND('',#172,.T.);
#89=FACE_BOUND('',#173,.T.);
#90=FACE_BOUND('',#174,.T.);
#91=FACE_BOUND('',#175,.T.);
#92=FACE_BOUND('',#176,.T.);
#93=FACE_BOUND('',#177,.T.);
#94=FACE_BOUND('',#178,.T.);
#95=FACE_BOUND('',#179,.T.);
#96=FACE_BOUND('',#180,.T.);
#97=FACE_BOUND('',#181,.T.);
#98=FACE_BOUND('',#182,.T.);
#99=FACE_BOUND('',#183,.T.);
#100=FACE_BOUND('',#184,.T.);
#101=FACE_BOUND('',#185,.T.);
#102=FACE_BOUND('',#186,.T.);
#103=FACE_BOUND('',#187,.T.);
#104=FACE_BOUND('',#188,.T.);
#105=FACE_BOUND('',#189,.T.);
#106=FACE_BOUND('',#190,.T.);
#107=FACE_BOUND('',#191,.T.);
#108=FACE_BOUND('',#192,.T.);
#109=FACE_BOUND('',#193,.T.);
#110=FACE_BOUND('',#194,.T.);
#111=FACE_BOUND('',#195,.T.);
#112=FACE_BOUND('',#196,.T.);
#113=ADVANCED_FACE('',(#145),#140,.T.);
#114=ADVANCED_FACE('',(#69,#70),#52,.T.);
#115=ADVANCED_FACE('',(#71,#72),#47,.T.);
#116=ADVANCED_FACE('',(#146),#141,.T.);
#117=ADVANCED_FACE('',(#73,#74),#53,.T.);
#118=ADVANCED_FACE('',(#75,#76),#48,.T.);
#119=ADVANCED_FACE('',(#77,#78),#54,.T.);
#120=ADVANCED_FACE('',(#147),#142,.F.);
#121=ADVANCED_FACE('',(#148),#143,.F.);
#122=ADVANCED_FACE('',(#79,#80),#55,.T.);
#123=ADVANCED_FACE('',(#81,#82),#56,.T.);
#124=ADVANCED_FACE('',(#83,#84),#57,.T.);
#125=ADVANCED_FACE('',(#85,#86),#58,.T.);
#126=ADVANCED_FACE('',(#87,#88),#59,.T.);
#127=ADVANCED_FACE('',(#89,#90),#60,.T.);
#128=ADVANCED_FACE('',(#91,#92),#49,.T.);
#129=ADVANCED_FACE('',(#93,#94),#61,.T.);
#130=ADVANCED_FACE('',(#95,#96),#62,.T.);
#131=ADVANCED_FACE('',(#97,#98),#50,.T.);
#132=ADVANCED_FACE('',(#99,#100),#63,.T.);
#133=ADVANCED_FACE('',(#101,#102),#64,.T.);
#134=ADVANCED_FACE('',(#103,#104),#51,.T.);
#135=ADVANCED_FACE('',(#105,#106),#65,.T.);
#136=ADVANCED_FACE('',(#107,#108),#66,.T.);
#137=ADVANCED_FACE('',(#109,#110),#67,.T.);
#138=ADVANCED_FACE('',(#111,#112),#68,.T.);
#139=ADVANCED_FACE('',(#149),#144,.T.);
#140=PLANE('',#348);
#141=PLANE('',#353);
#142=PLANE('',#361);
#143=PLANE('',#362);
#144=PLANE('',#397);
#145=FACE_OUTER_BOUND('',#150,.T.);
#146=FACE_OUTER_BOUND('',#155,.T.);
#147=FACE_OUTER_BOUND('',#162,.T.);
#148=FACE_OUTER_BOUND('',#163,.T.);
#149=FACE_OUTER_BOUND('',#197,.T.);
#150=EDGE_LOOP('',(#198));
#151=EDGE_LOOP('',(#199));
#152=EDGE_LOOP('',(#200));
#153=EDGE_LOOP('',(#201));
#154=EDGE_LOOP('',(#202));
#155=EDGE_LOOP('',(#203));
#156=EDGE_LOOP('',(#204));
#157=EDGE_LOOP('',(#205));
#158=EDGE_LOOP('',(#206));
#159=EDGE_LOOP('',(#207));
#160=EDGE_LOOP('',(#208));
#161=EDGE_LOOP('',(#209));
#162=EDGE_LOOP('',(#210));
#163=EDGE_LOOP('',(#211));
#164=EDGE_LOOP('',(#212));
#165=EDGE_LOOP('',(#213));
#166=EDGE_LOOP('',(#214));
#167=EDGE_LOOP('',(#215));
#168=EDGE_LOOP('',(#216));
#169=EDGE_LOOP('',(#217));
#170=EDGE_LOOP('',(#218));
#171=EDGE_LOOP('',(#219));
#172=EDGE_LOOP('',(#220));
#173=EDGE_LOOP('',(#221));
#174=EDGE_LOOP('',(#222));
#175=EDGE_LOOP('',(#223));
#176=EDGE_LOOP('',(#224));
#177=EDGE_LOOP('',(#225));
#178=EDGE_LOOP('',(#226));
#179=EDGE_LOOP('',(#227));
#180=EDGE_LOOP('',(#228));
#181=EDGE_LOOP('',(#229));
#182=EDGE_LOOP('',(#230));
#183=EDGE_LOOP('',(#231));
#184=EDGE_LOOP('',(#232));
#185=EDGE_LOOP('',(#233));
#186=EDGE_LOOP('',(#234));
#187=EDGE_LOOP('',(#235));
#188=EDGE_LOOP('',(#236));
#189=EDGE_LOOP('',(#237));
#190=EDGE_LOOP('',(#238));
#191=EDGE_LOOP('',(#239));
#192=EDGE_LOOP('',(#240));
#193=EDGE_LOOP('',(#241));
#194=EDGE_LOOP('',(#242));
#195=EDGE_LOOP('',(#243));
#196=EDGE_LOOP('',(#244));
#197=EDGE_LOOP('',(#245));
#198=ORIENTED_EDGE('',*,*,#271,.T.);
#199=ORIENTED_EDGE('',*,*,#272,.T.);
#200=ORIENTED_EDGE('',*,*,#271,.F.);
#201=ORIENTED_EDGE('',*,*,#273,.T.);
#202=ORIENTED_EDGE('',*,*,#272,.F.);
#203=ORIENTED_EDGE('',*,*,#273,.F.);
#204=ORIENTED_EDGE('',*,*,#274,.F.);
#205=ORIENTED_EDGE('',*,*,#275,.T.);
#206=ORIENTED_EDGE('',*,*,#276,.F.);
#207=ORIENTED_EDGE('',*,*,#274,.T.);
#208=ORIENTED_EDGE('',*,*,#277,.F.);
#209=ORIENTED_EDGE('',*,*,#276,.T.);
#210=ORIENTED_EDGE('',*,*,#277,.T.);
#211=ORIENTED_EDGE('',*,*,#275,.F.);
#212=ORIENTED_EDGE('',*,*,#278,.T.);
#213=ORIENTED_EDGE('',*,*,#279,.T.);
#214=ORIENTED_EDGE('',*,*,#278,.F.);
#215=ORIENTED_EDGE('',*,*,#280,.T.);
#216=ORIENTED_EDGE('',*,*,#279,.F.);
#217=ORIENTED_EDGE('',*,*,#281,.T.);
#218=ORIENTED_EDGE('',*,*,#280,.F.);
#219=ORIENTED_EDGE('',*,*,#282,.T.);
#220=ORIENTED_EDGE('',*,*,#281,.F.);
#221=ORIENTED_EDGE('',*,*,#283,.T.);
#222=ORIENTED_EDGE('',*,*,#282,.F.);
#223=ORIENTED_EDGE('',*,*,#284,.T.);
#224=ORIENTED_EDGE('',*,*,#283,.F.);
#225=ORIENTED_EDGE('',*,*,#285,.T.);
#226=ORIENTED_EDGE('',*,*,#284,.F.);
#227=ORIENTED_EDGE('',*,*,#286,.T.);
#228=ORIENTED_EDGE('',*,*,#285,.F.);
#229=ORIENTED_EDGE('',*,*,#287,.T.);
#230=ORIENTED_EDGE('',*,*,#286,.F.);
#231=ORIENTED_EDGE('',*,*,#288,.T.);
#232=ORIENTED_EDGE('',*,*,#287,.F.);
#233=ORIENTED_EDGE('',*,*,#289,.T.);
#234=ORIENTED_EDGE('',*,*,#288,.F.);
#235=ORIENTED_EDGE('',*,*,#290,.T.);
#236=ORIENTED_EDGE('',*,*,#289,.F.);
#237=ORIENTED_EDGE('',*,*,#291,.T.);
#238=ORIENTED_EDGE('',*,*,#290,.F.);
#239=ORIENTED_EDGE('',*,*,#292,.T.);
#240=ORIENTED_EDGE('',*,*,#291,.F.);
#241=ORIENTED_EDGE('',*,*,#293,.T.);
#242=ORIENTED_EDGE('',*,*,#292,.F.);
#243=ORIENTED_EDGE('',*,*,#294,.T.);
#244=ORIENTED_EDGE('',*,*,#293,.F.);
#245=ORIENTED_EDGE('',*,*,#294,.F.);
#246=VERTEX_POINT('',#513);
#247=VERTEX_POINT('',#516);
#248=VERTEX_POINT('',#519);
#249=VERTEX_POINT('',#523);
#250=VERTEX_POINT('',#525);
#251=VERTEX_POINT('',#528);
#252=VERTEX_POINT('',#531);
#253=VERTEX_POINT('',#536);
#254=VERTEX_POINT('',#537);
#255=VERTEX_POINT('',#540);
#256=VERTEX_POINT('',#543);
#257=VERTEX_POINT('',#546);
#258=VERTEX_POINT('',#549);
#259=VERTEX_POINT('',#552);
#260=VERTEX_POINT('',#555);
#261=VERTEX_POINT('',#558);
#262=VERTEX_POINT('',#561);
#263=VERTEX_POINT('',#564);
#264=VERTEX_POINT('',#567);
#265=VERTEX_POINT('',#570);
#266=VERTEX_POINT('',#573);
#267=VERTEX_POINT('',#576);
#268=VERTEX_POINT('',#579);
#269=VERTEX_POINT('',#582);
#270=VERTEX_POINT('',#585);
#271=EDGE_CURVE('',#246,#246,#295,.T.);
#272=EDGE_CURVE('',#247,#247,#296,.T.);
#273=EDGE_CURVE('',#248,#248,#297,.T.);
#274=EDGE_CURVE('',#249,#249,#298,.T.);
#275=EDGE_CURVE('',#250,#250,#299,.T.);
#276=EDGE_CURVE('',#251,#251,#300,.T.);
#277=EDGE_CURVE('',#252,#252,#301,.T.);
#278=EDGE_CURVE('',#253,#253,#302,.T.);
#279=EDGE_CURVE('',#255,#255,#303,.T.);
#280=EDGE_CURVE('',#256,#256,#304,.T.);
#281=EDGE_CURVE('',#257,#257,#305,.T.);
#282=EDGE_CURVE('',#258,#258,#306,.T.);
#283=EDGE_CURVE('',#259,#259,#307,.T.);
#284=EDGE_CURVE('',#260,#260,#308,.T.);
#285=EDGE_CURVE('',#261,#261,#309,.T.);
#286=EDGE_CURVE('',#262,#262,#310,.T.);
#287=EDGE_CURVE('',#263,#263,#311,.T.);
#288=EDGE_CURVE('',#264,#264,#312,.T.);
#289=EDGE_CURVE('',#265,#265,#313,.T.);
#290=EDGE_CURVE('',#266,#266,#314,.T.);
#291=EDGE_CURVE('',#267,#267,#315,.T.);
#292=EDGE_CURVE('',#268,#268,#316,.T.);
#293=EDGE_CURVE('',#269,#269,#317,.T.);
#294=EDGE_CURVE('',#270,#270,#318,.T.);
#295=CIRCLE('',#347,4.5);
#296=CIRCLE('',#349,5.);
#297=CIRCLE('',#351,5.);
#298=CIRCLE('',#354,4.5);
#299=CIRCLE('',#355,5.);
#300=CIRCLE('',#357,4.5);
#301=CIRCLE('',#359,4.120869);
#302=CIRCLE('',#363,0.849999999999909);
#303=CIRCLE('',#365,0.980000000000018);
#304=CIRCLE('',#367,2.21000000000001);
#305=CIRCLE('',#369,2.63000000000002);
#306=CIRCLE('',#371,3.03999999999991);
#307=CIRCLE('',#373,3.26000000000002);
#308=CIRCLE('',#375,3.26000000000002);
#309=CIRCLE('',#377,2.48000000000002);
#310=CIRCLE('',#379,2.24000000000001);
#311=CIRCLE('',#381,2.24000000000001);
#312=CIRCLE('',#383,2.76000000000002);
#313=CIRCLE('',#385,3.00366700000001);
#314=CIRCLE('',#387,3.00366700000001);
#315=CIRCLE('',#389,3.02000000000001);
#316=CIRCLE('',#391,3.26000000000002);
#317=CIRCLE('',#393,3.86000000000001);
#318=CIRCLE('',#395,4.120869);
#319=PRESENTATION_LAYER_ASSIGNMENT('1','Layer 1',(#344,#345,#346,#41));
#320=PRESENTATION_LAYER_ASSIGNMENT('2','Layer 2',(#42));
#321=PRESENTATION_LAYER_ASSIGNMENT('3','Layer 3',(#43));
#322=STYLED_ITEM('',(#328),#344);
#323=STYLED_ITEM('',(#329),#345);
#324=STYLED_ITEM('',(#330),#346);
#325=STYLED_ITEM('',(#331),#41);
#326=STYLED_ITEM('',(#332),#42);
#327=STYLED_ITEM('',(#333),#43);
#328=PRESENTATION_STYLE_ASSIGNMENT((#334));
#329=PRESENTATION_STYLE_ASSIGNMENT((#335));
#330=PRESENTATION_STYLE_ASSIGNMENT((#336));
#331=PRESENTATION_STYLE_ASSIGNMENT((#26));
#332=PRESENTATION_STYLE_ASSIGNMENT((#27));
#333=PRESENTATION_STYLE_ASSIGNMENT((#28));
#334=CURVE_STYLE('',#340,POSITIVE_LENGTH_MEASURE(0.18),#337);
#335=CURVE_STYLE('',#341,POSITIVE_LENGTH_MEASURE(0.18),#337);
#336=CURVE_STYLE('',#342,POSITIVE_LENGTH_MEASURE(0.18),#337);
#337=COLOUR_RGB('Medium Maroon',0.6,0.4,0.4);
#338=COLOUR_RGB('Medium Gray',0.490196078431373,0.490196078431373,0.490196078431373);
#339=COLOUR_RGB('Light Gray',0.8,0.8,0.8);
#340=DRAUGHTING_PRE_DEFINED_CURVE_FONT('continuous');
#341=DRAUGHTING_PRE_DEFINED_CURVE_FONT('continuous');
#342=DRAUGHTING_PRE_DEFINED_CURVE_FONT('continuous');
#343=AXIS2_PLACEMENT_3D('',#508,#398,#399);
#344=AXIS2_PLACEMENT_3D('MCS',#509,#400,#401);
#345=AXIS2_PLACEMENT_3D('PCS',#510,#402,#403);
#346=AXIS2_PLACEMENT_3D('CIP',#511,#404,#405);
#347=AXIS2_PLACEMENT_3D('',#512,#406,#407);
#348=AXIS2_PLACEMENT_3D('',#514,#408,#409);
#349=AXIS2_PLACEMENT_3D('',#515,#410,#411);
#350=AXIS2_PLACEMENT_3D('',#517,#412,#413);
#351=AXIS2_PLACEMENT_3D('',#518,#414,#415);
#352=AXIS2_PLACEMENT_3D('',#520,#416,#417);
#353=AXIS2_PLACEMENT_3D('',#521,#418,#419);
#354=AXIS2_PLACEMENT_3D('',#522,#420,#421);
#355=AXIS2_PLACEMENT_3D('',#524,#422,#423);
#356=AXIS2_PLACEMENT_3D('',#526,#424,#425);
#357=AXIS2_PLACEMENT_3D('',#527,#426,#427);
#358=AXIS2_PLACEMENT_3D('',#529,#428,#429);
#359=AXIS2_PLACEMENT_3D('',#530,#430,#431);
#360=AXIS2_PLACEMENT_3D('',#532,#432,#433);
#361=AXIS2_PLACEMENT_3D('',#533,#434,#435);
#362=AXIS2_PLACEMENT_3D('',#534,#436,#437);
#363=AXIS2_PLACEMENT_3D('',#535,#438,#439);
#364=AXIS2_PLACEMENT_3D('',#538,#440,#441);
#365=AXIS2_PLACEMENT_3D('',#539,#442,#443);
#366=AXIS2_PLACEMENT_3D('',#541,#444,#445);
#367=AXIS2_PLACEMENT_3D('',#542,#446,#447);
#368=AXIS2_PLACEMENT_3D('',#544,#448,#449);
#369=AXIS2_PLACEMENT_3D('',#545,#450,#451);
#370=AXIS2_PLACEMENT_3D('',#547,#452,#453);
#371=AXIS2_PLACEMENT_3D('',#548,#454,#455);
#372=AXIS2_PLACEMENT_3D('',#550,#456,#457);
#373=AXIS2_PLACEMENT_3D('',#551,#458,#459);
#374=AXIS2_PLACEMENT_3D('',#553,#460,#461);
#375=AXIS2_PLACEMENT_3D('',#554,#462,#463);
#376=AXIS2_PLACEMENT_3D('',#556,#464,#465);
#377=AXIS2_PLACEMENT_3D('',#557,#466,#467);
#378=AXIS2_PLACEMENT_3D('',#559,#468,#469);
#379=AXIS2_PLACEMENT_3D('',#560,#470,#471);
#380=AXIS2_PLACEMENT_3D('',#562,#472,#473);
#381=AXIS2_PLACEMENT_3D('',#563,#474,#475);
#382=AXIS2_PLACEMENT_3D('',#565,#476,#477);
#383=AXIS2_PLACEMENT_3D('',#566,#478,#479);
#384=AXIS2_PLACEMENT_3D('',#568,#480,#481);
#385=AXIS2_PLACEMENT_3D('',#569,#482,#483);
#386=AXIS2_PLACEMENT_3D('',#571,#484,#485);
#387=AXIS2_PLACEMENT_3D('',#572,#486,#487);
#388=AXIS2_PLACEMENT_3D('',#574,#488,#489);
#389=AXIS2_PLACEMENT_3D('',#575,#490,#491);
#390=AXIS2_PLACEMENT_3D('',#577,#492,#493);
#391=AXIS2_PLACEMENT_3D('',#578,#494,#495);
#392=AXIS2_PLACEMENT_3D('',#580,#496,#497);
#393=AXIS2_PLACEMENT_3D('',#581,#498,#499);
#394=AXIS2_PLACEMENT_3D('',#583,#500,#501);
#395=AXIS2_PLACEMENT_3D('',#584,#502,#503);
#396=AXIS2_PLACEMENT_3D('',#586,#504,#505);
#397=AXIS2_PLACEMENT_3D('',#587,#506,#507);
#398=DIRECTION('',(0.,0.,1.));
#399=DIRECTION('',(1.,0.,0.));
#400=DIRECTION('',(0.,0.,1.));
#401=DIRECTION('',(1.,0.,0.));
#402=DIRECTION('',(0.,0.,1.));
#403=DIRECTION('',(1.,0.,0.));
#404=DIRECTION('',(0.,0.,1.));
#405=DIRECTION('',(1.,0.,0.));
#406=DIRECTION('',(0.,0.,1.));
#407=DIRECTION('',(1.,0.,0.));
#408=DIRECTION('',(0.,0.,1.));
#409=DIRECTION('',(-1.,0.,0.));
#410=DIRECTION('',(0.,0.,1.));
#411=DIRECTION('',(1.,0.,0.));
#412=DIRECTION('',(0.,0.,-1.));
#413=DIRECTION('',(1.,0.,3.45390438223356E-17));
#414=DIRECTION('',(0.,0.,1.));
#415=DIRECTION('',(1.,0.,0.));
#416=DIRECTION('',(0.,0.,1.));
#417=DIRECTION('',(-1.,0.,0.));
#418=DIRECTION('',(0.,0.,-1.));
#419=DIRECTION('',(1.,0.,0.));
#420=DIRECTION('',(0.,0.,-1.));
#421=DIRECTION('',(-1.,0.,0.));
#422=DIRECTION('',(0.,0.,-1.));
#423=DIRECTION('',(-1.,0.,0.));
#424=DIRECTION('',(0.,0.,1.));
#425=DIRECTION('',(-1.,0.,3.23755190111633E-17));
#426=DIRECTION('',(0.,0.,-1.));
#427=DIRECTION('',(-1.,0.,0.));
#428=DIRECTION('',(0.,0.,-1.));
#429=DIRECTION('',(1.,0.,0.));
#430=DIRECTION('',(0.,0.,-1.));
#431=DIRECTION('',(-1.,0.,0.));
#432=DIRECTION('',(0.,0.,1.));
#433=DIRECTION('',(-1.,0.,4.66383879349275E-17));
#434=DIRECTION('',(0.,0.,1.));
#435=DIRECTION('',(-1.,0.,0.));
#436=DIRECTION('',(0.,0.,-1.));
#437=DIRECTION('',(1.,0.,0.));
#438=DIRECTION('',(0.,0.,-1.));
#439=DIRECTION('',(-1.,0.,0.));
#440=DIRECTION('',(0.,0.,1.));
#441=DIRECTION('',(-1.,0.,-3.67353206677421E-18));
#442=DIRECTION('',(0.,0.,-1.));
#443=DIRECTION('',(-1.,0.,0.));
#444=DIRECTION('',(0.,0.,1.));
#445=DIRECTION('',(-1.,0.,-8.00484586165827E-18));
#446=DIRECTION('',(0.,0.,-1.));
#447=DIRECTION('',(-1.,0.,0.));
#448=DIRECTION('',(0.,0.,1.));
#449=DIRECTION('',(-1.,0.,1.77639690137999E-17));
#450=DIRECTION('',(0.,0.,-1.));
#451=DIRECTION('',(-1.,0.,0.));
#452=DIRECTION('',(0.,0.,1.));
#453=DIRECTION('',(-1.,0.,0.));
#454=DIRECTION('',(0.,0.,-1.));
#455=DIRECTION('',(-1.,0.,0.));
#456=DIRECTION('',(0.,0.,1.));
#457=DIRECTION('',(-1.,0.,-5.07235884294945E-18));
#458=DIRECTION('',(0.,0.,-1.));
#459=DIRECTION('',(-1.,0.,0.));
#460=DIRECTION('',(0.,0.,1.));
#461=DIRECTION('',(-1.,0.,-1.26022395314002E-17));
#462=DIRECTION('',(0.,0.,-1.));
#463=DIRECTION('',(-1.,0.,0.));
#464=DIRECTION('',(0.,0.,-1.));
#465=DIRECTION('',(1.,0.,0.));
#466=DIRECTION('',(0.,0.,-1.));
#467=DIRECTION('',(-1.,0.,0.));
#468=DIRECTION('',(0.,0.,-1.));
#469=DIRECTION('',(1.,0.,-2.3974158269703E-17));
#470=DIRECTION('',(0.,0.,-1.));
#471=DIRECTION('',(-1.,0.,0.));
#472=DIRECTION('',(0.,0.,-1.));
#473=DIRECTION('',(1.,0.,1.21255227422702E-17));
#474=DIRECTION('',(0.,0.,-1.));
#475=DIRECTION('',(-1.,0.,0.));
#476=DIRECTION('',(0.,0.,-1.));
#477=DIRECTION('',(1.,0.,0.));
#478=DIRECTION('',(0.,0.,-1.));
#479=DIRECTION('',(-1.,0.,0.));
#480=DIRECTION('',(0.,0.,1.));
#481=DIRECTION('',(-1.,0.,1.79911859486851E-17));
#482=DIRECTION('',(0.,0.,-1.));
#483=DIRECTION('',(-1.,0.,0.));
#484=DIRECTION('',(0.,0.,1.));
#485=DIRECTION('',(-1.,0.,-8.08236361580561E-18));
#486=DIRECTION('',(0.,0.,-1.));
#487=DIRECTION('',(-1.,0.,0.));
#488=DIRECTION('',(0.,0.,-1.));
#489=DIRECTION('',(1.,0.,0.));
#490=DIRECTION('',(0.,0.,-1.));
#491=DIRECTION('',(-1.,0.,0.));
#492=DIRECTION('',(0.,0.,1.));
#493=DIRECTION('',(-1.,0.,-3.19702633877336E-17));
#494=DIRECTION('',(0.,0.,-1.));
#495=DIRECTION('',(-1.,0.,0.));
#496=DIRECTION('',(0.,0.,1.));
#497=DIRECTION('',(-1.,0.,4.04056997318044E-18));
#498=DIRECTION('',(0.,0.,-1.));
#499=DIRECTION('',(-1.,0.,0.));
#500=DIRECTION('',(0.,0.,1.));
#501=DIRECTION('',(-1.,0.,1.72856976760406E-18));
#502=DIRECTION('',(0.,0.,-1.));
#503=DIRECTION('',(-1.,0.,0.));
#504=DIRECTION('',(0.,0.,1.));
#505=DIRECTION('',(-1.,0.,-2.99170078549424E-17));
#506=DIRECTION('',(0.,0.,1.));
#507=DIRECTION('',(-1.,0.,0.));
#508=CARTESIAN_POINT('',(0.,0.,0.));
#509=CARTESIAN_POINT('',(0.,0.,0.));
#510=CARTESIAN_POINT('',(0.,0.,40.));
#511=CARTESIAN_POINT('',(0.,0.,-34.));
#512=CARTESIAN_POINT('',(0.,0.,40.));
#513=CARTESIAN_POINT('',(4.5,0.,40.));
#514=CARTESIAN_POINT('',(0.,0.,40.));
#515=CARTESIAN_POINT('',(0.,0.,39.5));
#516=CARTESIAN_POINT('',(5.,0.,39.5));
#517=CARTESIAN_POINT('',(0.,0.,40.));
#518=CARTESIAN_POINT('',(0.,0.,0.));
#519=CARTESIAN_POINT('',(5.,0.,0.));
#520=CARTESIAN_POINT('',(0.,0.,0.));
#521=CARTESIAN_POINT('',(0.,5.,0.));
#522=CARTESIAN_POINT('',(0.,0.,-0.5));
#523=CARTESIAN_POINT('',(-4.5,0.,-0.5));
#524=CARTESIAN_POINT('',(0.,0.,0.));
#525=CARTESIAN_POINT('',(-5.,0.,0.));
#526=CARTESIAN_POINT('',(0.,0.,-0.349999999999994));
#527=CARTESIAN_POINT('',(0.,0.,-14.61));
#528=CARTESIAN_POINT('',(-4.5,0.,-14.61));
#529=CARTESIAN_POINT('',(0.,0.,0.));
#530=CARTESIAN_POINT('',(0.,0.,-14.989131));
#531=CARTESIAN_POINT('',(-4.120869,0.,-14.989131));
#532=CARTESIAN_POINT('',(0.,0.,-14.8399999999999));
#533=CARTESIAN_POINT('',(0.,4.120869,-14.989131));
#534=CARTESIAN_POINT('',(0.,0.,0.));
#535=CARTESIAN_POINT('',(0.,0.,-33.8499999999999));
#536=CARTESIAN_POINT('',(-0.849999999999909,0.,-33.8499999999999));
#537=CARTESIAN_POINT('',(0.,0.,-33.9999999999999));
#538=CARTESIAN_POINT('',(0.,0.,-33.9999999999999));
#539=CARTESIAN_POINT('',(0.,0.,-33.8199999999999));
#540=CARTESIAN_POINT('',(-0.980000000000018,0.,-33.8199999999999));
#541=CARTESIAN_POINT('',(0.,0.,-33.8499999999999));
#542=CARTESIAN_POINT('',(0.,0.,-33.3699999999999));
#543=CARTESIAN_POINT('',(-2.21000000000001,0.,-33.3699999999999));
#544=CARTESIAN_POINT('',(0.,0.,-33.8199999999999));
#545=CARTESIAN_POINT('',(0.,0.,-33.2199999999999));
#546=CARTESIAN_POINT('',(-2.63000000000002,0.,-33.2199999999999));
#547=CARTESIAN_POINT('',(0.,0.,-33.3699999999999));
#548=CARTESIAN_POINT('',(0.,0.,-33.0699999999999));
#549=CARTESIAN_POINT('',(-3.03999999999991,0.,-33.0699999999999));
#550=CARTESIAN_POINT('',(0.,0.,-33.2199999999999));
#551=CARTESIAN_POINT('',(0.,0.,-32.9899999999999));
#552=CARTESIAN_POINT('',(-3.26000000000002,0.,-32.9899999999999));
#553=CARTESIAN_POINT('',(0.,0.,-33.0699999999999));
#554=CARTESIAN_POINT('',(0.,0.,-31.5799999999999));
#555=CARTESIAN_POINT('',(-3.26000000000002,0.,-31.5799999999999));
#556=CARTESIAN_POINT('',(0.,0.,-14.989131));
#557=CARTESIAN_POINT('',(0.,0.,-31.1299999999999));
#558=CARTESIAN_POINT('',(-2.48000000000002,0.,-31.1299999999999));
#559=CARTESIAN_POINT('',(0.,0.,-31.5799999999999));
#560=CARTESIAN_POINT('',(0.,0.,-30.9899999999999));
#561=CARTESIAN_POINT('',(-2.24000000000001,0.,-30.9899999999999));
#562=CARTESIAN_POINT('',(0.,0.,-31.1299999999999));
#563=CARTESIAN_POINT('',(0.,0.,-30.6199999999999));
#564=CARTESIAN_POINT('',(-2.24000000000001,0.,-30.6199999999999));
#565=CARTESIAN_POINT('',(0.,0.,-14.989131));
#566=CARTESIAN_POINT('',(0.,0.,-30.32));
#567=CARTESIAN_POINT('',(-2.76000000000002,0.,-30.32));
#568=CARTESIAN_POINT('',(0.,0.,-30.6199999999999));
#569=CARTESIAN_POINT('',(0.,0.,-30.1778609166666));
#570=CARTESIAN_POINT('',(-3.00366700000001,0.,-30.1778609166666));
#571=CARTESIAN_POINT('',(0.,0.,-30.32));
#572=CARTESIAN_POINT('',(0.,0.,-15.9894228846153));
#573=CARTESIAN_POINT('',(-3.00366700000001,0.,-15.9894228846153));
#574=CARTESIAN_POINT('',(0.,0.,-14.989131));
#575=CARTESIAN_POINT('',(0.,0.,-15.98));
#576=CARTESIAN_POINT('',(-3.02000000000001,0.,-15.98));
#577=CARTESIAN_POINT('',(0.,0.,-15.9894228846153));
#578=CARTESIAN_POINT('',(0.,0.,-15.8399999999999));
#579=CARTESIAN_POINT('',(-3.26000000000002,0.,-15.8399999999999));
#580=CARTESIAN_POINT('',(0.,0.,-15.98));
#581=CARTESIAN_POINT('',(0.,0.,-15.24));
#582=CARTESIAN_POINT('',(-3.86000000000001,0.,-15.24));
#583=CARTESIAN_POINT('',(0.,0.,-15.54));
#584=CARTESIAN_POINT('',(0.,0.,-14.989131));
#585=CARTESIAN_POINT('',(-4.120869,0.,-14.989131));
#586=CARTESIAN_POINT('',(0.,0.,-15.24));
#587=CARTESIAN_POINT('',(0.,4.120869,-14.989131));
#588=MECHANICAL_DESIGN_GEOMETRIC_PRESENTATION_REPRESENTATION('',(#322,#323,
#324,#325,#326,#327),#589);
#589=(
GEOMETRIC_REPRESENTATION_CONTEXT(3)
GLOBAL_UNCERTAINTY_ASSIGNED_CONTEXT((#590))
GLOBAL_UNIT_ASSIGNED_CONTEXT((#596,#592,#591))
REPRESENTATION_CONTEXT('DTM-5_16X18UNC-10R1','TOP_LEVEL_ASSEMBLY_PART')
);
#590=UNCERTAINTY_MEASURE_WITH_UNIT(LENGTH_MEASURE(2.E-5),#596,
'DISTANCE_ACCURACY_VALUE','Maximum Tolerance applied to model');
#591=(
NAMED_UNIT(*)
SI_UNIT($,.STERADIAN.)
SOLID_ANGLE_UNIT()
);
#592=(
CONVERSION_BASED_UNIT('DEGREE',#594)
NAMED_UNIT(#593)
PLANE_ANGLE_UNIT()
);
#593=DIMENSIONAL_EXPONENTS(0.,0.,0.,0.,0.,0.,0.);
#594=PLANE_ANGLE_MEASURE_WITH_UNIT(PLANE_ANGLE_MEASURE(0.0174532925),#595);
#595=(
NAMED_UNIT(*)
PLANE_ANGLE_UNIT()
SI_UNIT($,.RADIAN.)
);
#596=(
LENGTH_UNIT()
NAMED_UNIT(*)
SI_UNIT(.MILLI.,.METRE.)
);
ENDSEC;
END-ISO-10303-21;
