ISO-10303-21;
HEADER;
/* Generated by software containing ST-Developer
 * from STEP Tools, Inc. (www.steptools.com) 
 */
/* OPTION: using custom schema-name function */

FILE_DESCRIPTION(
/* description */ (''),
/* implementation_level */ '2;1');

FILE_NAME(
/* name */ 'DTM-1_4X28UNF-8R1.stp',
/* time_stamp */ '2017-09-14T08:51:20+05:00',
/* author */ (''),
/* organization */ (''),
/* preprocessor_version */ 'ST-DEVELOPER v16',
/* originating_system */ 'SIEMENS PLM Software NX 11.0',
/* authorisation */ '');

FILE_SCHEMA (('AUTOMOTIVE_DESIGN { 1 0 10303 214 3 1 1 1 }'));
ENDSEC;

DATA;
#10=CONSTRUCTIVE_GEOMETRY_REPRESENTATION_RELATIONSHIP(
'supplemental geometry','',#24,#11);
#11=CONSTRUCTIVE_GEOMETRY_REPRESENTATION('supplemental geometry',(#344,
#345,#346),#589);
#12=SHAPE_REPRESENTATION_RELATIONSHIP('None',
'relationship between DTM-1_4X28UNF-8R1-None and DTM-1_4X28UNF-8R1-Non
e',#24,#13);
#13=ADVANCED_BREP_SHAPE_REPRESENTATION('DTM-1_4X28UNF-8R1-None',(#41,#42,
#43),#589);
#14=SHAPE_DEFINITION_REPRESENTATION(#15,#24);
#15=PRODUCT_DEFINITION_SHAPE('','',#16);
#16=PRODUCT_DEFINITION(' ','',#18,#17);
#17=PRODUCT_DEFINITION_CONTEXT('part definition',#23,'design');
#18=PRODUCT_DEFINITION_FORMATION_WITH_SPECIFIED_SOURCE(' ',' ',#20,
 .NOT_KNOWN.);
#19=PRODUCT_RELATED_PRODUCT_CATEGORY('part','',(#20));
#20=PRODUCT('DTM-1_4X28UNF-8R1','DTM-1_4X28UNF-8R1',' ',(#21));
#21=PRODUCT_CONTEXT(' ',#23,'mechanical');
#22=APPLICATION_PROTOCOL_DEFINITION('international standard',
'automotive_design',2010,#23);
#23=APPLICATION_CONTEXT(
'core data for automotive mechanical design processes');
#24=SHAPE_REPRESENTATION('DTM-1_4X28UNF-8R1-None',(#343),#589);
#25=VERTEX_LOOP('',#270);
#26=SURFACE_STYLE_USAGE(.BOTH.,#29);
#27=SURFACE_STYLE_USAGE(.BOTH.,#30);
#28=SURFACE_STYLE_USAGE(.BOTH.,#31);
#29=SURFACE_SIDE_STYLE('',(#32));
#30=SURFACE_SIDE_STYLE('',(#33));
#31=SURFACE_SIDE_STYLE('',(#34));
#32=SURFACE_STYLE_FILL_AREA(#35);
#33=SURFACE_STYLE_FILL_AREA(#36);
#34=SURFACE_STYLE_FILL_AREA(#37);
#35=FILL_AREA_STYLE('',(#38));
#36=FILL_AREA_STYLE('',(#39));
#37=FILL_AREA_STYLE('',(#40));
#38=FILL_AREA_STYLE_COLOUR('',#338);
#39=FILL_AREA_STYLE_COLOUR('',#338);
#40=FILL_AREA_STYLE_COLOUR('',#339);
#41=MANIFOLD_SOLID_BREP('NOCUT',#44);
#42=MANIFOLD_SOLID_BREP('NOCUT',#45);
#43=MANIFOLD_SOLID_BREP('CUT',#46);
#44=CLOSED_SHELL('',(#74,#75,#76,#77));
#45=CLOSED_SHELL('',(#78,#79,#80,#81,#82,#83,#84,#85));
#46=CLOSED_SHELL('',(#86,#87,#88,#89,#90,#91,#92,#93,#94,#95,#96,#97,#98,
#99,#100));
#47=PLANE('',#352);
#48=PLANE('',#353);
#49=PLANE('',#355);
#50=PLANE('',#365);
#51=PLANE('',#368);
#52=PLANE('',#373);
#53=PLANE('',#397);
#54=FACE_OUTER_BOUND('',#154,.T.);
#55=FACE_OUTER_BOUND('',#155,.T.);
#56=FACE_OUTER_BOUND('',#156,.T.);
#57=FACE_OUTER_BOUND('',#169,.T.);
#58=FACE_OUTER_BOUND('',#197,.T.);
#59=CONICAL_SURFACE('',#351,4.,45.);
#60=CONICAL_SURFACE('',#357,3.3325080000001,44.9999999999781);
#61=CONICAL_SURFACE('',#359,3.47999999999999,43.0250659891199);
#62=CONICAL_SURFACE('',#361,3.77000000000001,44.9999999999998);
#63=CONICAL_SURFACE('',#367,3.97999999999999,11.3099324740156);
#64=CONICAL_SURFACE('',#371,3.33250799999999,44.9999999999901);
#65=CONICAL_SURFACE('',#375,3.31999999999999,45.);
#66=CONICAL_SURFACE('',#379,2.5865,61.557071375636);
#67=CONICAL_SURFACE('',#381,2.34999999999999,60.0183606311485);
#68=CONICAL_SURFACE('',#385,2.09,57.5288077091453);
#69=CONICAL_SURFACE('',#387,2.19999999999999,60.0183606311516);
#70=CONICAL_SURFACE('',#391,2.72,68.1985905136462);
#71=CONICAL_SURFACE('',#393,2.47,70.3461759419486);
#72=CONICAL_SURFACE('',#395,2.04999999999998,69.9047688080955);
#73=CONICAL_SURFACE('',#396,0.819999999999993,80.3112134396321);
#74=ADVANCED_FACE('',(#106,#107),#101,.T.);
#75=ADVANCED_FACE('',(#108,#109),#59,.T.);
#76=ADVANCED_FACE('',(#54),#47,.F.);
#77=ADVANCED_FACE('',(#55),#48,.F.);
#78=ADVANCED_FACE('',(#56),#49,.T.);
#79=ADVANCED_FACE('',(#110,#111),#60,.T.);
#80=ADVANCED_FACE('',(#112,#113),#61,.T.);
#81=ADVANCED_FACE('',(#114,#115),#62,.T.);
#82=ADVANCED_FACE('',(#116,#117),#102,.T.);
#83=ADVANCED_FACE('',(#118,#119),#50,.T.);
#84=ADVANCED_FACE('',(#120,#121),#63,.T.);
#85=ADVANCED_FACE('',(#57),#51,.T.);
#86=ADVANCED_FACE('',(#122,#123),#64,.T.);
#87=ADVANCED_FACE('',(#124,#125),#52,.F.);
#88=ADVANCED_FACE('',(#126,#127),#65,.T.);
#89=ADVANCED_FACE('',(#128,#129),#103,.T.);
#90=ADVANCED_FACE('',(#130,#131),#66,.T.);
#91=ADVANCED_FACE('',(#132,#133),#67,.T.);
#92=ADVANCED_FACE('',(#134,#135),#104,.T.);
#93=ADVANCED_FACE('',(#136,#137),#68,.T.);
#94=ADVANCED_FACE('',(#138,#139),#69,.T.);
#95=ADVANCED_FACE('',(#140,#141),#105,.T.);
#96=ADVANCED_FACE('',(#142,#143),#70,.T.);
#97=ADVANCED_FACE('',(#144,#145),#71,.T.);
#98=ADVANCED_FACE('',(#146,#147),#72,.T.);
#99=ADVANCED_FACE('',(#148,#149),#73,.T.);
#100=ADVANCED_FACE('',(#58),#53,.F.);
#101=CYLINDRICAL_SURFACE('',#349,4.);
#102=CYLINDRICAL_SURFACE('',#363,3.90000000000005);
#103=CYLINDRICAL_SURFACE('',#377,2.5865);
#104=CYLINDRICAL_SURFACE('',#383,2.09);
#105=CYLINDRICAL_SURFACE('',#389,2.72);
#106=FACE_BOUND('',#150,.T.);
#107=FACE_BOUND('',#151,.T.);
#108=FACE_BOUND('',#152,.T.);
#109=FACE_BOUND('',#153,.T.);
#110=FACE_BOUND('',#157,.T.);
#111=FACE_BOUND('',#158,.T.);
#112=FACE_BOUND('',#159,.T.);
#113=FACE_BOUND('',#160,.T.);
#114=FACE_BOUND('',#161,.T.);
#115=FACE_BOUND('',#162,.T.);
#116=FACE_BOUND('',#163,.T.);
#117=FACE_BOUND('',#164,.T.);
#118=FACE_BOUND('',#165,.T.);
#119=FACE_BOUND('',#166,.T.);
#120=FACE_BOUND('',#167,.T.);
#121=FACE_BOUND('',#168,.T.);
#122=FACE_BOUND('',#170,.T.);
#123=FACE_BOUND('',#171,.T.);
#124=FACE_BOUND('',#172,.T.);
#125=FACE_BOUND('',#173,.T.);
#126=FACE_BOUND('',#174,.T.);
#127=FACE_BOUND('',#175,.T.);
#128=FACE_BOUND('',#176,.T.);
#129=FACE_BOUND('',#177,.T.);
#130=FACE_BOUND('',#178,.T.);
#131=FACE_BOUND('',#179,.T.);
#132=FACE_BOUND('',#180,.T.);
#133=FACE_BOUND('',#181,.T.);
#134=FACE_BOUND('',#182,.T.);
#135=FACE_BOUND('',#183,.T.);
#136=FACE_BOUND('',#184,.T.);
#137=FACE_BOUND('',#185,.T.);
#138=FACE_BOUND('',#186,.T.);
#139=FACE_BOUND('',#187,.T.);
#140=FACE_BOUND('',#188,.T.);
#141=FACE_BOUND('',#189,.T.);
#142=FACE_BOUND('',#190,.T.);
#143=FACE_BOUND('',#191,.T.);
#144=FACE_BOUND('',#192,.T.);
#145=FACE_BOUND('',#193,.T.);
#146=FACE_BOUND('',#194,.T.);
#147=FACE_BOUND('',#195,.T.);
#148=FACE_BOUND('',#25,.T.);
#149=FACE_BOUND('',#196,.T.);
#150=EDGE_LOOP('',(#198));
#151=EDGE_LOOP('',(#199));
#152=EDGE_LOOP('',(#200));
#153=EDGE_LOOP('',(#201));
#154=EDGE_LOOP('',(#202));
#155=EDGE_LOOP('',(#203));
#156=EDGE_LOOP('',(#204));
#157=EDGE_LOOP('',(#205));
#158=EDGE_LOOP('',(#206));
#159=EDGE_LOOP('',(#207));
#160=EDGE_LOOP('',(#208));
#161=EDGE_LOOP('',(#209));
#162=EDGE_LOOP('',(#210));
#163=EDGE_LOOP('',(#211));
#164=EDGE_LOOP('',(#212));
#165=EDGE_LOOP('',(#213));
#166=EDGE_LOOP('',(#214));
#167=EDGE_LOOP('',(#215));
#168=EDGE_LOOP('',(#216));
#169=EDGE_LOOP('',(#217));
#170=EDGE_LOOP('',(#218));
#171=EDGE_LOOP('',(#219));
#172=EDGE_LOOP('',(#220));
#173=EDGE_LOOP('',(#221));
#174=EDGE_LOOP('',(#222));
#175=EDGE_LOOP('',(#223));
#176=EDGE_LOOP('',(#224));
#177=EDGE_LOOP('',(#225));
#178=EDGE_LOOP('',(#226));
#179=EDGE_LOOP('',(#227));
#180=EDGE_LOOP('',(#228));
#181=EDGE_LOOP('',(#229));
#182=EDGE_LOOP('',(#230));
#183=EDGE_LOOP('',(#231));
#184=EDGE_LOOP('',(#232));
#185=EDGE_LOOP('',(#233));
#186=EDGE_LOOP('',(#234));
#187=EDGE_LOOP('',(#235));
#188=EDGE_LOOP('',(#236));
#189=EDGE_LOOP('',(#237));
#190=EDGE_LOOP('',(#238));
#191=EDGE_LOOP('',(#239));
#192=EDGE_LOOP('',(#240));
#193=EDGE_LOOP('',(#241));
#194=EDGE_LOOP('',(#242));
#195=EDGE_LOOP('',(#243));
#196=EDGE_LOOP('',(#244));
#197=EDGE_LOOP('',(#245));
#198=ORIENTED_EDGE('',*,*,#271,.F.);
#199=ORIENTED_EDGE('',*,*,#272,.T.);
#200=ORIENTED_EDGE('',*,*,#273,.F.);
#201=ORIENTED_EDGE('',*,*,#271,.T.);
#202=ORIENTED_EDGE('',*,*,#273,.T.);
#203=ORIENTED_EDGE('',*,*,#272,.F.);
#204=ORIENTED_EDGE('',*,*,#274,.T.);
#205=ORIENTED_EDGE('',*,*,#275,.T.);
#206=ORIENTED_EDGE('',*,*,#274,.F.);
#207=ORIENTED_EDGE('',*,*,#276,.T.);
#208=ORIENTED_EDGE('',*,*,#275,.F.);
#209=ORIENTED_EDGE('',*,*,#277,.T.);
#210=ORIENTED_EDGE('',*,*,#276,.F.);
#211=ORIENTED_EDGE('',*,*,#278,.T.);
#212=ORIENTED_EDGE('',*,*,#277,.F.);
#213=ORIENTED_EDGE('',*,*,#279,.T.);
#214=ORIENTED_EDGE('',*,*,#278,.F.);
#215=ORIENTED_EDGE('',*,*,#280,.T.);
#216=ORIENTED_EDGE('',*,*,#279,.F.);
#217=ORIENTED_EDGE('',*,*,#280,.F.);
#218=ORIENTED_EDGE('',*,*,#281,.F.);
#219=ORIENTED_EDGE('',*,*,#282,.T.);
#220=ORIENTED_EDGE('',*,*,#283,.F.);
#221=ORIENTED_EDGE('',*,*,#281,.T.);
#222=ORIENTED_EDGE('',*,*,#284,.F.);
#223=ORIENTED_EDGE('',*,*,#283,.T.);
#224=ORIENTED_EDGE('',*,*,#285,.F.);
#225=ORIENTED_EDGE('',*,*,#284,.T.);
#226=ORIENTED_EDGE('',*,*,#286,.F.);
#227=ORIENTED_EDGE('',*,*,#285,.T.);
#228=ORIENTED_EDGE('',*,*,#287,.F.);
#229=ORIENTED_EDGE('',*,*,#286,.T.);
#230=ORIENTED_EDGE('',*,*,#288,.F.);
#231=ORIENTED_EDGE('',*,*,#287,.T.);
#232=ORIENTED_EDGE('',*,*,#289,.F.);
#233=ORIENTED_EDGE('',*,*,#288,.T.);
#234=ORIENTED_EDGE('',*,*,#290,.F.);
#235=ORIENTED_EDGE('',*,*,#289,.T.);
#236=ORIENTED_EDGE('',*,*,#291,.F.);
#237=ORIENTED_EDGE('',*,*,#290,.T.);
#238=ORIENTED_EDGE('',*,*,#292,.F.);
#239=ORIENTED_EDGE('',*,*,#291,.T.);
#240=ORIENTED_EDGE('',*,*,#293,.F.);
#241=ORIENTED_EDGE('',*,*,#292,.T.);
#242=ORIENTED_EDGE('',*,*,#294,.F.);
#243=ORIENTED_EDGE('',*,*,#293,.T.);
#244=ORIENTED_EDGE('',*,*,#294,.T.);
#245=ORIENTED_EDGE('',*,*,#282,.F.);
#246=VERTEX_POINT('',#513);
#247=VERTEX_POINT('',#515);
#248=VERTEX_POINT('',#518);
#249=VERTEX_POINT('',#523);
#250=VERTEX_POINT('',#526);
#251=VERTEX_POINT('',#529);
#252=VERTEX_POINT('',#532);
#253=VERTEX_POINT('',#535);
#254=VERTEX_POINT('',#538);
#255=VERTEX_POINT('',#541);
#256=VERTEX_POINT('',#545);
#257=VERTEX_POINT('',#547);
#258=VERTEX_POINT('',#550);
#259=VERTEX_POINT('',#553);
#260=VERTEX_POINT('',#556);
#261=VERTEX_POINT('',#559);
#262=VERTEX_POINT('',#562);
#263=VERTEX_POINT('',#565);
#264=VERTEX_POINT('',#568);
#265=VERTEX_POINT('',#571);
#266=VERTEX_POINT('',#574);
#267=VERTEX_POINT('',#577);
#268=VERTEX_POINT('',#580);
#269=VERTEX_POINT('',#583);
#270=VERTEX_POINT('',#585);
#271=EDGE_CURVE('',#246,#246,#295,.T.);
#272=EDGE_CURVE('',#247,#247,#296,.T.);
#273=EDGE_CURVE('',#248,#248,#297,.T.);
#274=EDGE_CURVE('',#249,#249,#298,.T.);
#275=EDGE_CURVE('',#250,#250,#299,.T.);
#276=EDGE_CURVE('',#251,#251,#300,.T.);
#277=EDGE_CURVE('',#252,#252,#301,.T.);
#278=EDGE_CURVE('',#253,#253,#302,.T.);
#279=EDGE_CURVE('',#254,#254,#303,.T.);
#280=EDGE_CURVE('',#255,#255,#304,.T.);
#281=EDGE_CURVE('',#256,#256,#305,.T.);
#282=EDGE_CURVE('',#257,#257,#306,.T.);
#283=EDGE_CURVE('',#258,#258,#307,.T.);
#284=EDGE_CURVE('',#259,#259,#308,.T.);
#285=EDGE_CURVE('',#260,#260,#309,.T.);
#286=EDGE_CURVE('',#261,#261,#310,.T.);
#287=EDGE_CURVE('',#262,#262,#311,.T.);
#288=EDGE_CURVE('',#263,#263,#312,.T.);
#289=EDGE_CURVE('',#264,#264,#313,.T.);
#290=EDGE_CURVE('',#265,#265,#314,.T.);
#291=EDGE_CURVE('',#266,#266,#315,.T.);
#292=EDGE_CURVE('',#267,#267,#316,.T.);
#293=EDGE_CURVE('',#268,#268,#317,.T.);
#294=EDGE_CURVE('',#269,#269,#318,.T.);
#295=CIRCLE('',#347,4.);
#296=CIRCLE('',#348,4.);
#297=CIRCLE('',#350,3.5);
#298=CIRCLE('',#354,3.3325080000001);
#299=CIRCLE('',#356,3.47999999999999);
#300=CIRCLE('',#358,3.62);
#301=CIRCLE('',#360,3.90000000000001);
#302=CIRCLE('',#362,3.90000000000009);
#303=CIRCLE('',#364,3.97999999999999);
#304=CIRCLE('',#366,4.);
#305=CIRCLE('',#369,3.32999999999998);
#306=CIRCLE('',#370,3.33250799999999);
#307=CIRCLE('',#372,3.31999999999999);
#308=CIRCLE('',#374,2.5865);
#309=CIRCLE('',#376,2.5865);
#310=CIRCLE('',#378,2.34999999999999);
#311=CIRCLE('',#380,2.09);
#312=CIRCLE('',#382,2.09);
#313=CIRCLE('',#384,2.19999999999999);
#314=CIRCLE('',#386,2.72);
#315=CIRCLE('',#388,2.72);
#316=CIRCLE('',#390,2.47);
#317=CIRCLE('',#392,2.04999999999998);
#318=CIRCLE('',#394,0.819999999999993);
#319=PRESENTATION_LAYER_ASSIGNMENT('1','Layer 1',(#344,#345,#346,#41));
#320=PRESENTATION_LAYER_ASSIGNMENT('2','Layer 2',(#42));
#321=PRESENTATION_LAYER_ASSIGNMENT('3','Layer 3',(#43));
#322=STYLED_ITEM('',(#328),#344);
#323=STYLED_ITEM('',(#329),#345);
#324=STYLED_ITEM('',(#330),#346);
#325=STYLED_ITEM('',(#331),#41);
#326=STYLED_ITEM('',(#332),#42);
#327=STYLED_ITEM('',(#333),#43);
#328=PRESENTATION_STYLE_ASSIGNMENT((#334));
#329=PRESENTATION_STYLE_ASSIGNMENT((#335));
#330=PRESENTATION_STYLE_ASSIGNMENT((#336));
#331=PRESENTATION_STYLE_ASSIGNMENT((#26));
#332=PRESENTATION_STYLE_ASSIGNMENT((#27));
#333=PRESENTATION_STYLE_ASSIGNMENT((#28));
#334=CURVE_STYLE('',#340,POSITIVE_LENGTH_MEASURE(0.18),#337);
#335=CURVE_STYLE('',#341,POSITIVE_LENGTH_MEASURE(0.18),#337);
#336=CURVE_STYLE('',#342,POSITIVE_LENGTH_MEASURE(0.18),#337);
#337=COLOUR_RGB('Medium Maroon',0.6,0.4,0.4);
#338=COLOUR_RGB('Medium Gray',0.490196078431373,0.490196078431373,0.490196078431373);
#339=COLOUR_RGB('Light Gray',0.8,0.8,0.8);
#340=DRAUGHTING_PRE_DEFINED_CURVE_FONT('continuous');
#341=DRAUGHTING_PRE_DEFINED_CURVE_FONT('continuous');
#342=DRAUGHTING_PRE_DEFINED_CURVE_FONT('continuous');
#343=AXIS2_PLACEMENT_3D('',#508,#398,#399);
#344=AXIS2_PLACEMENT_3D('MCS',#509,#400,#401);
#345=AXIS2_PLACEMENT_3D('PCS',#510,#402,#403);
#346=AXIS2_PLACEMENT_3D('CIP',#511,#404,#405);
#347=AXIS2_PLACEMENT_3D('',#512,#406,#407);
#348=AXIS2_PLACEMENT_3D('',#514,#408,#409);
#349=AXIS2_PLACEMENT_3D('',#516,#410,#411);
#350=AXIS2_PLACEMENT_3D('',#517,#412,#413);
#351=AXIS2_PLACEMENT_3D('',#519,#414,#415);
#352=AXIS2_PLACEMENT_3D('',#520,#416,#417);
#353=AXIS2_PLACEMENT_3D('',#521,#418,#419);
#354=AXIS2_PLACEMENT_3D('',#522,#420,#421);
#355=AXIS2_PLACEMENT_3D('',#524,#422,#423);
#356=AXIS2_PLACEMENT_3D('',#525,#424,#425);
#357=AXIS2_PLACEMENT_3D('',#527,#426,#427);
#358=AXIS2_PLACEMENT_3D('',#528,#428,#429);
#359=AXIS2_PLACEMENT_3D('',#530,#430,#431);
#360=AXIS2_PLACEMENT_3D('',#531,#432,#433);
#361=AXIS2_PLACEMENT_3D('',#533,#434,#435);
#362=AXIS2_PLACEMENT_3D('',#534,#436,#437);
#363=AXIS2_PLACEMENT_3D('',#536,#438,#439);
#364=AXIS2_PLACEMENT_3D('',#537,#440,#441);
#365=AXIS2_PLACEMENT_3D('',#539,#442,#443);
#366=AXIS2_PLACEMENT_3D('',#540,#444,#445);
#367=AXIS2_PLACEMENT_3D('',#542,#446,#447);
#368=AXIS2_PLACEMENT_3D('',#543,#448,#449);
#369=AXIS2_PLACEMENT_3D('',#544,#450,#451);
#370=AXIS2_PLACEMENT_3D('',#546,#452,#453);
#371=AXIS2_PLACEMENT_3D('',#548,#454,#455);
#372=AXIS2_PLACEMENT_3D('',#549,#456,#457);
#373=AXIS2_PLACEMENT_3D('',#551,#458,#459);
#374=AXIS2_PLACEMENT_3D('',#552,#460,#461);
#375=AXIS2_PLACEMENT_3D('',#554,#462,#463);
#376=AXIS2_PLACEMENT_3D('',#555,#464,#465);
#377=AXIS2_PLACEMENT_3D('',#557,#466,#467);
#378=AXIS2_PLACEMENT_3D('',#558,#468,#469);
#379=AXIS2_PLACEMENT_3D('',#560,#470,#471);
#380=AXIS2_PLACEMENT_3D('',#561,#472,#473);
#381=AXIS2_PLACEMENT_3D('',#563,#474,#475);
#382=AXIS2_PLACEMENT_3D('',#564,#476,#477);
#383=AXIS2_PLACEMENT_3D('',#566,#478,#479);
#384=AXIS2_PLACEMENT_3D('',#567,#480,#481);
#385=AXIS2_PLACEMENT_3D('',#569,#482,#483);
#386=AXIS2_PLACEMENT_3D('',#570,#484,#485);
#387=AXIS2_PLACEMENT_3D('',#572,#486,#487);
#388=AXIS2_PLACEMENT_3D('',#573,#488,#489);
#389=AXIS2_PLACEMENT_3D('',#575,#490,#491);
#390=AXIS2_PLACEMENT_3D('',#576,#492,#493);
#391=AXIS2_PLACEMENT_3D('',#578,#494,#495);
#392=AXIS2_PLACEMENT_3D('',#579,#496,#497);
#393=AXIS2_PLACEMENT_3D('',#581,#498,#499);
#394=AXIS2_PLACEMENT_3D('',#582,#500,#501);
#395=AXIS2_PLACEMENT_3D('',#584,#502,#503);
#396=AXIS2_PLACEMENT_3D('',#586,#504,#505);
#397=AXIS2_PLACEMENT_3D('',#587,#506,#507);
#398=DIRECTION('',(0.,0.,1.));
#399=DIRECTION('',(1.,0.,0.));
#400=DIRECTION('',(0.,0.,1.));
#401=DIRECTION('',(1.,0.,0.));
#402=DIRECTION('',(0.,0.,1.));
#403=DIRECTION('',(1.,0.,0.));
#404=DIRECTION('',(0.,0.,1.));
#405=DIRECTION('',(1.,0.,0.));
#406=DIRECTION('',(0.,0.,1.));
#407=DIRECTION('',(1.,0.,0.));
#408=DIRECTION('',(0.,0.,1.));
#409=DIRECTION('',(1.,0.,0.));
#410=DIRECTION('',(0.,0.,1.));
#411=DIRECTION('',(-1.,0.,0.));
#412=DIRECTION('',(0.,0.,1.));
#413=DIRECTION('',(1.,0.,0.));
#414=DIRECTION('',(0.,0.,-1.));
#415=DIRECTION('',(1.,0.,-2.76449956330965E-17));
#416=DIRECTION('',(0.,0.,-1.));
#417=DIRECTION('',(1.,0.,0.));
#418=DIRECTION('',(0.,0.,1.));
#419=DIRECTION('',(-1.,0.,0.));
#420=DIRECTION('',(0.,0.,-1.));
#421=DIRECTION('',(-1.,0.,0.));
#422=DIRECTION('',(0.,0.,-1.));
#423=DIRECTION('',(1.,0.,0.));
#424=DIRECTION('',(0.,0.,-1.));
#425=DIRECTION('',(-1.,0.,0.));
#426=DIRECTION('',(0.,0.,1.));
#427=DIRECTION('',(-1.,0.,5.01398892214163E-17));
#428=DIRECTION('',(0.,0.,-1.));
#429=DIRECTION('',(-1.,0.,0.));
#430=DIRECTION('',(0.,0.,1.));
#431=DIRECTION('',(-1.,0.,2.40724639426891E-17));
#432=DIRECTION('',(0.,0.,-1.));
#433=DIRECTION('',(-1.,0.,0.));
#434=DIRECTION('',(0.,0.,1.));
#435=DIRECTION('',(-1.,0.,-1.03692487879304E-17));
#436=DIRECTION('',(0.,0.,-1.));
#437=DIRECTION('',(-1.,0.,0.));
#438=DIRECTION('',(0.,0.,-1.));
#439=DIRECTION('',(1.,0.,0.));
#440=DIRECTION('',(0.,0.,-1.));
#441=DIRECTION('',(-1.,0.,0.));
#442=DIRECTION('',(0.,0.,-1.));
#443=DIRECTION('',(1.,0.,0.));
#444=DIRECTION('',(0.,0.,-1.));
#445=DIRECTION('',(-1.,0.,0.));
#446=DIRECTION('',(0.,0.,1.));
#447=DIRECTION('',(-1.,0.,9.81325748089119E-17));
#448=DIRECTION('',(0.,0.,1.));
#449=DIRECTION('',(-1.,0.,0.));
#450=DIRECTION('',(0.,0.,-1.));
#451=DIRECTION('',(-1.,0.,0.));
#452=DIRECTION('',(0.,0.,-1.));
#453=DIRECTION('',(-1.,0.,0.));
#454=DIRECTION('',(0.,0.,1.));
#455=DIRECTION('',(-1.,0.,5.01398892213953E-17));
#456=DIRECTION('',(0.,0.,-1.));
#457=DIRECTION('',(-1.,0.,0.));
#458=DIRECTION('',(0.,0.,1.));
#459=DIRECTION('',(-1.,0.,0.));
#460=DIRECTION('',(0.,0.,-1.));
#461=DIRECTION('',(-1.,0.,0.));
#462=DIRECTION('',(0.,0.,1.));
#463=DIRECTION('',(-1.,0.,3.97666147863758E-17));
#464=DIRECTION('',(0.,0.,-1.));
#465=DIRECTION('',(-1.,0.,0.));
#466=DIRECTION('',(0.,0.,-1.));
#467=DIRECTION('',(1.,0.,0.));
#468=DIRECTION('',(0.,0.,-1.));
#469=DIRECTION('',(-1.,0.,0.));
#470=DIRECTION('',(0.,0.,1.));
#471=DIRECTION('',(-1.,0.,2.25198544025175E-17));
#472=DIRECTION('',(0.,0.,-1.));
#473=DIRECTION('',(-1.,0.,0.));
#474=DIRECTION('',(0.,0.,1.));
#475=DIRECTION('',(-1.,0.,-5.99668191540032E-18));
#476=DIRECTION('',(0.,0.,-1.));
#477=DIRECTION('',(-1.,0.,0.));
#478=DIRECTION('',(0.,0.,-1.));
#479=DIRECTION('',(1.,0.,0.));
#480=DIRECTION('',(0.,0.,-1.));
#481=DIRECTION('',(-1.,0.,0.));
#482=DIRECTION('',(0.,0.,-1.));
#483=DIRECTION('',(1.,0.,2.20489736502099E-17));
#484=DIRECTION('',(0.,0.,-1.));
#485=DIRECTION('',(-1.,0.,0.));
#486=DIRECTION('',(0.,0.,-1.));
#487=DIRECTION('',(1.,0.,1.19944004024052E-17));
#488=DIRECTION('',(0.,0.,-1.));
#489=DIRECTION('',(-1.,0.,0.));
#490=DIRECTION('',(0.,0.,-1.));
#491=DIRECTION('',(1.,0.,0.));
#492=DIRECTION('',(0.,0.,-1.));
#493=DIRECTION('',(-1.,0.,0.));
#494=DIRECTION('',(0.,0.,1.));
#495=DIRECTION('',(-1.,0.,1.663524622149E-17));
#496=DIRECTION('',(0.,0.,-1.));
#497=DIRECTION('',(-1.,0.,0.));
#498=DIRECTION('',(0.,0.,1.));
#499=DIRECTION('',(-1.,0.,1.85699416155387E-17));
#500=DIRECTION('',(0.,0.,-1.));
#501=DIRECTION('',(-1.,0.,0.));
#502=DIRECTION('',(0.,0.,1.));
#503=DIRECTION('',(-1.,0.,-1.5220303098326E-17));
#504=DIRECTION('',(0.,0.,1.));
#505=DIRECTION('',(-1.,0.,1.18452336983447E-18));
#506=DIRECTION('',(0.,0.,-1.));
#507=DIRECTION('',(1.,0.,0.));
#508=CARTESIAN_POINT('',(0.,0.,0.));
#509=CARTESIAN_POINT('',(0.,0.,0.));
#510=CARTESIAN_POINT('',(0.,0.,36.));
#511=CARTESIAN_POINT('',(0.,0.,-26.));
#512=CARTESIAN_POINT('',(0.,0.,35.5));
#513=CARTESIAN_POINT('',(4.,0.,35.5));
#514=CARTESIAN_POINT('',(0.,0.,8.5265128291212E-14));
#515=CARTESIAN_POINT('',(4.,0.,8.5265128291212E-14));
#516=CARTESIAN_POINT('',(0.,0.,-1.4210854715202E-14));
#517=CARTESIAN_POINT('',(0.,0.,36.));
#518=CARTESIAN_POINT('',(3.5,0.,36.));
#519=CARTESIAN_POINT('',(0.,0.,35.5));
#520=CARTESIAN_POINT('',(0.,3.5,36.));
#521=CARTESIAN_POINT('',(0.,0.,3.56936702416988E-14));
#522=CARTESIAN_POINT('',(0.,0.,-10.837492));
#523=CARTESIAN_POINT('',(-3.3325080000001,0.,-10.837492));
#524=CARTESIAN_POINT('',(0.,0.,-10.837492));
#525=CARTESIAN_POINT('',(0.,0.,-10.69));
#526=CARTESIAN_POINT('',(-3.47999999999999,0.,-10.69));
#527=CARTESIAN_POINT('',(0.,0.,-10.837492));
#528=CARTESIAN_POINT('',(0.,0.,-10.54));
#529=CARTESIAN_POINT('',(-3.62,0.,-10.54));
#530=CARTESIAN_POINT('',(0.,0.,-10.69));
#531=CARTESIAN_POINT('',(0.,0.,-10.26));
#532=CARTESIAN_POINT('',(-3.90000000000001,0.,-10.26));
#533=CARTESIAN_POINT('',(0.,0.,-10.39));
#534=CARTESIAN_POINT('',(0.,0.,-0.100000000000008));
#535=CARTESIAN_POINT('',(-3.90000000000009,0.,-0.100000000000008));
#536=CARTESIAN_POINT('',(0.,0.,-1.4210854715202E-14));
#537=CARTESIAN_POINT('',(0.,0.,-0.100000000000009));
#538=CARTESIAN_POINT('',(-3.97999999999999,0.,-0.100000000000009));
#539=CARTESIAN_POINT('',(0.,3.90000000000009,-0.100000000000008));
#540=CARTESIAN_POINT('',(0.,0.,8.52725008659849E-14));
#541=CARTESIAN_POINT('',(-4.,0.,8.52725008659849E-14));
#542=CARTESIAN_POINT('',(0.,0.,-0.100000000000009));
#543=CARTESIAN_POINT('',(0.,4.,3.55308230753915E-14));
#544=CARTESIAN_POINT('',(0.,0.,-10.84));
#545=CARTESIAN_POINT('',(-3.32999999999998,0.,-10.84));
#546=CARTESIAN_POINT('',(0.,0.,-10.837492));
#547=CARTESIAN_POINT('',(-3.33250799999999,0.,-10.837492));
#548=CARTESIAN_POINT('',(0.,0.,-10.837492));
#549=CARTESIAN_POINT('',(0.,0.,-10.84));
#550=CARTESIAN_POINT('',(-3.31999999999999,0.,-10.84));
#551=CARTESIAN_POINT('',(0.,3.32999999999998,-10.84));
#552=CARTESIAN_POINT('',(0.,0.,-11.5735));
#553=CARTESIAN_POINT('',(-2.5865,0.,-11.5735));
#554=CARTESIAN_POINT('',(0.,0.,-10.84));
#555=CARTESIAN_POINT('',(0.,0.,-23.3618958333333));
#556=CARTESIAN_POINT('',(-2.5865,0.,-23.3618958333333));
#557=CARTESIAN_POINT('',(0.,0.,-10.837492));
#558=CARTESIAN_POINT('',(0.,0.,-23.49));
#559=CARTESIAN_POINT('',(-2.34999999999999,0.,-23.49));
#560=CARTESIAN_POINT('',(0.,0.,-23.3618958333333));
#561=CARTESIAN_POINT('',(0.,0.,-23.64));
#562=CARTESIAN_POINT('',(-2.09,0.,-23.64));
#563=CARTESIAN_POINT('',(0.,0.,-23.49));
#564=CARTESIAN_POINT('',(0.,0.,-23.89));
#565=CARTESIAN_POINT('',(-2.09,0.,-23.89));
#566=CARTESIAN_POINT('',(0.,0.,-10.837492));
#567=CARTESIAN_POINT('',(0.,0.,-23.96));
#568=CARTESIAN_POINT('',(-2.19999999999999,0.,-23.96));
#569=CARTESIAN_POINT('',(0.,0.,-23.89));
#570=CARTESIAN_POINT('',(0.,0.,-24.26));
#571=CARTESIAN_POINT('',(-2.72,0.,-24.26));
#572=CARTESIAN_POINT('',(0.,0.,-23.96));
#573=CARTESIAN_POINT('',(0.,0.,-25.16));
#574=CARTESIAN_POINT('',(-2.72,0.,-25.16));
#575=CARTESIAN_POINT('',(0.,0.,-10.837492));
#576=CARTESIAN_POINT('',(0.,0.,-25.26));
#577=CARTESIAN_POINT('',(-2.47,0.,-25.26));
#578=CARTESIAN_POINT('',(0.,0.,-25.16));
#579=CARTESIAN_POINT('',(0.,0.,-25.41));
#580=CARTESIAN_POINT('',(-2.04999999999998,0.,-25.41));
#581=CARTESIAN_POINT('',(0.,0.,-25.26));
#582=CARTESIAN_POINT('',(0.,0.,-25.86));
#583=CARTESIAN_POINT('',(-0.819999999999993,0.,-25.86));
#584=CARTESIAN_POINT('',(0.,0.,-25.41));
#585=CARTESIAN_POINT('',(0.,-1.0842021724855E-16,-26.));
#586=CARTESIAN_POINT('',(0.,0.,-25.86));
#587=CARTESIAN_POINT('',(0.,0.,-10.837492));
#588=MECHANICAL_DESIGN_GEOMETRIC_PRESENTATION_REPRESENTATION('',(#322,#323,
#324,#325,#326,#327),#589);
#589=(
GEOMETRIC_REPRESENTATION_CONTEXT(3)
GLOBAL_UNCERTAINTY_ASSIGNED_CONTEXT((#590))
GLOBAL_UNIT_ASSIGNED_CONTEXT((#596,#592,#591))
REPRESENTATION_CONTEXT('DTM-1_4X28UNF-8R1','TOP_LEVEL_ASSEMBLY_PART')
);
#590=UNCERTAINTY_MEASURE_WITH_UNIT(LENGTH_MEASURE(2.E-5),#596,
'DISTANCE_ACCURACY_VALUE','Maximum Tolerance applied to model');
#591=(
NAMED_UNIT(*)
SI_UNIT($,.STERADIAN.)
SOLID_ANGLE_UNIT()
);
#592=(
CONVERSION_BASED_UNIT('DEGREE',#594)
NAMED_UNIT(#593)
PLANE_ANGLE_UNIT()
);
#593=DIMENSIONAL_EXPONENTS(0.,0.,0.,0.,0.,0.,0.);
#594=PLANE_ANGLE_MEASURE_WITH_UNIT(PLANE_ANGLE_MEASURE(0.0174532925),#595);
#595=(
NAMED_UNIT(*)
PLANE_ANGLE_UNIT()
SI_UNIT($,.RADIAN.)
);
#596=(
LENGTH_UNIT()
NAMED_UNIT(*)
SI_UNIT(.MILLI.,.METRE.)
);
ENDSEC;
END-ISO-10303-21;
