ISO-10303-21;
HEADER;
/* Generated by software containing ST-Developer
 * from STEP Tools, Inc. (www.steptools.com) 
 */
/* OPTION: using custom schema-name function */

FILE_DESCRIPTION(
/* description */ (''),
/* implementation_level */ '2;1');

FILE_NAME(
/* name */ 'DTM-1_4X20UNC-8R1.stp',
/* time_stamp */ '2017-09-14T08:51:20+05:00',
/* author */ (''),
/* organization */ (''),
/* preprocessor_version */ 'ST-DEVELOPER v16',
/* originating_system */ 'SIEMENS PLM Software NX 11.0',
/* authorisation */ '');

FILE_SCHEMA (('AUTOMOTIVE_DESIGN { 1 0 10303 214 3 1 1 1 }'));
ENDSEC;

DATA;
#10=CONSTRUCTIVE_GEOMETRY_REPRESENTATION_RELATIONSHIP(
'supplemental geometry','',#24,#11);
#11=CONSTRUCTIVE_GEOMETRY_REPRESENTATION('supplemental geometry',(#344,
#345,#346),#589);
#12=SHAPE_REPRESENTATION_RELATIONSHIP('None',
'relationship between DTM-1_4X20UNC-8R1-None and DTM-1_4X20UNC-8R1-Non
e',#24,#13);
#13=ADVANCED_BREP_SHAPE_REPRESENTATION('DTM-1_4X20UNC-8R1-None',(#41,#42,
#43),#589);
#14=SHAPE_DEFINITION_REPRESENTATION(#15,#24);
#15=PRODUCT_DEFINITION_SHAPE('','',#16);
#16=PRODUCT_DEFINITION(' ','',#18,#17);
#17=PRODUCT_DEFINITION_CONTEXT('part definition',#23,'design');
#18=PRODUCT_DEFINITION_FORMATION_WITH_SPECIFIED_SOURCE(' ',' ',#20,
 .NOT_KNOWN.);
#19=PRODUCT_RELATED_PRODUCT_CATEGORY('part','',(#20));
#20=PRODUCT('DTM-1_4X20UNC-8R1','DTM-1_4X20UNC-8R1',' ',(#21));
#21=PRODUCT_CONTEXT(' ',#23,'mechanical');
#22=APPLICATION_PROTOCOL_DEFINITION('international standard',
'automotive_design',2010,#23);
#23=APPLICATION_CONTEXT(
'core data for automotive mechanical design processes');
#24=SHAPE_REPRESENTATION('DTM-1_4X20UNC-8R1-None',(#343),#589);
#25=VERTEX_LOOP('',#270);
#26=SURFACE_STYLE_USAGE(.BOTH.,#29);
#27=SURFACE_STYLE_USAGE(.BOTH.,#30);
#28=SURFACE_STYLE_USAGE(.BOTH.,#31);
#29=SURFACE_SIDE_STYLE('',(#32));
#30=SURFACE_SIDE_STYLE('',(#33));
#31=SURFACE_SIDE_STYLE('',(#34));
#32=SURFACE_STYLE_FILL_AREA(#35);
#33=SURFACE_STYLE_FILL_AREA(#36);
#34=SURFACE_STYLE_FILL_AREA(#37);
#35=FILL_AREA_STYLE('',(#38));
#36=FILL_AREA_STYLE('',(#39));
#37=FILL_AREA_STYLE('',(#40));
#38=FILL_AREA_STYLE_COLOUR('',#338);
#39=FILL_AREA_STYLE_COLOUR('',#338);
#40=FILL_AREA_STYLE_COLOUR('',#339);
#41=MANIFOLD_SOLID_BREP('NOCUT',#44);
#42=MANIFOLD_SOLID_BREP('NOCUT',#45);
#43=MANIFOLD_SOLID_BREP('CUT',#46);
#44=CLOSED_SHELL('',(#113,#114,#115,#116));
#45=CLOSED_SHELL('',(#117,#118,#119,#120,#121,#122,#123));
#46=CLOSED_SHELL('',(#124,#125,#126,#127,#128,#129,#130,#131,#132,#133,
#134,#135,#136,#137,#138,#139));
#47=CYLINDRICAL_SURFACE('',#352,4.);
#48=CYLINDRICAL_SURFACE('',#358,3.89999999999995);
#49=CYLINDRICAL_SURFACE('',#379,2.3485);
#50=CYLINDRICAL_SURFACE('',#385,1.66999999999999);
#51=CYLINDRICAL_SURFACE('',#391,2.53999999999991);
#52=CONICAL_SURFACE('',#350,3.5,45.);
#53=CONICAL_SURFACE('',#356,4.,44.9999999999994);
#54=CONICAL_SURFACE('',#360,3.9,44.9999999999878);
#55=CONICAL_SURFACE('',#362,3.62000000000011,43.0250659891396);
#56=CONICAL_SURFACE('',#364,3.48000000000002,45.0000000000047);
#57=CONICAL_SURFACE('',#369,3.33331699999988,45.0000000006105);
#58=CONICAL_SURFACE('',#371,3.3299999999999,53.1301023541499);
#59=CONICAL_SURFACE('',#373,2.84,45.0000000000177);
#60=CONICAL_SURFACE('',#375,2.53999999999991,60.9453959008766);
#61=CONICAL_SURFACE('',#377,2.4499999999999,60.0183606311655);
#62=CONICAL_SURFACE('',#381,2.3485,59.0362434679272);
#63=CONICAL_SURFACE('',#383,1.92999999999938,60.0183606311507);
#64=CONICAL_SURFACE('',#387,1.66999999999999,60.945395900895);
#65=CONICAL_SURFACE('',#389,1.75999999999991,60.0183606311506);
#66=CONICAL_SURFACE('',#393,2.53999999999991,70.3461759419507);
#67=CONICAL_SURFACE('',#395,2.25999999999991,69.9047688080933);
#68=CONICAL_SURFACE('',#396,0.620000000000005,79.9393102046768);
#69=FACE_BOUND('',#151,.T.);
#70=FACE_BOUND('',#152,.T.);
#71=FACE_BOUND('',#153,.T.);
#72=FACE_BOUND('',#154,.T.);
#73=FACE_BOUND('',#156,.T.);
#74=FACE_BOUND('',#157,.T.);
#75=FACE_BOUND('',#158,.T.);
#76=FACE_BOUND('',#159,.T.);
#77=FACE_BOUND('',#160,.T.);
#78=FACE_BOUND('',#161,.T.);
#79=FACE_BOUND('',#162,.T.);
#80=FACE_BOUND('',#163,.T.);
#81=FACE_BOUND('',#164,.T.);
#82=FACE_BOUND('',#165,.T.);
#83=FACE_BOUND('',#168,.T.);
#84=FACE_BOUND('',#169,.T.);
#85=FACE_BOUND('',#170,.T.);
#86=FACE_BOUND('',#171,.T.);
#87=FACE_BOUND('',#172,.T.);
#88=FACE_BOUND('',#173,.T.);
#89=FACE_BOUND('',#174,.T.);
#90=FACE_BOUND('',#175,.T.);
#91=FACE_BOUND('',#176,.T.);
#92=FACE_BOUND('',#177,.T.);
#93=FACE_BOUND('',#178,.T.);
#94=FACE_BOUND('',#179,.T.);
#95=FACE_BOUND('',#180,.T.);
#96=FACE_BOUND('',#181,.T.);
#97=FACE_BOUND('',#182,.T.);
#98=FACE_BOUND('',#183,.T.);
#99=FACE_BOUND('',#184,.T.);
#100=FACE_BOUND('',#185,.T.);
#101=FACE_BOUND('',#186,.T.);
#102=FACE_BOUND('',#187,.T.);
#103=FACE_BOUND('',#188,.T.);
#104=FACE_BOUND('',#189,.T.);
#105=FACE_BOUND('',#190,.T.);
#106=FACE_BOUND('',#191,.T.);
#107=FACE_BOUND('',#192,.T.);
#108=FACE_BOUND('',#193,.T.);
#109=FACE_BOUND('',#194,.T.);
#110=FACE_BOUND('',#195,.T.);
#111=FACE_BOUND('',#25,.T.);
#112=FACE_BOUND('',#196,.T.);
#113=ADVANCED_FACE('',(#145),#140,.T.);
#114=ADVANCED_FACE('',(#69,#70),#52,.T.);
#115=ADVANCED_FACE('',(#71,#72),#47,.T.);
#116=ADVANCED_FACE('',(#146),#141,.T.);
#117=ADVANCED_FACE('',(#73,#74),#53,.T.);
#118=ADVANCED_FACE('',(#75,#76),#48,.T.);
#119=ADVANCED_FACE('',(#77,#78),#54,.T.);
#120=ADVANCED_FACE('',(#79,#80),#55,.T.);
#121=ADVANCED_FACE('',(#81,#82),#56,.T.);
#122=ADVANCED_FACE('',(#147),#142,.F.);
#123=ADVANCED_FACE('',(#148),#143,.F.);
#124=ADVANCED_FACE('',(#83,#84),#57,.T.);
#125=ADVANCED_FACE('',(#85,#86),#58,.T.);
#126=ADVANCED_FACE('',(#87,#88),#59,.T.);
#127=ADVANCED_FACE('',(#89,#90),#60,.T.);
#128=ADVANCED_FACE('',(#91,#92),#61,.T.);
#129=ADVANCED_FACE('',(#93,#94),#49,.T.);
#130=ADVANCED_FACE('',(#95,#96),#62,.T.);
#131=ADVANCED_FACE('',(#97,#98),#63,.T.);
#132=ADVANCED_FACE('',(#99,#100),#50,.T.);
#133=ADVANCED_FACE('',(#101,#102),#64,.T.);
#134=ADVANCED_FACE('',(#103,#104),#65,.T.);
#135=ADVANCED_FACE('',(#105,#106),#51,.T.);
#136=ADVANCED_FACE('',(#107,#108),#66,.T.);
#137=ADVANCED_FACE('',(#109,#110),#67,.T.);
#138=ADVANCED_FACE('',(#111,#112),#68,.T.);
#139=ADVANCED_FACE('',(#149),#144,.F.);
#140=PLANE('',#348);
#141=PLANE('',#353);
#142=PLANE('',#365);
#143=PLANE('',#366);
#144=PLANE('',#397);
#145=FACE_OUTER_BOUND('',#150,.T.);
#146=FACE_OUTER_BOUND('',#155,.T.);
#147=FACE_OUTER_BOUND('',#166,.T.);
#148=FACE_OUTER_BOUND('',#167,.T.);
#149=FACE_OUTER_BOUND('',#197,.T.);
#150=EDGE_LOOP('',(#198));
#151=EDGE_LOOP('',(#199));
#152=EDGE_LOOP('',(#200));
#153=EDGE_LOOP('',(#201));
#154=EDGE_LOOP('',(#202));
#155=EDGE_LOOP('',(#203));
#156=EDGE_LOOP('',(#204));
#157=EDGE_LOOP('',(#205));
#158=EDGE_LOOP('',(#206));
#159=EDGE_LOOP('',(#207));
#160=EDGE_LOOP('',(#208));
#161=EDGE_LOOP('',(#209));
#162=EDGE_LOOP('',(#210));
#163=EDGE_LOOP('',(#211));
#164=EDGE_LOOP('',(#212));
#165=EDGE_LOOP('',(#213));
#166=EDGE_LOOP('',(#214));
#167=EDGE_LOOP('',(#215));
#168=EDGE_LOOP('',(#216));
#169=EDGE_LOOP('',(#217));
#170=EDGE_LOOP('',(#218));
#171=EDGE_LOOP('',(#219));
#172=EDGE_LOOP('',(#220));
#173=EDGE_LOOP('',(#221));
#174=EDGE_LOOP('',(#222));
#175=EDGE_LOOP('',(#223));
#176=EDGE_LOOP('',(#224));
#177=EDGE_LOOP('',(#225));
#178=EDGE_LOOP('',(#226));
#179=EDGE_LOOP('',(#227));
#180=EDGE_LOOP('',(#228));
#181=EDGE_LOOP('',(#229));
#182=EDGE_LOOP('',(#230));
#183=EDGE_LOOP('',(#231));
#184=EDGE_LOOP('',(#232));
#185=EDGE_LOOP('',(#233));
#186=EDGE_LOOP('',(#234));
#187=EDGE_LOOP('',(#235));
#188=EDGE_LOOP('',(#236));
#189=EDGE_LOOP('',(#237));
#190=EDGE_LOOP('',(#238));
#191=EDGE_LOOP('',(#239));
#192=EDGE_LOOP('',(#240));
#193=EDGE_LOOP('',(#241));
#194=EDGE_LOOP('',(#242));
#195=EDGE_LOOP('',(#243));
#196=EDGE_LOOP('',(#244));
#197=EDGE_LOOP('',(#245));
#198=ORIENTED_EDGE('',*,*,#271,.T.);
#199=ORIENTED_EDGE('',*,*,#272,.T.);
#200=ORIENTED_EDGE('',*,*,#271,.F.);
#201=ORIENTED_EDGE('',*,*,#273,.T.);
#202=ORIENTED_EDGE('',*,*,#272,.F.);
#203=ORIENTED_EDGE('',*,*,#273,.F.);
#204=ORIENTED_EDGE('',*,*,#274,.F.);
#205=ORIENTED_EDGE('',*,*,#275,.T.);
#206=ORIENTED_EDGE('',*,*,#276,.F.);
#207=ORIENTED_EDGE('',*,*,#274,.T.);
#208=ORIENTED_EDGE('',*,*,#277,.F.);
#209=ORIENTED_EDGE('',*,*,#276,.T.);
#210=ORIENTED_EDGE('',*,*,#278,.F.);
#211=ORIENTED_EDGE('',*,*,#277,.T.);
#212=ORIENTED_EDGE('',*,*,#279,.F.);
#213=ORIENTED_EDGE('',*,*,#278,.T.);
#214=ORIENTED_EDGE('',*,*,#279,.T.);
#215=ORIENTED_EDGE('',*,*,#275,.F.);
#216=ORIENTED_EDGE('',*,*,#280,.F.);
#217=ORIENTED_EDGE('',*,*,#281,.T.);
#218=ORIENTED_EDGE('',*,*,#282,.F.);
#219=ORIENTED_EDGE('',*,*,#280,.T.);
#220=ORIENTED_EDGE('',*,*,#283,.F.);
#221=ORIENTED_EDGE('',*,*,#282,.T.);
#222=ORIENTED_EDGE('',*,*,#284,.F.);
#223=ORIENTED_EDGE('',*,*,#283,.T.);
#224=ORIENTED_EDGE('',*,*,#285,.F.);
#225=ORIENTED_EDGE('',*,*,#284,.T.);
#226=ORIENTED_EDGE('',*,*,#286,.F.);
#227=ORIENTED_EDGE('',*,*,#285,.T.);
#228=ORIENTED_EDGE('',*,*,#287,.F.);
#229=ORIENTED_EDGE('',*,*,#286,.T.);
#230=ORIENTED_EDGE('',*,*,#288,.F.);
#231=ORIENTED_EDGE('',*,*,#287,.T.);
#232=ORIENTED_EDGE('',*,*,#289,.F.);
#233=ORIENTED_EDGE('',*,*,#288,.T.);
#234=ORIENTED_EDGE('',*,*,#290,.F.);
#235=ORIENTED_EDGE('',*,*,#289,.T.);
#236=ORIENTED_EDGE('',*,*,#291,.F.);
#237=ORIENTED_EDGE('',*,*,#290,.T.);
#238=ORIENTED_EDGE('',*,*,#292,.F.);
#239=ORIENTED_EDGE('',*,*,#291,.T.);
#240=ORIENTED_EDGE('',*,*,#293,.F.);
#241=ORIENTED_EDGE('',*,*,#292,.T.);
#242=ORIENTED_EDGE('',*,*,#294,.F.);
#243=ORIENTED_EDGE('',*,*,#293,.T.);
#244=ORIENTED_EDGE('',*,*,#294,.T.);
#245=ORIENTED_EDGE('',*,*,#281,.F.);
#246=VERTEX_POINT('',#513);
#247=VERTEX_POINT('',#516);
#248=VERTEX_POINT('',#519);
#249=VERTEX_POINT('',#523);
#250=VERTEX_POINT('',#525);
#251=VERTEX_POINT('',#528);
#252=VERTEX_POINT('',#531);
#253=VERTEX_POINT('',#534);
#254=VERTEX_POINT('',#537);
#255=VERTEX_POINT('',#542);
#256=VERTEX_POINT('',#544);
#257=VERTEX_POINT('',#547);
#258=VERTEX_POINT('',#550);
#259=VERTEX_POINT('',#553);
#260=VERTEX_POINT('',#556);
#261=VERTEX_POINT('',#559);
#262=VERTEX_POINT('',#562);
#263=VERTEX_POINT('',#565);
#264=VERTEX_POINT('',#568);
#265=VERTEX_POINT('',#571);
#266=VERTEX_POINT('',#574);
#267=VERTEX_POINT('',#577);
#268=VERTEX_POINT('',#580);
#269=VERTEX_POINT('',#583);
#270=VERTEX_POINT('',#585);
#271=EDGE_CURVE('',#246,#246,#295,.T.);
#272=EDGE_CURVE('',#247,#247,#296,.T.);
#273=EDGE_CURVE('',#248,#248,#297,.T.);
#274=EDGE_CURVE('',#249,#249,#298,.T.);
#275=EDGE_CURVE('',#250,#250,#299,.T.);
#276=EDGE_CURVE('',#251,#251,#300,.T.);
#277=EDGE_CURVE('',#252,#252,#301,.T.);
#278=EDGE_CURVE('',#253,#253,#302,.T.);
#279=EDGE_CURVE('',#254,#254,#303,.T.);
#280=EDGE_CURVE('',#255,#255,#304,.T.);
#281=EDGE_CURVE('',#256,#256,#305,.T.);
#282=EDGE_CURVE('',#257,#257,#306,.T.);
#283=EDGE_CURVE('',#258,#258,#307,.T.);
#284=EDGE_CURVE('',#259,#259,#308,.T.);
#285=EDGE_CURVE('',#260,#260,#309,.T.);
#286=EDGE_CURVE('',#261,#261,#310,.T.);
#287=EDGE_CURVE('',#262,#262,#311,.T.);
#288=EDGE_CURVE('',#263,#263,#312,.T.);
#289=EDGE_CURVE('',#264,#264,#313,.T.);
#290=EDGE_CURVE('',#265,#265,#314,.T.);
#291=EDGE_CURVE('',#266,#266,#315,.T.);
#292=EDGE_CURVE('',#267,#267,#316,.T.);
#293=EDGE_CURVE('',#268,#268,#317,.T.);
#294=EDGE_CURVE('',#269,#269,#318,.T.);
#295=CIRCLE('',#347,3.5);
#296=CIRCLE('',#349,4.);
#297=CIRCLE('',#351,4.);
#298=CIRCLE('',#354,3.89999999999989);
#299=CIRCLE('',#355,4.);
#300=CIRCLE('',#357,3.9);
#301=CIRCLE('',#359,3.62000000000012);
#302=CIRCLE('',#361,3.48000000000002);
#303=CIRCLE('',#363,3.33331699999999);
#304=CIRCLE('',#367,3.3299999999999);
#305=CIRCLE('',#368,3.33331699999988);
#306=CIRCLE('',#370,3.28999999999991);
#307=CIRCLE('',#372,2.53999999999991);
#308=CIRCLE('',#374,2.4499999999999);
#309=CIRCLE('',#376,2.3485);
#310=CIRCLE('',#378,2.3485);
#311=CIRCLE('',#380,1.92999999999938);
#312=CIRCLE('',#382,1.66999999999999);
#313=CIRCLE('',#384,1.66999999999999);
#314=CIRCLE('',#386,1.75999999999991);
#315=CIRCLE('',#388,2.53999999999991);
#316=CIRCLE('',#390,2.53999999999991);
#317=CIRCLE('',#392,2.25999999999991);
#318=CIRCLE('',#394,0.620000000000005);
#319=PRESENTATION_LAYER_ASSIGNMENT('1','Layer 1',(#344,#345,#346,#41));
#320=PRESENTATION_LAYER_ASSIGNMENT('2','Layer 2',(#42));
#321=PRESENTATION_LAYER_ASSIGNMENT('3','Layer 3',(#43));
#322=STYLED_ITEM('',(#328),#344);
#323=STYLED_ITEM('',(#329),#345);
#324=STYLED_ITEM('',(#330),#346);
#325=STYLED_ITEM('',(#331),#41);
#326=STYLED_ITEM('',(#332),#42);
#327=STYLED_ITEM('',(#333),#43);
#328=PRESENTATION_STYLE_ASSIGNMENT((#334));
#329=PRESENTATION_STYLE_ASSIGNMENT((#335));
#330=PRESENTATION_STYLE_ASSIGNMENT((#336));
#331=PRESENTATION_STYLE_ASSIGNMENT((#26));
#332=PRESENTATION_STYLE_ASSIGNMENT((#27));
#333=PRESENTATION_STYLE_ASSIGNMENT((#28));
#334=CURVE_STYLE('',#340,POSITIVE_LENGTH_MEASURE(0.18),#337);
#335=CURVE_STYLE('',#341,POSITIVE_LENGTH_MEASURE(0.18),#337);
#336=CURVE_STYLE('',#342,POSITIVE_LENGTH_MEASURE(0.18),#337);
#337=COLOUR_RGB('Medium Maroon',0.6,0.4,0.4);
#338=COLOUR_RGB('Medium Gray',0.490196078431373,0.490196078431373,0.490196078431373);
#339=COLOUR_RGB('Light Gray',0.8,0.8,0.8);
#340=DRAUGHTING_PRE_DEFINED_CURVE_FONT('continuous');
#341=DRAUGHTING_PRE_DEFINED_CURVE_FONT('continuous');
#342=DRAUGHTING_PRE_DEFINED_CURVE_FONT('continuous');
#343=AXIS2_PLACEMENT_3D('',#508,#398,#399);
#344=AXIS2_PLACEMENT_3D('MCS',#509,#400,#401);
#345=AXIS2_PLACEMENT_3D('PCS',#510,#402,#403);
#346=AXIS2_PLACEMENT_3D('CIP',#511,#404,#405);
#347=AXIS2_PLACEMENT_3D('',#512,#406,#407);
#348=AXIS2_PLACEMENT_3D('',#514,#408,#409);
#349=AXIS2_PLACEMENT_3D('',#515,#410,#411);
#350=AXIS2_PLACEMENT_3D('',#517,#412,#413);
#351=AXIS2_PLACEMENT_3D('',#518,#414,#415);
#352=AXIS2_PLACEMENT_3D('',#520,#416,#417);
#353=AXIS2_PLACEMENT_3D('',#521,#418,#419);
#354=AXIS2_PLACEMENT_3D('',#522,#420,#421);
#355=AXIS2_PLACEMENT_3D('',#524,#422,#423);
#356=AXIS2_PLACEMENT_3D('',#526,#424,#425);
#357=AXIS2_PLACEMENT_3D('',#527,#426,#427);
#358=AXIS2_PLACEMENT_3D('',#529,#428,#429);
#359=AXIS2_PLACEMENT_3D('',#530,#430,#431);
#360=AXIS2_PLACEMENT_3D('',#532,#432,#433);
#361=AXIS2_PLACEMENT_3D('',#533,#434,#435);
#362=AXIS2_PLACEMENT_3D('',#535,#436,#437);
#363=AXIS2_PLACEMENT_3D('',#536,#438,#439);
#364=AXIS2_PLACEMENT_3D('',#538,#440,#441);
#365=AXIS2_PLACEMENT_3D('',#539,#442,#443);
#366=AXIS2_PLACEMENT_3D('',#540,#444,#445);
#367=AXIS2_PLACEMENT_3D('',#541,#446,#447);
#368=AXIS2_PLACEMENT_3D('',#543,#448,#449);
#369=AXIS2_PLACEMENT_3D('',#545,#450,#451);
#370=AXIS2_PLACEMENT_3D('',#546,#452,#453);
#371=AXIS2_PLACEMENT_3D('',#548,#454,#455);
#372=AXIS2_PLACEMENT_3D('',#549,#456,#457);
#373=AXIS2_PLACEMENT_3D('',#551,#458,#459);
#374=AXIS2_PLACEMENT_3D('',#552,#460,#461);
#375=AXIS2_PLACEMENT_3D('',#554,#462,#463);
#376=AXIS2_PLACEMENT_3D('',#555,#464,#465);
#377=AXIS2_PLACEMENT_3D('',#557,#466,#467);
#378=AXIS2_PLACEMENT_3D('',#558,#468,#469);
#379=AXIS2_PLACEMENT_3D('',#560,#470,#471);
#380=AXIS2_PLACEMENT_3D('',#561,#472,#473);
#381=AXIS2_PLACEMENT_3D('',#563,#474,#475);
#382=AXIS2_PLACEMENT_3D('',#564,#476,#477);
#383=AXIS2_PLACEMENT_3D('',#566,#478,#479);
#384=AXIS2_PLACEMENT_3D('',#567,#480,#481);
#385=AXIS2_PLACEMENT_3D('',#569,#482,#483);
#386=AXIS2_PLACEMENT_3D('',#570,#484,#485);
#387=AXIS2_PLACEMENT_3D('',#572,#486,#487);
#388=AXIS2_PLACEMENT_3D('',#573,#488,#489);
#389=AXIS2_PLACEMENT_3D('',#575,#490,#491);
#390=AXIS2_PLACEMENT_3D('',#576,#492,#493);
#391=AXIS2_PLACEMENT_3D('',#578,#494,#495);
#392=AXIS2_PLACEMENT_3D('',#579,#496,#497);
#393=AXIS2_PLACEMENT_3D('',#581,#498,#499);
#394=AXIS2_PLACEMENT_3D('',#582,#500,#501);
#395=AXIS2_PLACEMENT_3D('',#584,#502,#503);
#396=AXIS2_PLACEMENT_3D('',#586,#504,#505);
#397=AXIS2_PLACEMENT_3D('',#587,#506,#507);
#398=DIRECTION('',(0.,0.,1.));
#399=DIRECTION('',(1.,0.,0.));
#400=DIRECTION('',(0.,0.,1.));
#401=DIRECTION('',(1.,0.,0.));
#402=DIRECTION('',(0.,0.,1.));
#403=DIRECTION('',(1.,0.,0.));
#404=DIRECTION('',(0.,0.,1.));
#405=DIRECTION('',(1.,0.,0.));
#406=DIRECTION('',(0.,0.,1.));
#407=DIRECTION('',(1.,0.,0.));
#408=DIRECTION('',(0.,0.,1.));
#409=DIRECTION('',(-1.,0.,0.));
#410=DIRECTION('',(0.,0.,1.));
#411=DIRECTION('',(1.,0.,0.));
#412=DIRECTION('',(0.,0.,-1.));
#413=DIRECTION('',(1.,0.,2.76587699209057E-17));
#414=DIRECTION('',(0.,0.,1.));
#415=DIRECTION('',(1.,0.,0.));
#416=DIRECTION('',(0.,0.,1.));
#417=DIRECTION('',(-1.,0.,0.));
#418=DIRECTION('',(0.,0.,-1.));
#419=DIRECTION('',(1.,0.,0.));
#420=DIRECTION('',(0.,-1.1051846131704E-14,-1.));
#421=DIRECTION('',(0.,1.,-1.1050522142641E-14));
#422=DIRECTION('',(0.,-1.1051846131704E-14,-1.));
#423=DIRECTION('',(0.,1.,-1.1051846131704E-14));
#424=DIRECTION('',(0.,1.1051846131704E-14,1.));
#425=DIRECTION('',(0.,1.,-1.09941034497761E-14));
#426=DIRECTION('',(0.,-1.1051846131704E-14,-1.));
#427=DIRECTION('',(0.,1.,-1.11200222819026E-14));
#428=DIRECTION('',(0.,-1.1051846131704E-14,-1.));
#429=DIRECTION('',(0.,-1.,1.1051846131704E-14));
#430=DIRECTION('',(0.,-1.1051846131704E-14,-1.));
#431=DIRECTION('',(0.,1.,-1.10217237423937E-14));
#432=DIRECTION('',(0.,1.1051846131704E-14,1.));
#433=DIRECTION('',(0.,1.,-1.11057553343039E-14));
#434=DIRECTION('',(0.,-1.1051846131704E-14,-1.));
#435=DIRECTION('',(0.,1.,-1.09666426642211E-14));
#436=DIRECTION('',(0.,1.1051846131704E-14,1.));
#437=DIRECTION('',(0.,1.,-1.10031751325812E-14));
#438=DIRECTION('',(0.,-1.1051846131704E-14,-1.));
#439=DIRECTION('',(0.,1.,-1.092881144983E-14));
#440=DIRECTION('',(0.,1.1051846131704E-14,1.));
#441=DIRECTION('',(0.,1.,-1.1091387792348E-14));
#442=DIRECTION('',(0.,1.1051846131704E-14,1.));
#443=DIRECTION('',(0.,1.,-1.10519232654482E-14));
#444=DIRECTION('',(0.,-1.1051846131704E-14,-1.));
#445=DIRECTION('',(0.,-1.,1.1051846131704E-14));
#446=DIRECTION('',(0.,0.,-1.));
#447=DIRECTION('',(-1.,0.,0.));
#448=DIRECTION('',(0.,0.,-1.));
#449=DIRECTION('',(-1.,0.,0.));
#450=DIRECTION('',(0.,0.,1.));
#451=DIRECTION('',(-1.,0.,-1.90185633348599E-17));
#452=DIRECTION('',(0.,0.,-1.));
#453=DIRECTION('',(-1.,0.,0.));
#454=DIRECTION('',(0.,0.,1.));
#455=DIRECTION('',(-1.,0.,-7.78680808869584E-18));
#456=DIRECTION('',(0.,0.,-1.));
#457=DIRECTION('',(-1.,0.,0.));
#458=DIRECTION('',(0.,0.,1.));
#459=DIRECTION('',(-1.,0.,5.3624135211248E-17));
#460=DIRECTION('',(0.,0.,-1.));
#461=DIRECTION('',(-1.,0.,0.));
#462=DIRECTION('',(0.,0.,1.));
#463=DIRECTION('',(-1.,0.,-6.73664070248689E-18));
#464=DIRECTION('',(0.,0.,-1.));
#465=DIRECTION('',(-1.,0.,0.));
#466=DIRECTION('',(0.,0.,1.));
#467=DIRECTION('',(-1.,0.,-1.09932834757027E-17));
#468=DIRECTION('',(0.,0.,-1.));
#469=DIRECTION('',(-1.,0.,0.));
#470=DIRECTION('',(0.,0.,-1.));
#471=DIRECTION('',(1.,0.,0.));
#472=DIRECTION('',(0.,0.,-1.));
#473=DIRECTION('',(-1.,0.,0.));
#474=DIRECTION('',(0.,0.,1.));
#475=DIRECTION('',(-1.,0.,1.2472434120114E-17));
#476=DIRECTION('',(0.,0.,-1.));
#477=DIRECTION('',(-1.,0.,0.));
#478=DIRECTION('',(0.,0.,1.));
#479=DIRECTION('',(-1.,0.,1.59950222438644E-17));
#480=DIRECTION('',(0.,0.,-1.));
#481=DIRECTION('',(-1.,0.,0.));
#482=DIRECTION('',(0.,0.,-1.));
#483=DIRECTION('',(1.,0.,0.));
#484=DIRECTION('',(0.,0.,-1.));
#485=DIRECTION('',(-1.,0.,0.));
#486=DIRECTION('',(0.,0.,-1.));
#487=DIRECTION('',(1.,0.,-5.39191498192301E-17));
#488=DIRECTION('',(0.,0.,-1.));
#489=DIRECTION('',(-1.,0.,0.));
#490=DIRECTION('',(0.,0.,-1.));
#491=DIRECTION('',(1.,0.,1.1997442046377E-17));
#492=DIRECTION('',(0.,0.,-1.));
#493=DIRECTION('',(-1.,0.,0.));
#494=DIRECTION('',(0.,0.,-1.));
#495=DIRECTION('',(1.,0.,0.));
#496=DIRECTION('',(0.,0.,-1.));
#497=DIRECTION('',(-1.,0.,0.));
#498=DIRECTION('',(0.,0.,1.));
#499=DIRECTION('',(-1.,0.,-1.23796518585028E-17));
#500=DIRECTION('',(0.,0.,-1.));
#501=DIRECTION('',(-1.,0.,0.));
#502=DIRECTION('',(0.,0.,1.));
#503=DIRECTION('',(-1.,0.,-8.87782857479222E-18));
#504=DIRECTION('',(0.,0.,1.));
#505=DIRECTION('',(-1.,0.,8.00123138276367E-18));
#506=DIRECTION('',(0.,0.,-1.));
#507=DIRECTION('',(1.,0.,0.));
#508=CARTESIAN_POINT('',(0.,0.,0.));
#509=CARTESIAN_POINT('',(0.,0.,0.));
#510=CARTESIAN_POINT('',(0.,-2.8421709430404E-14,36.));
#511=CARTESIAN_POINT('',(0.,0.,-26.));
#512=CARTESIAN_POINT('',(0.,-2.8421709430404E-14,36.));
#513=CARTESIAN_POINT('',(3.5,-2.8421709430404E-14,36.));
#514=CARTESIAN_POINT('',(0.,-2.8421709430404E-14,36.));
#515=CARTESIAN_POINT('',(0.,-2.8421709430404E-14,35.5));
#516=CARTESIAN_POINT('',(4.,-2.8421709430404E-14,35.5));
#517=CARTESIAN_POINT('',(0.,-2.8421709430404E-14,36.));
#518=CARTESIAN_POINT('',(0.,-2.8421709430404E-14,1.11022302462516E-13));
#519=CARTESIAN_POINT('',(4.,-2.8421709430404E-14,1.11022302462516E-13));
#520=CARTESIAN_POINT('',(0.,-2.8421709430404E-14,1.13686837721616E-13));
#521=CARTESIAN_POINT('',(0.,3.99999999999997,1.12354570092066E-13));
#522=CARTESIAN_POINT('',(0.,-2.95268940435751E-14,-0.0999999999999512));
#523=CARTESIAN_POINT('',(0.,3.89999999999986,-0.0999999999999943));
#524=CARTESIAN_POINT('',(0.,-2.84217094304035E-14,1.57894222248432E-13));
#525=CARTESIAN_POINT('',(0.,3.99999999999997,1.13686837721616E-13));
#526=CARTESIAN_POINT('',(0.,-2.84217094304035E-14,1.57894222248432E-13));
#527=CARTESIAN_POINT('',(0.,-1.3573513536925E-13,-9.70999999999995));
#528=CARTESIAN_POINT('',(0.,3.89999999999986,-9.71));
#529=CARTESIAN_POINT('',(0.,-2.8421709430404E-14,1.13686837721616E-13));
#530=CARTESIAN_POINT('',(0.,-1.38829652286127E-13,-9.98999999999996));
#531=CARTESIAN_POINT('',(0.,3.61999999999998,-9.98999999999999));
#532=CARTESIAN_POINT('',(0.,-1.3573513536925E-13,-9.70999999999995));
#533=CARTESIAN_POINT('',(0.,-1.40487429205883E-13,-10.1399999999999));
#534=CARTESIAN_POINT('',(0.,3.47999999999988,-10.14));
#535=CARTESIAN_POINT('',(0.,-1.38829652286127E-13,-9.98999999999996));
#536=CARTESIAN_POINT('',(0.,-1.4210854715202E-13,-10.2866829999999));
#537=CARTESIAN_POINT('',(0.,3.33331699999985,-10.286683));
#538=CARTESIAN_POINT('',(0.,-1.40487429205883E-13,-10.1399999999999));
#539=CARTESIAN_POINT('',(0.,3.33331699999985,-10.286683));
#540=CARTESIAN_POINT('',(0.,-2.84217094304038E-14,1.36192985831451E-13));
#541=CARTESIAN_POINT('',(0.,-2.8421709430404E-14,-10.2899999999999));
#542=CARTESIAN_POINT('',(-3.3299999999999,-2.8421709430404E-14,-10.2899999999999));
#543=CARTESIAN_POINT('',(0.,-2.8421709430404E-14,-10.286683));
#544=CARTESIAN_POINT('',(-3.33331699999988,-2.8421709430404E-14,-10.286683));
#545=CARTESIAN_POINT('',(0.,-2.8421709430404E-14,-10.286683));
#546=CARTESIAN_POINT('',(0.,-2.8421709430404E-14,-10.3199999999999));
#547=CARTESIAN_POINT('',(-3.28999999999991,-2.8421709430404E-14,-10.3199999999999));
#548=CARTESIAN_POINT('',(0.,-2.8421709430404E-14,-10.2899999999999));
#549=CARTESIAN_POINT('',(0.,-2.8421709430404E-14,-11.0699999999999));
#550=CARTESIAN_POINT('',(-2.53999999999991,-2.8421709430404E-14,-11.0699999999999));
#551=CARTESIAN_POINT('',(0.,-2.8421709430404E-14,-10.77));
#552=CARTESIAN_POINT('',(0.,-2.8421709430404E-14,-11.12));
#553=CARTESIAN_POINT('',(-2.4499999999999,-2.8421709430404E-14,-11.12));
#554=CARTESIAN_POINT('',(0.,-2.8421709430404E-14,-11.0699999999999));
#555=CARTESIAN_POINT('',(0.,-2.8421709430404E-14,-11.1785576923076));
#556=CARTESIAN_POINT('',(-2.3485,-2.8421709430404E-14,-11.1785576923076));
#557=CARTESIAN_POINT('',(0.,-2.8421709430404E-14,-11.12));
#558=CARTESIAN_POINT('',(0.,-2.8421709430404E-14,-22.6688999999999));
#559=CARTESIAN_POINT('',(-2.3485,-2.8421709430404E-14,-22.6688999999999));
#560=CARTESIAN_POINT('',(0.,-2.8421709430404E-14,-10.286683));
#561=CARTESIAN_POINT('',(0.,-2.8421709430404E-14,-22.9200000000003));
#562=CARTESIAN_POINT('',(-1.92999999999938,-2.8421709430404E-14,-22.9200000000003));
#563=CARTESIAN_POINT('',(0.,-2.8421709430404E-14,-22.6688999999999));
#564=CARTESIAN_POINT('',(0.,-2.8421709430404E-14,-23.0699999999999));
#565=CARTESIAN_POINT('',(-1.66999999999999,-2.8421709430404E-14,-23.0699999999999));
#566=CARTESIAN_POINT('',(0.,-2.8421709430404E-14,-22.9200000000003));
#567=CARTESIAN_POINT('',(0.,-2.8421709430404E-14,-23.4199999999999));
#568=CARTESIAN_POINT('',(-1.66999999999999,-2.8421709430404E-14,-23.4199999999999));
#569=CARTESIAN_POINT('',(0.,-2.8421709430404E-14,-10.286683));
#570=CARTESIAN_POINT('',(0.,-2.8421709430404E-14,-23.4699999999999));
#571=CARTESIAN_POINT('',(-1.75999999999991,-2.8421709430404E-14,-23.4699999999999));
#572=CARTESIAN_POINT('',(0.,-2.8421709430404E-14,-23.4199999999999));
#573=CARTESIAN_POINT('',(0.,-2.8421709430404E-14,-23.9199999999999));
#574=CARTESIAN_POINT('',(-2.53999999999991,-2.8421709430404E-14,-23.9199999999999));
#575=CARTESIAN_POINT('',(0.,-2.8421709430404E-14,-23.4699999999999));
#576=CARTESIAN_POINT('',(0.,-2.8421709430404E-14,-25.1899999999999));
#577=CARTESIAN_POINT('',(-2.53999999999991,-2.8421709430404E-14,-25.1899999999999));
#578=CARTESIAN_POINT('',(0.,-2.8421709430404E-14,-10.286683));
#579=CARTESIAN_POINT('',(0.,-2.8421709430404E-14,-25.2899999999999));
#580=CARTESIAN_POINT('',(-2.25999999999991,-2.8421709430404E-14,-25.2899999999999));
#581=CARTESIAN_POINT('',(0.,-2.8421709430404E-14,-25.1899999999999));
#582=CARTESIAN_POINT('',(0.,-2.8421709430404E-14,-25.8899999999999));
#583=CARTESIAN_POINT('',(-0.620000000000005,-2.8421709430404E-14,-25.8899999999999));
#584=CARTESIAN_POINT('',(0.,-2.8421709430404E-14,-25.2899999999999));
#585=CARTESIAN_POINT('',(0.,-2.85145171363688E-14,-25.9999999999999));
#586=CARTESIAN_POINT('',(0.,-2.8421709430404E-14,-25.8899999999999));
#587=CARTESIAN_POINT('',(0.,-1.4210854715202E-13,-10.286683));
#588=MECHANICAL_DESIGN_GEOMETRIC_PRESENTATION_REPRESENTATION('',(#322,#323,
#324,#325,#326,#327),#589);
#589=(
GEOMETRIC_REPRESENTATION_CONTEXT(3)
GLOBAL_UNCERTAINTY_ASSIGNED_CONTEXT((#590))
GLOBAL_UNIT_ASSIGNED_CONTEXT((#596,#592,#591))
REPRESENTATION_CONTEXT('DTM-1_4X20UNC-8R1','TOP_LEVEL_ASSEMBLY_PART')
);
#590=UNCERTAINTY_MEASURE_WITH_UNIT(LENGTH_MEASURE(2.E-5),#596,
'DISTANCE_ACCURACY_VALUE','Maximum Tolerance applied to model');
#591=(
NAMED_UNIT(*)
SI_UNIT($,.STERADIAN.)
SOLID_ANGLE_UNIT()
);
#592=(
CONVERSION_BASED_UNIT('DEGREE',#594)
NAMED_UNIT(#593)
PLANE_ANGLE_UNIT()
);
#593=DIMENSIONAL_EXPONENTS(0.,0.,0.,0.,0.,0.,0.);
#594=PLANE_ANGLE_MEASURE_WITH_UNIT(PLANE_ANGLE_MEASURE(0.0174532925),#595);
#595=(
NAMED_UNIT(*)
PLANE_ANGLE_UNIT()
SI_UNIT($,.RADIAN.)
);
#596=(
LENGTH_UNIT()
NAMED_UNIT(*)
SI_UNIT(.MILLI.,.METRE.)
);
ENDSEC;
END-ISO-10303-21;
