ISO-10303-21;
HEADER;
/* Generated by software containing ST-Developer
 * from STEP Tools, Inc. (www.steptools.com) 
 */
/* OPTION: using custom schema-name function */

FILE_DESCRIPTION(
/* description */ (''),
/* implementation_level */ '2;1');

FILE_NAME(
/* name */ 'DTM-1_4X19W-16R1.stp',
/* time_stamp */ '2017-09-14T08:51:20+05:00',
/* author */ (''),
/* organization */ (''),
/* preprocessor_version */ 'ST-DEVELOPER v16',
/* originating_system */ 'SIEMENS PLM Software NX 11.0',
/* authorisation */ '');

FILE_SCHEMA (('AUTOMOTIVE_DESIGN { 1 0 10303 214 3 1 1 1 }'));
ENDSEC;

DATA;
#10=CONSTRUCTIVE_GEOMETRY_REPRESENTATION_RELATIONSHIP(
'supplemental geometry','',#24,#11);
#11=CONSTRUCTIVE_GEOMETRY_REPRESENTATION('supplemental geometry',(#355,
#356,#357),#609);
#12=SHAPE_REPRESENTATION_RELATIONSHIP('None',
'relationship between DTM-1_4X19W-16R1-None and DTM-1_4X19W-16R1-None',
#24,#13);
#13=ADVANCED_BREP_SHAPE_REPRESENTATION('DTM-1_4X19W-16R1-None',(#41,#42,
#43),#609);
#14=SHAPE_DEFINITION_REPRESENTATION(#15,#24);
#15=PRODUCT_DEFINITION_SHAPE('','',#16);
#16=PRODUCT_DEFINITION(' ','',#18,#17);
#17=PRODUCT_DEFINITION_CONTEXT('part definition',#23,'design');
#18=PRODUCT_DEFINITION_FORMATION_WITH_SPECIFIED_SOURCE(' ',' ',#20,
 .NOT_KNOWN.);
#19=PRODUCT_RELATED_PRODUCT_CATEGORY('part','',(#20));
#20=PRODUCT('DTM-1_4X19W-16R1','DTM-1_4X19W-16R1',' ',(#21));
#21=PRODUCT_CONTEXT(' ',#23,'mechanical');
#22=APPLICATION_PROTOCOL_DEFINITION('international standard',
'automotive_design',2010,#23);
#23=APPLICATION_CONTEXT(
'core data for automotive mechanical design processes');
#24=SHAPE_REPRESENTATION('DTM-1_4X19W-16R1-None',(#354),#609);
#25=VERTEX_LOOP('',#279);
#26=SURFACE_STYLE_USAGE(.BOTH.,#29);
#27=SURFACE_STYLE_USAGE(.BOTH.,#30);
#28=SURFACE_STYLE_USAGE(.BOTH.,#31);
#29=SURFACE_SIDE_STYLE('',(#32));
#30=SURFACE_SIDE_STYLE('',(#33));
#31=SURFACE_SIDE_STYLE('',(#34));
#32=SURFACE_STYLE_FILL_AREA(#35);
#33=SURFACE_STYLE_FILL_AREA(#36);
#34=SURFACE_STYLE_FILL_AREA(#37);
#35=FILL_AREA_STYLE('',(#38));
#36=FILL_AREA_STYLE('',(#39));
#37=FILL_AREA_STYLE('',(#40));
#38=FILL_AREA_STYLE_COLOUR('',#349);
#39=FILL_AREA_STYLE_COLOUR('',#349);
#40=FILL_AREA_STYLE_COLOUR('',#350);
#41=MANIFOLD_SOLID_BREP('NOCUT',#44);
#42=MANIFOLD_SOLID_BREP('NOCUT',#45);
#43=MANIFOLD_SOLID_BREP('CUT',#46);
#44=CLOSED_SHELL('',(#75,#76,#77,#78));
#45=CLOSED_SHELL('',(#79,#80,#81,#82,#83));
#46=CLOSED_SHELL('',(#84,#85,#86,#87,#88,#89,#90,#91,#92,#93,#94,#95,#96,
#97,#98,#99,#100,#101,#102));
#47=PLANE('',#363);
#48=PLANE('',#364);
#49=PLANE('',#372);
#50=PLANE('',#373);
#51=PLANE('',#410);
#52=FACE_OUTER_BOUND('',#158,.T.);
#53=FACE_OUTER_BOUND('',#159,.T.);
#54=FACE_OUTER_BOUND('',#166,.T.);
#55=FACE_OUTER_BOUND('',#167,.T.);
#56=FACE_OUTER_BOUND('',#203,.T.);
#57=CONICAL_SURFACE('',#362,8.,45.);
#58=CONICAL_SURFACE('',#367,8.,45.);
#59=CONICAL_SURFACE('',#371,6.75,44.9999999998535);
#60=CONICAL_SURFACE('',#376,5.97999999999999,44.9999999999942);
#61=CONICAL_SURFACE('',#378,5.83000000000001,60.2551187030706);
#62=CONICAL_SURFACE('',#380,5.75999999999999,61.8214098900356);
#63=CONICAL_SURFACE('',#384,5.72,61.5570713756366);
#64=CONICAL_SURFACE('',#386,5.47999999999999,62.6501242199294);
#65=CONICAL_SURFACE('',#390,4.90000000000001,60.255118703052);
#66=CONICAL_SURFACE('',#392,4.97,62.6501242199305);
#67=CONICAL_SURFACE('',#394,5.55000000000001,61.8214098900402);
#68=CONICAL_SURFACE('',#398,5.83000000000001,70.6410058243057);
#69=CONICAL_SURFACE('',#400,5.46000000000001,69.9047688080952);
#70=CONICAL_SURFACE('',#402,4.22999999999999,70.3461759419473);
#71=CONICAL_SURFACE('',#404,3.81,69.9047688080949);
#72=CONICAL_SURFACE('',#406,2.17000000000002,70.3461759419477);
#73=CONICAL_SURFACE('',#408,1.75,78.6900675259727);
#74=CONICAL_SURFACE('',#409,1.70000000000002,79.9920201985589);
#75=ADVANCED_FACE('',(#108,#109),#103,.T.);
#76=ADVANCED_FACE('',(#110,#111),#57,.T.);
#77=ADVANCED_FACE('',(#52),#47,.F.);
#78=ADVANCED_FACE('',(#53),#48,.F.);
#79=ADVANCED_FACE('',(#112,#113),#58,.T.);
#80=ADVANCED_FACE('',(#114,#115),#104,.T.);
#81=ADVANCED_FACE('',(#116,#117),#59,.T.);
#82=ADVANCED_FACE('',(#54),#49,.F.);
#83=ADVANCED_FACE('',(#55),#50,.F.);
#84=ADVANCED_FACE('',(#118,#119),#60,.T.);
#85=ADVANCED_FACE('',(#120,#121),#61,.T.);
#86=ADVANCED_FACE('',(#122,#123),#62,.T.);
#87=ADVANCED_FACE('',(#124,#125),#105,.T.);
#88=ADVANCED_FACE('',(#126,#127),#63,.T.);
#89=ADVANCED_FACE('',(#128,#129),#64,.T.);
#90=ADVANCED_FACE('',(#130,#131),#106,.T.);
#91=ADVANCED_FACE('',(#132,#133),#65,.T.);
#92=ADVANCED_FACE('',(#134,#135),#66,.T.);
#93=ADVANCED_FACE('',(#136,#137),#67,.T.);
#94=ADVANCED_FACE('',(#138,#139),#107,.T.);
#95=ADVANCED_FACE('',(#140,#141),#68,.T.);
#96=ADVANCED_FACE('',(#142,#143),#69,.T.);
#97=ADVANCED_FACE('',(#144,#145),#70,.T.);
#98=ADVANCED_FACE('',(#146,#147),#71,.T.);
#99=ADVANCED_FACE('',(#148,#149),#72,.T.);
#100=ADVANCED_FACE('',(#150,#151),#73,.T.);
#101=ADVANCED_FACE('',(#152,#153),#74,.T.);
#102=ADVANCED_FACE('',(#56),#51,.F.);
#103=CYLINDRICAL_SURFACE('',#360,8.);
#104=CYLINDRICAL_SURFACE('',#369,6.75);
#105=CYLINDRICAL_SURFACE('',#382,5.72);
#106=CYLINDRICAL_SURFACE('',#388,4.90000000000001);
#107=CYLINDRICAL_SURFACE('',#396,5.83000000000001);
#108=FACE_BOUND('',#154,.T.);
#109=FACE_BOUND('',#155,.T.);
#110=FACE_BOUND('',#156,.T.);
#111=FACE_BOUND('',#157,.T.);
#112=FACE_BOUND('',#160,.T.);
#113=FACE_BOUND('',#161,.T.);
#114=FACE_BOUND('',#162,.T.);
#115=FACE_BOUND('',#163,.T.);
#116=FACE_BOUND('',#164,.T.);
#117=FACE_BOUND('',#165,.T.);
#118=FACE_BOUND('',#168,.T.);
#119=FACE_BOUND('',#169,.T.);
#120=FACE_BOUND('',#170,.T.);
#121=FACE_BOUND('',#171,.T.);
#122=FACE_BOUND('',#172,.T.);
#123=FACE_BOUND('',#173,.T.);
#124=FACE_BOUND('',#174,.T.);
#125=FACE_BOUND('',#175,.T.);
#126=FACE_BOUND('',#176,.T.);
#127=FACE_BOUND('',#177,.T.);
#128=FACE_BOUND('',#178,.T.);
#129=FACE_BOUND('',#179,.T.);
#130=FACE_BOUND('',#180,.T.);
#131=FACE_BOUND('',#181,.T.);
#132=FACE_BOUND('',#182,.T.);
#133=FACE_BOUND('',#183,.T.);
#134=FACE_BOUND('',#184,.T.);
#135=FACE_BOUND('',#185,.T.);
#136=FACE_BOUND('',#186,.T.);
#137=FACE_BOUND('',#187,.T.);
#138=FACE_BOUND('',#188,.T.);
#139=FACE_BOUND('',#189,.T.);
#140=FACE_BOUND('',#190,.T.);
#141=FACE_BOUND('',#191,.T.);
#142=FACE_BOUND('',#192,.T.);
#143=FACE_BOUND('',#193,.T.);
#144=FACE_BOUND('',#194,.T.);
#145=FACE_BOUND('',#195,.T.);
#146=FACE_BOUND('',#196,.T.);
#147=FACE_BOUND('',#197,.T.);
#148=FACE_BOUND('',#198,.T.);
#149=FACE_BOUND('',#199,.T.);
#150=FACE_BOUND('',#200,.T.);
#151=FACE_BOUND('',#201,.T.);
#152=FACE_BOUND('',#25,.T.);
#153=FACE_BOUND('',#202,.T.);
#154=EDGE_LOOP('',(#204));
#155=EDGE_LOOP('',(#205));
#156=EDGE_LOOP('',(#206));
#157=EDGE_LOOP('',(#207));
#158=EDGE_LOOP('',(#208));
#159=EDGE_LOOP('',(#209));
#160=EDGE_LOOP('',(#210));
#161=EDGE_LOOP('',(#211));
#162=EDGE_LOOP('',(#212));
#163=EDGE_LOOP('',(#213));
#164=EDGE_LOOP('',(#214));
#165=EDGE_LOOP('',(#215));
#166=EDGE_LOOP('',(#216));
#167=EDGE_LOOP('',(#217));
#168=EDGE_LOOP('',(#218));
#169=EDGE_LOOP('',(#219));
#170=EDGE_LOOP('',(#220));
#171=EDGE_LOOP('',(#221));
#172=EDGE_LOOP('',(#222));
#173=EDGE_LOOP('',(#223));
#174=EDGE_LOOP('',(#224));
#175=EDGE_LOOP('',(#225));
#176=EDGE_LOOP('',(#226));
#177=EDGE_LOOP('',(#227));
#178=EDGE_LOOP('',(#228));
#179=EDGE_LOOP('',(#229));
#180=EDGE_LOOP('',(#230));
#181=EDGE_LOOP('',(#231));
#182=EDGE_LOOP('',(#232));
#183=EDGE_LOOP('',(#233));
#184=EDGE_LOOP('',(#234));
#185=EDGE_LOOP('',(#235));
#186=EDGE_LOOP('',(#236));
#187=EDGE_LOOP('',(#237));
#188=EDGE_LOOP('',(#238));
#189=EDGE_LOOP('',(#239));
#190=EDGE_LOOP('',(#240));
#191=EDGE_LOOP('',(#241));
#192=EDGE_LOOP('',(#242));
#193=EDGE_LOOP('',(#243));
#194=EDGE_LOOP('',(#244));
#195=EDGE_LOOP('',(#245));
#196=EDGE_LOOP('',(#246));
#197=EDGE_LOOP('',(#247));
#198=EDGE_LOOP('',(#248));
#199=EDGE_LOOP('',(#249));
#200=EDGE_LOOP('',(#250));
#201=EDGE_LOOP('',(#251));
#202=EDGE_LOOP('',(#252));
#203=EDGE_LOOP('',(#253));
#204=ORIENTED_EDGE('',*,*,#280,.F.);
#205=ORIENTED_EDGE('',*,*,#281,.T.);
#206=ORIENTED_EDGE('',*,*,#282,.F.);
#207=ORIENTED_EDGE('',*,*,#280,.T.);
#208=ORIENTED_EDGE('',*,*,#282,.T.);
#209=ORIENTED_EDGE('',*,*,#281,.F.);
#210=ORIENTED_EDGE('',*,*,#283,.F.);
#211=ORIENTED_EDGE('',*,*,#284,.T.);
#212=ORIENTED_EDGE('',*,*,#285,.F.);
#213=ORIENTED_EDGE('',*,*,#283,.T.);
#214=ORIENTED_EDGE('',*,*,#286,.F.);
#215=ORIENTED_EDGE('',*,*,#285,.T.);
#216=ORIENTED_EDGE('',*,*,#286,.T.);
#217=ORIENTED_EDGE('',*,*,#284,.F.);
#218=ORIENTED_EDGE('',*,*,#287,.F.);
#219=ORIENTED_EDGE('',*,*,#288,.T.);
#220=ORIENTED_EDGE('',*,*,#289,.F.);
#221=ORIENTED_EDGE('',*,*,#287,.T.);
#222=ORIENTED_EDGE('',*,*,#290,.F.);
#223=ORIENTED_EDGE('',*,*,#289,.T.);
#224=ORIENTED_EDGE('',*,*,#291,.F.);
#225=ORIENTED_EDGE('',*,*,#290,.T.);
#226=ORIENTED_EDGE('',*,*,#292,.F.);
#227=ORIENTED_EDGE('',*,*,#291,.T.);
#228=ORIENTED_EDGE('',*,*,#293,.F.);
#229=ORIENTED_EDGE('',*,*,#292,.T.);
#230=ORIENTED_EDGE('',*,*,#294,.F.);
#231=ORIENTED_EDGE('',*,*,#293,.T.);
#232=ORIENTED_EDGE('',*,*,#295,.F.);
#233=ORIENTED_EDGE('',*,*,#294,.T.);
#234=ORIENTED_EDGE('',*,*,#296,.F.);
#235=ORIENTED_EDGE('',*,*,#295,.T.);
#236=ORIENTED_EDGE('',*,*,#297,.F.);
#237=ORIENTED_EDGE('',*,*,#296,.T.);
#238=ORIENTED_EDGE('',*,*,#298,.F.);
#239=ORIENTED_EDGE('',*,*,#297,.T.);
#240=ORIENTED_EDGE('',*,*,#299,.F.);
#241=ORIENTED_EDGE('',*,*,#298,.T.);
#242=ORIENTED_EDGE('',*,*,#300,.F.);
#243=ORIENTED_EDGE('',*,*,#299,.T.);
#244=ORIENTED_EDGE('',*,*,#301,.F.);
#245=ORIENTED_EDGE('',*,*,#300,.T.);
#246=ORIENTED_EDGE('',*,*,#302,.F.);
#247=ORIENTED_EDGE('',*,*,#301,.T.);
#248=ORIENTED_EDGE('',*,*,#303,.F.);
#249=ORIENTED_EDGE('',*,*,#302,.T.);
#250=ORIENTED_EDGE('',*,*,#304,.F.);
#251=ORIENTED_EDGE('',*,*,#303,.T.);
#252=ORIENTED_EDGE('',*,*,#304,.T.);
#253=ORIENTED_EDGE('',*,*,#288,.F.);
#254=VERTEX_POINT('',#530);
#255=VERTEX_POINT('',#532);
#256=VERTEX_POINT('',#535);
#257=VERTEX_POINT('',#540);
#258=VERTEX_POINT('',#542);
#259=VERTEX_POINT('',#545);
#260=VERTEX_POINT('',#548);
#261=VERTEX_POINT('',#553);
#262=VERTEX_POINT('',#555);
#263=VERTEX_POINT('',#558);
#264=VERTEX_POINT('',#561);
#265=VERTEX_POINT('',#564);
#266=VERTEX_POINT('',#567);
#267=VERTEX_POINT('',#570);
#268=VERTEX_POINT('',#573);
#269=VERTEX_POINT('',#576);
#270=VERTEX_POINT('',#579);
#271=VERTEX_POINT('',#582);
#272=VERTEX_POINT('',#585);
#273=VERTEX_POINT('',#588);
#274=VERTEX_POINT('',#591);
#275=VERTEX_POINT('',#594);
#276=VERTEX_POINT('',#597);
#277=VERTEX_POINT('',#600);
#278=VERTEX_POINT('',#603);
#279=VERTEX_POINT('',#605);
#280=EDGE_CURVE('',#254,#254,#305,.T.);
#281=EDGE_CURVE('',#255,#255,#306,.T.);
#282=EDGE_CURVE('',#256,#256,#307,.T.);
#283=EDGE_CURVE('',#257,#257,#308,.T.);
#284=EDGE_CURVE('',#258,#258,#309,.T.);
#285=EDGE_CURVE('',#259,#259,#310,.T.);
#286=EDGE_CURVE('',#260,#260,#311,.T.);
#287=EDGE_CURVE('',#261,#261,#312,.T.);
#288=EDGE_CURVE('',#262,#262,#313,.T.);
#289=EDGE_CURVE('',#263,#263,#314,.T.);
#290=EDGE_CURVE('',#264,#264,#315,.T.);
#291=EDGE_CURVE('',#265,#265,#316,.T.);
#292=EDGE_CURVE('',#266,#266,#317,.T.);
#293=EDGE_CURVE('',#267,#267,#318,.T.);
#294=EDGE_CURVE('',#268,#268,#319,.T.);
#295=EDGE_CURVE('',#269,#269,#320,.T.);
#296=EDGE_CURVE('',#270,#270,#321,.T.);
#297=EDGE_CURVE('',#271,#271,#322,.T.);
#298=EDGE_CURVE('',#272,#272,#323,.T.);
#299=EDGE_CURVE('',#273,#273,#324,.T.);
#300=EDGE_CURVE('',#274,#274,#325,.T.);
#301=EDGE_CURVE('',#275,#275,#326,.T.);
#302=EDGE_CURVE('',#276,#276,#327,.T.);
#303=EDGE_CURVE('',#277,#277,#328,.T.);
#304=EDGE_CURVE('',#278,#278,#329,.T.);
#305=CIRCLE('',#358,8.);
#306=CIRCLE('',#359,8.);
#307=CIRCLE('',#361,7.5);
#308=CIRCLE('',#365,6.75);
#309=CIRCLE('',#366,8.);
#310=CIRCLE('',#368,6.75);
#311=CIRCLE('',#370,6.72506100000001);
#312=CIRCLE('',#374,5.83000000000001);
#313=CIRCLE('',#375,6.72506100000001);
#314=CIRCLE('',#377,5.75999999999999);
#315=CIRCLE('',#379,5.72);
#316=CIRCLE('',#381,5.72);
#317=CIRCLE('',#383,5.47999999999999);
#318=CIRCLE('',#385,4.90000000000001);
#319=CIRCLE('',#387,4.90000000000001);
#320=CIRCLE('',#389,4.97);
#321=CIRCLE('',#391,5.55000000000001);
#322=CIRCLE('',#393,5.83000000000001);
#323=CIRCLE('',#395,5.83000000000001);
#324=CIRCLE('',#397,5.46000000000001);
#325=CIRCLE('',#399,4.22999999999999);
#326=CIRCLE('',#401,3.81);
#327=CIRCLE('',#403,2.17000000000002);
#328=CIRCLE('',#405,1.75);
#329=CIRCLE('',#407,1.70000000000002);
#330=PRESENTATION_LAYER_ASSIGNMENT('1','Layer 1',(#355,#356,#357,#41));
#331=PRESENTATION_LAYER_ASSIGNMENT('2','Layer 2',(#42));
#332=PRESENTATION_LAYER_ASSIGNMENT('3','Layer 3',(#43));
#333=STYLED_ITEM('',(#339),#355);
#334=STYLED_ITEM('',(#340),#356);
#335=STYLED_ITEM('',(#341),#357);
#336=STYLED_ITEM('',(#342),#41);
#337=STYLED_ITEM('',(#343),#42);
#338=STYLED_ITEM('',(#344),#43);
#339=PRESENTATION_STYLE_ASSIGNMENT((#345));
#340=PRESENTATION_STYLE_ASSIGNMENT((#346));
#341=PRESENTATION_STYLE_ASSIGNMENT((#347));
#342=PRESENTATION_STYLE_ASSIGNMENT((#26));
#343=PRESENTATION_STYLE_ASSIGNMENT((#27));
#344=PRESENTATION_STYLE_ASSIGNMENT((#28));
#345=CURVE_STYLE('',#351,POSITIVE_LENGTH_MEASURE(0.18),#348);
#346=CURVE_STYLE('',#352,POSITIVE_LENGTH_MEASURE(0.18),#348);
#347=CURVE_STYLE('',#353,POSITIVE_LENGTH_MEASURE(0.18),#348);
#348=COLOUR_RGB('Medium Maroon',0.6,0.4,0.4);
#349=COLOUR_RGB('Medium Gray',0.490196078431373,0.490196078431373,0.490196078431373);
#350=COLOUR_RGB('Light Gray',0.8,0.8,0.8);
#351=DRAUGHTING_PRE_DEFINED_CURVE_FONT('continuous');
#352=DRAUGHTING_PRE_DEFINED_CURVE_FONT('continuous');
#353=DRAUGHTING_PRE_DEFINED_CURVE_FONT('continuous');
#354=AXIS2_PLACEMENT_3D('',#525,#411,#412);
#355=AXIS2_PLACEMENT_3D('MCS',#526,#413,#414);
#356=AXIS2_PLACEMENT_3D('PCS',#527,#415,#416);
#357=AXIS2_PLACEMENT_3D('CIP',#528,#417,#418);
#358=AXIS2_PLACEMENT_3D('',#529,#419,#420);
#359=AXIS2_PLACEMENT_3D('',#531,#421,#422);
#360=AXIS2_PLACEMENT_3D('',#533,#423,#424);
#361=AXIS2_PLACEMENT_3D('',#534,#425,#426);
#362=AXIS2_PLACEMENT_3D('',#536,#427,#428);
#363=AXIS2_PLACEMENT_3D('',#537,#429,#430);
#364=AXIS2_PLACEMENT_3D('',#538,#431,#432);
#365=AXIS2_PLACEMENT_3D('',#539,#433,#434);
#366=AXIS2_PLACEMENT_3D('',#541,#435,#436);
#367=AXIS2_PLACEMENT_3D('',#543,#437,#438);
#368=AXIS2_PLACEMENT_3D('',#544,#439,#440);
#369=AXIS2_PLACEMENT_3D('',#546,#441,#442);
#370=AXIS2_PLACEMENT_3D('',#547,#443,#444);
#371=AXIS2_PLACEMENT_3D('',#549,#445,#446);
#372=AXIS2_PLACEMENT_3D('',#550,#447,#448);
#373=AXIS2_PLACEMENT_3D('',#551,#449,#450);
#374=AXIS2_PLACEMENT_3D('',#552,#451,#452);
#375=AXIS2_PLACEMENT_3D('',#554,#453,#454);
#376=AXIS2_PLACEMENT_3D('',#556,#455,#456);
#377=AXIS2_PLACEMENT_3D('',#557,#457,#458);
#378=AXIS2_PLACEMENT_3D('',#559,#459,#460);
#379=AXIS2_PLACEMENT_3D('',#560,#461,#462);
#380=AXIS2_PLACEMENT_3D('',#562,#463,#464);
#381=AXIS2_PLACEMENT_3D('',#563,#465,#466);
#382=AXIS2_PLACEMENT_3D('',#565,#467,#468);
#383=AXIS2_PLACEMENT_3D('',#566,#469,#470);
#384=AXIS2_PLACEMENT_3D('',#568,#471,#472);
#385=AXIS2_PLACEMENT_3D('',#569,#473,#474);
#386=AXIS2_PLACEMENT_3D('',#571,#475,#476);
#387=AXIS2_PLACEMENT_3D('',#572,#477,#478);
#388=AXIS2_PLACEMENT_3D('',#574,#479,#480);
#389=AXIS2_PLACEMENT_3D('',#575,#481,#482);
#390=AXIS2_PLACEMENT_3D('',#577,#483,#484);
#391=AXIS2_PLACEMENT_3D('',#578,#485,#486);
#392=AXIS2_PLACEMENT_3D('',#580,#487,#488);
#393=AXIS2_PLACEMENT_3D('',#581,#489,#490);
#394=AXIS2_PLACEMENT_3D('',#583,#491,#492);
#395=AXIS2_PLACEMENT_3D('',#584,#493,#494);
#396=AXIS2_PLACEMENT_3D('',#586,#495,#496);
#397=AXIS2_PLACEMENT_3D('',#587,#497,#498);
#398=AXIS2_PLACEMENT_3D('',#589,#499,#500);
#399=AXIS2_PLACEMENT_3D('',#590,#501,#502);
#400=AXIS2_PLACEMENT_3D('',#592,#503,#504);
#401=AXIS2_PLACEMENT_3D('',#593,#505,#506);
#402=AXIS2_PLACEMENT_3D('',#595,#507,#508);
#403=AXIS2_PLACEMENT_3D('',#596,#509,#510);
#404=AXIS2_PLACEMENT_3D('',#598,#511,#512);
#405=AXIS2_PLACEMENT_3D('',#599,#513,#514);
#406=AXIS2_PLACEMENT_3D('',#601,#515,#516);
#407=AXIS2_PLACEMENT_3D('',#602,#517,#518);
#408=AXIS2_PLACEMENT_3D('',#604,#519,#520);
#409=AXIS2_PLACEMENT_3D('',#606,#521,#522);
#410=AXIS2_PLACEMENT_3D('',#607,#523,#524);
#411=DIRECTION('',(0.,0.,1.));
#412=DIRECTION('',(1.,0.,0.));
#413=DIRECTION('',(0.,0.,1.));
#414=DIRECTION('',(1.,0.,0.));
#415=DIRECTION('',(0.,0.,1.));
#416=DIRECTION('',(1.,0.,0.));
#417=DIRECTION('',(0.,0.,1.));
#418=DIRECTION('',(1.,0.,0.));
#419=DIRECTION('',(0.,0.,1.));
#420=DIRECTION('',(1.,0.,0.));
#421=DIRECTION('',(0.,0.,1.));
#422=DIRECTION('',(1.,0.,0.));
#423=DIRECTION('',(0.,0.,1.));
#424=DIRECTION('',(-1.,0.,0.));
#425=DIRECTION('',(0.,0.,1.));
#426=DIRECTION('',(1.,0.,0.));
#427=DIRECTION('',(0.,0.,-1.));
#428=DIRECTION('',(1.,0.,-1.37676466347366E-17));
#429=DIRECTION('',(0.,0.,-1.));
#430=DIRECTION('',(1.,0.,0.));
#431=DIRECTION('',(0.,0.,1.));
#432=DIRECTION('',(-1.,0.,0.));
#433=DIRECTION('',(0.,0.,-1.));
#434=DIRECTION('',(-1.,0.,0.));
#435=DIRECTION('',(0.,0.,-1.));
#436=DIRECTION('',(-1.,0.,0.));
#437=DIRECTION('',(0.,0.,1.));
#438=DIRECTION('',(-1.,0.,1.40980701539702E-17));
#439=DIRECTION('',(0.,0.,-1.));
#440=DIRECTION('',(-1.,0.,0.));
#441=DIRECTION('',(0.,0.,-1.));
#442=DIRECTION('',(1.,0.,0.));
#443=DIRECTION('',(0.,0.,-1.));
#444=DIRECTION('',(-1.,0.,0.));
#445=DIRECTION('',(0.,0.,1.));
#446=DIRECTION('',(-1.,0.,-3.79080372204456E-17));
#447=DIRECTION('',(0.,0.,1.));
#448=DIRECTION('',(-1.,0.,0.));
#449=DIRECTION('',(0.,0.,-1.));
#450=DIRECTION('',(1.,0.,0.));
#451=DIRECTION('',(0.,0.,-1.));
#452=DIRECTION('',(-1.,0.,0.));
#453=DIRECTION('',(0.,0.,-1.));
#454=DIRECTION('',(-1.,0.,0.));
#455=DIRECTION('',(0.,0.,1.));
#456=DIRECTION('',(-1.,0.,1.03464689714139E-17));
#457=DIRECTION('',(0.,0.,-1.));
#458=DIRECTION('',(-1.,0.,0.));
#459=DIRECTION('',(0.,0.,1.));
#460=DIRECTION('',(-1.,0.,1.58076668103487E-17));
#461=DIRECTION('',(0.,0.,-1.));
#462=DIRECTION('',(-1.,0.,0.));
#463=DIRECTION('',(0.,0.,1.));
#464=DIRECTION('',(-1.,0.,-7.41165892094616E-18));
#465=DIRECTION('',(0.,0.,-1.));
#466=DIRECTION('',(-1.,0.,0.));
#467=DIRECTION('',(0.,0.,-1.));
#468=DIRECTION('',(1.,0.,0.));
#469=DIRECTION('',(0.,0.,-1.));
#470=DIRECTION('',(-1.,0.,0.));
#471=DIRECTION('',(0.,0.,1.));
#472=DIRECTION('',(-1.,0.,-7.49391641155106E-18));
#473=DIRECTION('',(0.,0.,-1.));
#474=DIRECTION('',(-1.,0.,0.));
#475=DIRECTION('',(0.,0.,1.));
#476=DIRECTION('',(-1.,0.,1.07368158418495E-17));
#477=DIRECTION('',(0.,0.,-1.));
#478=DIRECTION('',(-1.,0.,0.));
#479=DIRECTION('',(0.,0.,-1.));
#480=DIRECTION('',(1.,0.,0.));
#481=DIRECTION('',(0.,0.,-1.));
#482=DIRECTION('',(-1.,0.,0.));
#483=DIRECTION('',(0.,0.,-1.));
#484=DIRECTION('',(1.,0.,-5.14021430000656E-17));
#485=DIRECTION('',(0.,0.,-1.));
#486=DIRECTION('',(-1.,0.,0.));
#487=DIRECTION('',(0.,0.,-1.));
#488=DIRECTION('',(1.,0.,4.65384438026345E-17));
#489=DIRECTION('',(0.,0.,-1.));
#490=DIRECTION('',(-1.,0.,0.));
#491=DIRECTION('',(0.,0.,-1.));
#492=DIRECTION('',(1.,0.,-5.18874318257522E-17));
#493=DIRECTION('',(0.,0.,-1.));
#494=DIRECTION('',(-1.,0.,0.));
#495=DIRECTION('',(0.,0.,-1.));
#496=DIRECTION('',(1.,0.,0.));
#497=DIRECTION('',(0.,0.,-1.));
#498=DIRECTION('',(-1.,0.,0.));
#499=DIRECTION('',(0.,0.,1.));
#500=DIRECTION('',(-1.,0.,7.2990180992064E-18));
#501=DIRECTION('',(0.,0.,-1.));
#502=DIRECTION('',(-1.,0.,0.));
#503=DIRECTION('',(0.,0.,1.));
#504=DIRECTION('',(-1.,0.,-1.77349114795143E-17));
#505=DIRECTION('',(0.,0.,-1.));
#506=DIRECTION('',(-1.,0.,0.));
#507=DIRECTION('',(0.,0.,1.));
#508=DIRECTION('',(-1.,0.,0.));
#509=DIRECTION('',(0.,0.,-1.));
#510=DIRECTION('',(-1.,0.,0.));
#511=DIRECTION('',(0.,0.,1.));
#512=DIRECTION('',(-1.,0.,5.07017211660381E-18));
#513=DIRECTION('',(0.,0.,-1.));
#514=DIRECTION('',(-1.,0.,0.));
#515=DIRECTION('',(0.,0.,1.));
#516=DIRECTION('',(-1.,0.,-1.23812864742447E-17));
#517=DIRECTION('',(0.,0.,-1.));
#518=DIRECTION('',(-1.,0.,0.));
#519=DIRECTION('',(0.,0.,1.));
#520=DIRECTION('',(-1.,0.,-2.77458645630497E-18));
#521=DIRECTION('',(0.,0.,1.));
#522=DIRECTION('',(-1.,0.,6.12071722945504E-18));
#523=DIRECTION('',(0.,0.,-1.));
#524=DIRECTION('',(1.,0.,0.));
#525=CARTESIAN_POINT('',(0.,0.,0.));
#526=CARTESIAN_POINT('',(0.,0.,0.));
#527=CARTESIAN_POINT('',(0.,0.,48.));
#528=CARTESIAN_POINT('',(0.,0.,-54.));
#529=CARTESIAN_POINT('',(0.,0.,47.5));
#530=CARTESIAN_POINT('',(8.,0.,47.5));
#531=CARTESIAN_POINT('',(0.,0.,-1.4210854715202E-14));
#532=CARTESIAN_POINT('',(8.,0.,-1.4210854715202E-14));
#533=CARTESIAN_POINT('',(0.,0.,-1.4210854715202E-14));
#534=CARTESIAN_POINT('',(0.,0.,48.));
#535=CARTESIAN_POINT('',(7.5,0.,48.));
#536=CARTESIAN_POINT('',(0.,0.,47.5));
#537=CARTESIAN_POINT('',(0.,7.5,48.));
#538=CARTESIAN_POINT('',(0.,0.,-1.40443212615082E-14));
#539=CARTESIAN_POINT('',(0.,0.,-1.25000000000001));
#540=CARTESIAN_POINT('',(-6.75,0.,-1.25000000000001));
#541=CARTESIAN_POINT('',(0.,0.,-1.4210854715202E-14));
#542=CARTESIAN_POINT('',(-8.,0.,-1.4210854715202E-14));
#543=CARTESIAN_POINT('',(0.,0.,-1.4210854715202E-14));
#544=CARTESIAN_POINT('',(0.,0.,-24.5299999999999));
#545=CARTESIAN_POINT('',(-6.75,0.,-24.5299999999999));
#546=CARTESIAN_POINT('',(0.,0.,-1.4210854715202E-14));
#547=CARTESIAN_POINT('',(0.,0.,-24.554939));
#548=CARTESIAN_POINT('',(-6.72506100000001,0.,-24.554939));
#549=CARTESIAN_POINT('',(0.,0.,-24.5299999999999));
#550=CARTESIAN_POINT('',(0.,6.72506100000001,-24.554939));
#551=CARTESIAN_POINT('',(0.,0.,-1.40443212615082E-14));
#552=CARTESIAN_POINT('',(0.,0.,-25.45));
#553=CARTESIAN_POINT('',(-5.83000000000001,0.,-25.45));
#554=CARTESIAN_POINT('',(0.,0.,-24.554939));
#555=CARTESIAN_POINT('',(-6.72506100000001,0.,-24.554939));
#556=CARTESIAN_POINT('',(0.,0.,-25.3));
#557=CARTESIAN_POINT('',(0.,0.,-25.49));
#558=CARTESIAN_POINT('',(-5.75999999999999,0.,-25.49));
#559=CARTESIAN_POINT('',(0.,0.,-25.45));
#560=CARTESIAN_POINT('',(0.,0.,-25.5114285714286));
#561=CARTESIAN_POINT('',(-5.72,0.,-25.5114285714286));
#562=CARTESIAN_POINT('',(0.,0.,-25.49));
#563=CARTESIAN_POINT('',(0.,0.,-49.64));
#564=CARTESIAN_POINT('',(-5.72,0.,-49.64));
#565=CARTESIAN_POINT('',(0.,0.,-24.554939));
#566=CARTESIAN_POINT('',(0.,0.,-49.77));
#567=CARTESIAN_POINT('',(-5.47999999999999,0.,-49.77));
#568=CARTESIAN_POINT('',(0.,0.,-49.64));
#569=CARTESIAN_POINT('',(0.,0.,-50.07));
#570=CARTESIAN_POINT('',(-4.90000000000001,0.,-50.07));
#571=CARTESIAN_POINT('',(0.,0.,-49.77));
#572=CARTESIAN_POINT('',(0.,0.,-50.38));
#573=CARTESIAN_POINT('',(-4.90000000000001,0.,-50.38));
#574=CARTESIAN_POINT('',(0.,0.,-24.554939));
#575=CARTESIAN_POINT('',(0.,0.,-50.42));
#576=CARTESIAN_POINT('',(-4.97,0.,-50.42));
#577=CARTESIAN_POINT('',(0.,0.,-50.38));
#578=CARTESIAN_POINT('',(0.,0.,-50.72));
#579=CARTESIAN_POINT('',(-5.55000000000001,0.,-50.72));
#580=CARTESIAN_POINT('',(0.,0.,-50.42));
#581=CARTESIAN_POINT('',(0.,0.,-50.87));
#582=CARTESIAN_POINT('',(-5.83000000000001,0.,-50.87));
#583=CARTESIAN_POINT('',(0.,0.,-50.72));
#584=CARTESIAN_POINT('',(0.,0.,-52.21));
#585=CARTESIAN_POINT('',(-5.83000000000001,0.,-52.21));
#586=CARTESIAN_POINT('',(0.,0.,-24.554939));
#587=CARTESIAN_POINT('',(0.,0.,-52.34));
#588=CARTESIAN_POINT('',(-5.46000000000001,0.,-52.34));
#589=CARTESIAN_POINT('',(0.,0.,-52.21));
#590=CARTESIAN_POINT('',(0.,0.,-52.79));
#591=CARTESIAN_POINT('',(-4.22999999999999,0.,-52.79));
#592=CARTESIAN_POINT('',(0.,0.,-52.34));
#593=CARTESIAN_POINT('',(0.,0.,-52.94));
#594=CARTESIAN_POINT('',(-3.81,0.,-52.94));
#595=CARTESIAN_POINT('',(0.,0.,-52.79));
#596=CARTESIAN_POINT('',(0.,0.,-53.54));
#597=CARTESIAN_POINT('',(-2.17000000000002,0.,-53.54));
#598=CARTESIAN_POINT('',(0.,0.,-52.94));
#599=CARTESIAN_POINT('',(0.,0.,-53.69));
#600=CARTESIAN_POINT('',(-1.75,0.,-53.69));
#601=CARTESIAN_POINT('',(0.,0.,-53.54));
#602=CARTESIAN_POINT('',(0.,0.,-53.7));
#603=CARTESIAN_POINT('',(-1.70000000000002,0.,-53.7));
#604=CARTESIAN_POINT('',(0.,0.,-53.69));
#605=CARTESIAN_POINT('',(0.,-2.16840434497101E-16,-54.));
#606=CARTESIAN_POINT('',(0.,0.,-53.7));
#607=CARTESIAN_POINT('',(0.,0.,-24.554939));
#608=MECHANICAL_DESIGN_GEOMETRIC_PRESENTATION_REPRESENTATION('',(#333,#334,
#335,#336,#337,#338),#609);
#609=(
GEOMETRIC_REPRESENTATION_CONTEXT(3)
GLOBAL_UNCERTAINTY_ASSIGNED_CONTEXT((#610))
GLOBAL_UNIT_ASSIGNED_CONTEXT((#616,#612,#611))
REPRESENTATION_CONTEXT('DTM-1_4X19W-16R1','TOP_LEVEL_ASSEMBLY_PART')
);
#610=UNCERTAINTY_MEASURE_WITH_UNIT(LENGTH_MEASURE(2.E-5),#616,
'DISTANCE_ACCURACY_VALUE','Maximum Tolerance applied to model');
#611=(
NAMED_UNIT(*)
SI_UNIT($,.STERADIAN.)
SOLID_ANGLE_UNIT()
);
#612=(
CONVERSION_BASED_UNIT('DEGREE',#614)
NAMED_UNIT(#613)
PLANE_ANGLE_UNIT()
);
#613=DIMENSIONAL_EXPONENTS(0.,0.,0.,0.,0.,0.,0.);
#614=PLANE_ANGLE_MEASURE_WITH_UNIT(PLANE_ANGLE_MEASURE(0.0174532925),#615);
#615=(
NAMED_UNIT(*)
PLANE_ANGLE_UNIT()
SI_UNIT($,.RADIAN.)
);
#616=(
LENGTH_UNIT()
NAMED_UNIT(*)
SI_UNIT(.MILLI.,.METRE.)
);
ENDSEC;
END-ISO-10303-21;
