ISO-10303-21;
HEADER;
/* Generated by software containing ST-Developer
 * from STEP Tools, Inc. (www.steptools.com) 
 */
/* OPTION: using custom schema-name function */

FILE_DESCRIPTION(
/* description */ (''),
/* implementation_level */ '2;1');

FILE_NAME(
/* name */ 'DTM-1_2X20UNF-14R1.stp',
/* time_stamp */ '2017-09-14T08:51:21+05:00',
/* author */ (''),
/* organization */ (''),
/* preprocessor_version */ 'ST-DEVELOPER v16',
/* originating_system */ 'SIEMENS PLM Software NX 11.0',
/* authorisation */ '');

FILE_SCHEMA (('AUTOMOTIVE_DESIGN { 1 0 10303 214 3 1 1 1 }'));
ENDSEC;

DATA;
#10=CONSTRUCTIVE_GEOMETRY_REPRESENTATION_RELATIONSHIP(
'supplemental geometry','',#24,#11);
#11=CONSTRUCTIVE_GEOMETRY_REPRESENTATION('supplemental geometry',(#377,
#378,#379),#649);
#12=SHAPE_REPRESENTATION_RELATIONSHIP('None',
'relationship between DTM-1_2X20UNF-14R1-None and DTM-1_2X20UNF-14R1-N
one',#24,#13);
#13=ADVANCED_BREP_SHAPE_REPRESENTATION('DTM-1_2X20UNF-14R1-None',(#41,#42,
#43),#649);
#14=SHAPE_DEFINITION_REPRESENTATION(#15,#24);
#15=PRODUCT_DEFINITION_SHAPE('','',#16);
#16=PRODUCT_DEFINITION(' ','',#18,#17);
#17=PRODUCT_DEFINITION_CONTEXT('part definition',#23,'design');
#18=PRODUCT_DEFINITION_FORMATION_WITH_SPECIFIED_SOURCE(' ',' ',#20,
 .NOT_KNOWN.);
#19=PRODUCT_RELATED_PRODUCT_CATEGORY('part','',(#20));
#20=PRODUCT('DTM-1_2X20UNF-14R1','DTM-1_2X20UNF-14R1',' ',(#21));
#21=PRODUCT_CONTEXT(' ',#23,'mechanical');
#22=APPLICATION_PROTOCOL_DEFINITION('international standard',
'automotive_design',2010,#23);
#23=APPLICATION_CONTEXT(
'core data for automotive mechanical design processes');
#24=SHAPE_REPRESENTATION('DTM-1_2X20UNF-14R1-None',(#376),#649);
#25=VERTEX_LOOP('',#297);
#26=SURFACE_STYLE_USAGE(.BOTH.,#29);
#27=SURFACE_STYLE_USAGE(.BOTH.,#30);
#28=SURFACE_STYLE_USAGE(.BOTH.,#31);
#29=SURFACE_SIDE_STYLE('',(#32));
#30=SURFACE_SIDE_STYLE('',(#33));
#31=SURFACE_SIDE_STYLE('',(#34));
#32=SURFACE_STYLE_FILL_AREA(#35);
#33=SURFACE_STYLE_FILL_AREA(#36);
#34=SURFACE_STYLE_FILL_AREA(#37);
#35=FILL_AREA_STYLE('',(#38));
#36=FILL_AREA_STYLE('',(#39));
#37=FILL_AREA_STYLE('',(#40));
#38=FILL_AREA_STYLE_COLOUR('',#371);
#39=FILL_AREA_STYLE_COLOUR('',#371);
#40=FILL_AREA_STYLE_COLOUR('',#372);
#41=MANIFOLD_SOLID_BREP('NOCUT',#44);
#42=MANIFOLD_SOLID_BREP('NOCUT',#45);
#43=MANIFOLD_SOLID_BREP('CUT',#46);
#44=CLOSED_SHELL('',(#77,#78,#79,#80));
#45=CLOSED_SHELL('',(#81,#82,#83,#84,#85,#86,#87));
#46=CLOSED_SHELL('',(#88,#89,#90,#91,#92,#93,#94,#95,#96,#97,#98,#99,#100,
#101,#102,#103,#104,#105,#106));
#47=PLANE('',#385);
#48=PLANE('',#386);
#49=PLANE('',#388);
#50=PLANE('',#390);
#51=PLANE('',#396);
#52=PLANE('',#436);
#53=FACE_OUTER_BOUND('',#166,.T.);
#54=FACE_OUTER_BOUND('',#167,.T.);
#55=FACE_OUTER_BOUND('',#168,.T.);
#56=FACE_OUTER_BOUND('',#169,.T.);
#57=FACE_OUTER_BOUND('',#215,.T.);
#58=CONICAL_SURFACE('',#384,7.,45.0000000000067);
#59=CONICAL_SURFACE('',#392,7.,44.9999999999995);
#60=CONICAL_SURFACE('',#394,6.90000000000001,43.0250659891203);
#61=CONICAL_SURFACE('',#399,6.75,45.0000000000001);
#62=CONICAL_SURFACE('',#402,6.5,53.1301023541486);
#63=CONICAL_SURFACE('',#404,5.85999999999999,44.9999999999947);
#64=CONICAL_SURFACE('',#406,5.71000000000001,59.9314171781407);
#65=CONICAL_SURFACE('',#408,5.52000000000001,60.9453959009382);
#66=CONICAL_SURFACE('',#412,5.44,59.5344550805394);
#67=CONICAL_SURFACE('',#414,5.27000000000001,60.0183606311527);
#68=CONICAL_SURFACE('',#418,4.75,59.9314171781329);
#69=CONICAL_SURFACE('',#420,4.94,60.0183606311515);
#70=CONICAL_SURFACE('',#424,5.72,69.2277453179563);
#71=CONICAL_SURFACE('',#426,5.43000000000001,69.9047688080936);
#72=CONICAL_SURFACE('',#428,5.02000000000001,70.3461759419469);
#73=CONICAL_SURFACE('',#430,4.59999999999999,69.9047688080957);
#74=CONICAL_SURFACE('',#432,3.37,70.346175941946);
#75=CONICAL_SURFACE('',#434,2.94999999999999,69.904768808096);
#76=CONICAL_SURFACE('',#435,1.7386363636364,79.9920201985579);
#77=ADVANCED_FACE('',(#112,#113),#107,.T.);
#78=ADVANCED_FACE('',(#114,#115),#58,.T.);
#79=ADVANCED_FACE('',(#53),#47,.F.);
#80=ADVANCED_FACE('',(#54),#48,.F.);
#81=ADVANCED_FACE('',(#55),#49,.T.);
#82=ADVANCED_FACE('',(#56),#50,.T.);
#83=ADVANCED_FACE('',(#116,#117),#59,.T.);
#84=ADVANCED_FACE('',(#118,#119),#60,.T.);
#85=ADVANCED_FACE('',(#120,#121),#51,.T.);
#86=ADVANCED_FACE('',(#122,#123),#108,.T.);
#87=ADVANCED_FACE('',(#124,#125),#61,.T.);
#88=ADVANCED_FACE('',(#126,#127),#62,.T.);
#89=ADVANCED_FACE('',(#128,#129),#63,.T.);
#90=ADVANCED_FACE('',(#130,#131),#64,.T.);
#91=ADVANCED_FACE('',(#132,#133),#65,.T.);
#92=ADVANCED_FACE('',(#134,#135),#109,.T.);
#93=ADVANCED_FACE('',(#136,#137),#66,.T.);
#94=ADVANCED_FACE('',(#138,#139),#67,.T.);
#95=ADVANCED_FACE('',(#140,#141),#110,.T.);
#96=ADVANCED_FACE('',(#142,#143),#68,.T.);
#97=ADVANCED_FACE('',(#144,#145),#69,.T.);
#98=ADVANCED_FACE('',(#146,#147),#111,.T.);
#99=ADVANCED_FACE('',(#148,#149),#70,.T.);
#100=ADVANCED_FACE('',(#150,#151),#71,.T.);
#101=ADVANCED_FACE('',(#152,#153),#72,.T.);
#102=ADVANCED_FACE('',(#154,#155),#73,.T.);
#103=ADVANCED_FACE('',(#156,#157),#74,.T.);
#104=ADVANCED_FACE('',(#158,#159),#75,.T.);
#105=ADVANCED_FACE('',(#160,#161),#76,.T.);
#106=ADVANCED_FACE('',(#57),#52,.F.);
#107=CYLINDRICAL_SURFACE('',#382,7.);
#108=CYLINDRICAL_SURFACE('',#398,6.75);
#109=CYLINDRICAL_SURFACE('',#410,5.44);
#110=CYLINDRICAL_SURFACE('',#416,4.75);
#111=CYLINDRICAL_SURFACE('',#422,5.72);
#112=FACE_BOUND('',#162,.T.);
#113=FACE_BOUND('',#163,.T.);
#114=FACE_BOUND('',#164,.T.);
#115=FACE_BOUND('',#165,.T.);
#116=FACE_BOUND('',#170,.T.);
#117=FACE_BOUND('',#171,.T.);
#118=FACE_BOUND('',#172,.T.);
#119=FACE_BOUND('',#173,.T.);
#120=FACE_BOUND('',#174,.T.);
#121=FACE_BOUND('',#175,.T.);
#122=FACE_BOUND('',#176,.T.);
#123=FACE_BOUND('',#177,.T.);
#124=FACE_BOUND('',#178,.T.);
#125=FACE_BOUND('',#179,.T.);
#126=FACE_BOUND('',#180,.T.);
#127=FACE_BOUND('',#181,.T.);
#128=FACE_BOUND('',#182,.T.);
#129=FACE_BOUND('',#183,.T.);
#130=FACE_BOUND('',#184,.T.);
#131=FACE_BOUND('',#185,.T.);
#132=FACE_BOUND('',#186,.T.);
#133=FACE_BOUND('',#187,.T.);
#134=FACE_BOUND('',#188,.T.);
#135=FACE_BOUND('',#189,.T.);
#136=FACE_BOUND('',#190,.T.);
#137=FACE_BOUND('',#191,.T.);
#138=FACE_BOUND('',#192,.T.);
#139=FACE_BOUND('',#193,.T.);
#140=FACE_BOUND('',#194,.T.);
#141=FACE_BOUND('',#195,.T.);
#142=FACE_BOUND('',#196,.T.);
#143=FACE_BOUND('',#197,.T.);
#144=FACE_BOUND('',#198,.T.);
#145=FACE_BOUND('',#199,.T.);
#146=FACE_BOUND('',#200,.T.);
#147=FACE_BOUND('',#201,.T.);
#148=FACE_BOUND('',#202,.T.);
#149=FACE_BOUND('',#203,.T.);
#150=FACE_BOUND('',#204,.T.);
#151=FACE_BOUND('',#205,.T.);
#152=FACE_BOUND('',#206,.T.);
#153=FACE_BOUND('',#207,.T.);
#154=FACE_BOUND('',#208,.T.);
#155=FACE_BOUND('',#209,.T.);
#156=FACE_BOUND('',#210,.T.);
#157=FACE_BOUND('',#211,.T.);
#158=FACE_BOUND('',#212,.T.);
#159=FACE_BOUND('',#213,.T.);
#160=FACE_BOUND('',#25,.T.);
#161=FACE_BOUND('',#214,.T.);
#162=EDGE_LOOP('',(#216));
#163=EDGE_LOOP('',(#217));
#164=EDGE_LOOP('',(#218));
#165=EDGE_LOOP('',(#219));
#166=EDGE_LOOP('',(#220));
#167=EDGE_LOOP('',(#221));
#168=EDGE_LOOP('',(#222));
#169=EDGE_LOOP('',(#223));
#170=EDGE_LOOP('',(#224));
#171=EDGE_LOOP('',(#225));
#172=EDGE_LOOP('',(#226));
#173=EDGE_LOOP('',(#227));
#174=EDGE_LOOP('',(#228));
#175=EDGE_LOOP('',(#229));
#176=EDGE_LOOP('',(#230));
#177=EDGE_LOOP('',(#231));
#178=EDGE_LOOP('',(#232));
#179=EDGE_LOOP('',(#233));
#180=EDGE_LOOP('',(#234));
#181=EDGE_LOOP('',(#235));
#182=EDGE_LOOP('',(#236));
#183=EDGE_LOOP('',(#237));
#184=EDGE_LOOP('',(#238));
#185=EDGE_LOOP('',(#239));
#186=EDGE_LOOP('',(#240));
#187=EDGE_LOOP('',(#241));
#188=EDGE_LOOP('',(#242));
#189=EDGE_LOOP('',(#243));
#190=EDGE_LOOP('',(#244));
#191=EDGE_LOOP('',(#245));
#192=EDGE_LOOP('',(#246));
#193=EDGE_LOOP('',(#247));
#194=EDGE_LOOP('',(#248));
#195=EDGE_LOOP('',(#249));
#196=EDGE_LOOP('',(#250));
#197=EDGE_LOOP('',(#251));
#198=EDGE_LOOP('',(#252));
#199=EDGE_LOOP('',(#253));
#200=EDGE_LOOP('',(#254));
#201=EDGE_LOOP('',(#255));
#202=EDGE_LOOP('',(#256));
#203=EDGE_LOOP('',(#257));
#204=EDGE_LOOP('',(#258));
#205=EDGE_LOOP('',(#259));
#206=EDGE_LOOP('',(#260));
#207=EDGE_LOOP('',(#261));
#208=EDGE_LOOP('',(#262));
#209=EDGE_LOOP('',(#263));
#210=EDGE_LOOP('',(#264));
#211=EDGE_LOOP('',(#265));
#212=EDGE_LOOP('',(#266));
#213=EDGE_LOOP('',(#267));
#214=EDGE_LOOP('',(#268));
#215=EDGE_LOOP('',(#269));
#216=ORIENTED_EDGE('',*,*,#298,.F.);
#217=ORIENTED_EDGE('',*,*,#299,.T.);
#218=ORIENTED_EDGE('',*,*,#300,.F.);
#219=ORIENTED_EDGE('',*,*,#298,.T.);
#220=ORIENTED_EDGE('',*,*,#300,.T.);
#221=ORIENTED_EDGE('',*,*,#299,.F.);
#222=ORIENTED_EDGE('',*,*,#301,.F.);
#223=ORIENTED_EDGE('',*,*,#302,.T.);
#224=ORIENTED_EDGE('',*,*,#303,.T.);
#225=ORIENTED_EDGE('',*,*,#302,.F.);
#226=ORIENTED_EDGE('',*,*,#304,.T.);
#227=ORIENTED_EDGE('',*,*,#303,.F.);
#228=ORIENTED_EDGE('',*,*,#305,.T.);
#229=ORIENTED_EDGE('',*,*,#304,.F.);
#230=ORIENTED_EDGE('',*,*,#306,.T.);
#231=ORIENTED_EDGE('',*,*,#305,.F.);
#232=ORIENTED_EDGE('',*,*,#301,.T.);
#233=ORIENTED_EDGE('',*,*,#306,.F.);
#234=ORIENTED_EDGE('',*,*,#307,.F.);
#235=ORIENTED_EDGE('',*,*,#308,.T.);
#236=ORIENTED_EDGE('',*,*,#309,.F.);
#237=ORIENTED_EDGE('',*,*,#307,.T.);
#238=ORIENTED_EDGE('',*,*,#310,.F.);
#239=ORIENTED_EDGE('',*,*,#309,.T.);
#240=ORIENTED_EDGE('',*,*,#311,.F.);
#241=ORIENTED_EDGE('',*,*,#310,.T.);
#242=ORIENTED_EDGE('',*,*,#312,.F.);
#243=ORIENTED_EDGE('',*,*,#311,.T.);
#244=ORIENTED_EDGE('',*,*,#313,.F.);
#245=ORIENTED_EDGE('',*,*,#312,.T.);
#246=ORIENTED_EDGE('',*,*,#314,.F.);
#247=ORIENTED_EDGE('',*,*,#313,.T.);
#248=ORIENTED_EDGE('',*,*,#315,.F.);
#249=ORIENTED_EDGE('',*,*,#314,.T.);
#250=ORIENTED_EDGE('',*,*,#316,.F.);
#251=ORIENTED_EDGE('',*,*,#315,.T.);
#252=ORIENTED_EDGE('',*,*,#317,.F.);
#253=ORIENTED_EDGE('',*,*,#316,.T.);
#254=ORIENTED_EDGE('',*,*,#318,.F.);
#255=ORIENTED_EDGE('',*,*,#317,.T.);
#256=ORIENTED_EDGE('',*,*,#319,.F.);
#257=ORIENTED_EDGE('',*,*,#318,.T.);
#258=ORIENTED_EDGE('',*,*,#320,.F.);
#259=ORIENTED_EDGE('',*,*,#319,.T.);
#260=ORIENTED_EDGE('',*,*,#321,.F.);
#261=ORIENTED_EDGE('',*,*,#320,.T.);
#262=ORIENTED_EDGE('',*,*,#322,.F.);
#263=ORIENTED_EDGE('',*,*,#321,.T.);
#264=ORIENTED_EDGE('',*,*,#323,.F.);
#265=ORIENTED_EDGE('',*,*,#322,.T.);
#266=ORIENTED_EDGE('',*,*,#324,.F.);
#267=ORIENTED_EDGE('',*,*,#323,.T.);
#268=ORIENTED_EDGE('',*,*,#324,.T.);
#269=ORIENTED_EDGE('',*,*,#308,.F.);
#270=VERTEX_POINT('',#564);
#271=VERTEX_POINT('',#566);
#272=VERTEX_POINT('',#569);
#273=VERTEX_POINT('',#574);
#274=VERTEX_POINT('',#577);
#275=VERTEX_POINT('',#580);
#276=VERTEX_POINT('',#583);
#277=VERTEX_POINT('',#586);
#278=VERTEX_POINT('',#589);
#279=VERTEX_POINT('',#593);
#280=VERTEX_POINT('',#595);
#281=VERTEX_POINT('',#598);
#282=VERTEX_POINT('',#601);
#283=VERTEX_POINT('',#604);
#284=VERTEX_POINT('',#607);
#285=VERTEX_POINT('',#610);
#286=VERTEX_POINT('',#613);
#287=VERTEX_POINT('',#616);
#288=VERTEX_POINT('',#619);
#289=VERTEX_POINT('',#622);
#290=VERTEX_POINT('',#625);
#291=VERTEX_POINT('',#628);
#292=VERTEX_POINT('',#631);
#293=VERTEX_POINT('',#634);
#294=VERTEX_POINT('',#637);
#295=VERTEX_POINT('',#640);
#296=VERTEX_POINT('',#643);
#297=VERTEX_POINT('',#645);
#298=EDGE_CURVE('',#270,#270,#325,.T.);
#299=EDGE_CURVE('',#271,#271,#326,.T.);
#300=EDGE_CURVE('',#272,#272,#327,.T.);
#301=EDGE_CURVE('',#273,#273,#328,.T.);
#302=EDGE_CURVE('',#274,#274,#329,.T.);
#303=EDGE_CURVE('',#275,#275,#330,.T.);
#304=EDGE_CURVE('',#276,#276,#331,.T.);
#305=EDGE_CURVE('',#277,#277,#332,.T.);
#306=EDGE_CURVE('',#278,#278,#333,.T.);
#307=EDGE_CURVE('',#279,#279,#334,.T.);
#308=EDGE_CURVE('',#280,#280,#335,.T.);
#309=EDGE_CURVE('',#281,#281,#336,.T.);
#310=EDGE_CURVE('',#282,#282,#337,.T.);
#311=EDGE_CURVE('',#283,#283,#338,.T.);
#312=EDGE_CURVE('',#284,#284,#339,.T.);
#313=EDGE_CURVE('',#285,#285,#340,.T.);
#314=EDGE_CURVE('',#286,#286,#341,.T.);
#315=EDGE_CURVE('',#287,#287,#342,.T.);
#316=EDGE_CURVE('',#288,#288,#343,.T.);
#317=EDGE_CURVE('',#289,#289,#344,.T.);
#318=EDGE_CURVE('',#290,#290,#345,.T.);
#319=EDGE_CURVE('',#291,#291,#346,.T.);
#320=EDGE_CURVE('',#292,#292,#347,.T.);
#321=EDGE_CURVE('',#293,#293,#348,.T.);
#322=EDGE_CURVE('',#294,#294,#349,.T.);
#323=EDGE_CURVE('',#295,#295,#350,.T.);
#324=EDGE_CURVE('',#296,#296,#351,.T.);
#325=CIRCLE('',#380,7.);
#326=CIRCLE('',#381,7.);
#327=CIRCLE('',#383,6.5);
#328=CIRCLE('',#387,6.5);
#329=CIRCLE('',#389,7.);
#330=CIRCLE('',#391,6.90000000000001);
#331=CIRCLE('',#393,6.75999999999999);
#332=CIRCLE('',#395,6.75);
#333=CIRCLE('',#397,6.75);
#334=CIRCLE('',#400,6.46000000000001);
#335=CIRCLE('',#401,6.5);
#336=CIRCLE('',#403,5.71000000000001);
#337=CIRCLE('',#405,5.52000000000001);
#338=CIRCLE('',#407,5.44);
#339=CIRCLE('',#409,5.44);
#340=CIRCLE('',#411,5.27000000000001);
#341=CIRCLE('',#413,4.75);
#342=CIRCLE('',#415,4.75);
#343=CIRCLE('',#417,4.94);
#344=CIRCLE('',#419,5.72);
#345=CIRCLE('',#421,5.72);
#346=CIRCLE('',#423,5.43000000000001);
#347=CIRCLE('',#425,5.02000000000001);
#348=CIRCLE('',#427,4.59999999999999);
#349=CIRCLE('',#429,3.37);
#350=CIRCLE('',#431,2.94999999999999);
#351=CIRCLE('',#433,1.7386363636364);
#352=PRESENTATION_LAYER_ASSIGNMENT('1','Layer 1',(#377,#378,#379,#41));
#353=PRESENTATION_LAYER_ASSIGNMENT('2','Layer 2',(#42));
#354=PRESENTATION_LAYER_ASSIGNMENT('3','Layer 3',(#43));
#355=STYLED_ITEM('',(#361),#377);
#356=STYLED_ITEM('',(#362),#378);
#357=STYLED_ITEM('',(#363),#379);
#358=STYLED_ITEM('',(#364),#41);
#359=STYLED_ITEM('',(#365),#42);
#360=STYLED_ITEM('',(#366),#43);
#361=PRESENTATION_STYLE_ASSIGNMENT((#367));
#362=PRESENTATION_STYLE_ASSIGNMENT((#368));
#363=PRESENTATION_STYLE_ASSIGNMENT((#369));
#364=PRESENTATION_STYLE_ASSIGNMENT((#26));
#365=PRESENTATION_STYLE_ASSIGNMENT((#27));
#366=PRESENTATION_STYLE_ASSIGNMENT((#28));
#367=CURVE_STYLE('',#373,POSITIVE_LENGTH_MEASURE(0.18),#370);
#368=CURVE_STYLE('',#374,POSITIVE_LENGTH_MEASURE(0.18),#370);
#369=CURVE_STYLE('',#375,POSITIVE_LENGTH_MEASURE(0.18),#370);
#370=COLOUR_RGB('Medium Maroon',0.6,0.4,0.4);
#371=COLOUR_RGB('Medium Gray',0.490196078431373,0.490196078431373,0.490196078431373);
#372=COLOUR_RGB('Light Gray',0.8,0.8,0.8);
#373=DRAUGHTING_PRE_DEFINED_CURVE_FONT('continuous');
#374=DRAUGHTING_PRE_DEFINED_CURVE_FONT('continuous');
#375=DRAUGHTING_PRE_DEFINED_CURVE_FONT('continuous');
#376=AXIS2_PLACEMENT_3D('',#559,#437,#438);
#377=AXIS2_PLACEMENT_3D('MCS',#560,#439,#440);
#378=AXIS2_PLACEMENT_3D('PCS',#561,#441,#442);
#379=AXIS2_PLACEMENT_3D('CIP',#562,#443,#444);
#380=AXIS2_PLACEMENT_3D('',#563,#445,#446);
#381=AXIS2_PLACEMENT_3D('',#565,#447,#448);
#382=AXIS2_PLACEMENT_3D('',#567,#449,#450);
#383=AXIS2_PLACEMENT_3D('',#568,#451,#452);
#384=AXIS2_PLACEMENT_3D('',#570,#453,#454);
#385=AXIS2_PLACEMENT_3D('',#571,#455,#456);
#386=AXIS2_PLACEMENT_3D('',#572,#457,#458);
#387=AXIS2_PLACEMENT_3D('',#573,#459,#460);
#388=AXIS2_PLACEMENT_3D('',#575,#461,#462);
#389=AXIS2_PLACEMENT_3D('',#576,#463,#464);
#390=AXIS2_PLACEMENT_3D('',#578,#465,#466);
#391=AXIS2_PLACEMENT_3D('',#579,#467,#468);
#392=AXIS2_PLACEMENT_3D('',#581,#469,#470);
#393=AXIS2_PLACEMENT_3D('',#582,#471,#472);
#394=AXIS2_PLACEMENT_3D('',#584,#473,#474);
#395=AXIS2_PLACEMENT_3D('',#585,#475,#476);
#396=AXIS2_PLACEMENT_3D('',#587,#477,#478);
#397=AXIS2_PLACEMENT_3D('',#588,#479,#480);
#398=AXIS2_PLACEMENT_3D('',#590,#481,#482);
#399=AXIS2_PLACEMENT_3D('',#591,#483,#484);
#400=AXIS2_PLACEMENT_3D('',#592,#485,#486);
#401=AXIS2_PLACEMENT_3D('',#594,#487,#488);
#402=AXIS2_PLACEMENT_3D('',#596,#489,#490);
#403=AXIS2_PLACEMENT_3D('',#597,#491,#492);
#404=AXIS2_PLACEMENT_3D('',#599,#493,#494);
#405=AXIS2_PLACEMENT_3D('',#600,#495,#496);
#406=AXIS2_PLACEMENT_3D('',#602,#497,#498);
#407=AXIS2_PLACEMENT_3D('',#603,#499,#500);
#408=AXIS2_PLACEMENT_3D('',#605,#501,#502);
#409=AXIS2_PLACEMENT_3D('',#606,#503,#504);
#410=AXIS2_PLACEMENT_3D('',#608,#505,#506);
#411=AXIS2_PLACEMENT_3D('',#609,#507,#508);
#412=AXIS2_PLACEMENT_3D('',#611,#509,#510);
#413=AXIS2_PLACEMENT_3D('',#612,#511,#512);
#414=AXIS2_PLACEMENT_3D('',#614,#513,#514);
#415=AXIS2_PLACEMENT_3D('',#615,#515,#516);
#416=AXIS2_PLACEMENT_3D('',#617,#517,#518);
#417=AXIS2_PLACEMENT_3D('',#618,#519,#520);
#418=AXIS2_PLACEMENT_3D('',#620,#521,#522);
#419=AXIS2_PLACEMENT_3D('',#621,#523,#524);
#420=AXIS2_PLACEMENT_3D('',#623,#525,#526);
#421=AXIS2_PLACEMENT_3D('',#624,#527,#528);
#422=AXIS2_PLACEMENT_3D('',#626,#529,#530);
#423=AXIS2_PLACEMENT_3D('',#627,#531,#532);
#424=AXIS2_PLACEMENT_3D('',#629,#533,#534);
#425=AXIS2_PLACEMENT_3D('',#630,#535,#536);
#426=AXIS2_PLACEMENT_3D('',#632,#537,#538);
#427=AXIS2_PLACEMENT_3D('',#633,#539,#540);
#428=AXIS2_PLACEMENT_3D('',#635,#541,#542);
#429=AXIS2_PLACEMENT_3D('',#636,#543,#544);
#430=AXIS2_PLACEMENT_3D('',#638,#545,#546);
#431=AXIS2_PLACEMENT_3D('',#639,#547,#548);
#432=AXIS2_PLACEMENT_3D('',#641,#549,#550);
#433=AXIS2_PLACEMENT_3D('',#642,#551,#552);
#434=AXIS2_PLACEMENT_3D('',#644,#553,#554);
#435=AXIS2_PLACEMENT_3D('',#646,#555,#556);
#436=AXIS2_PLACEMENT_3D('',#647,#557,#558);
#437=DIRECTION('',(0.,0.,1.));
#438=DIRECTION('',(1.,0.,0.));
#439=DIRECTION('',(0.,0.,1.));
#440=DIRECTION('',(1.,0.,0.));
#441=DIRECTION('',(0.,0.,1.));
#442=DIRECTION('',(1.,0.,0.));
#443=DIRECTION('',(0.,0.,1.));
#444=DIRECTION('',(1.,0.,0.));
#445=DIRECTION('',(0.,0.,1.));
#446=DIRECTION('',(1.,0.,0.));
#447=DIRECTION('',(0.,0.,1.));
#448=DIRECTION('',(1.,0.,0.));
#449=DIRECTION('',(0.,0.,1.));
#450=DIRECTION('',(-1.,0.,0.));
#451=DIRECTION('',(0.,0.,1.));
#452=DIRECTION('',(1.,0.,0.));
#453=DIRECTION('',(0.,0.,-1.));
#454=DIRECTION('',(1.,0.,-6.89065928888343E-18));
#455=DIRECTION('',(0.,0.,-1.));
#456=DIRECTION('',(1.,0.,0.));
#457=DIRECTION('',(0.,0.,1.));
#458=DIRECTION('',(-1.,0.,0.));
#459=DIRECTION('',(0.,0.,1.));
#460=DIRECTION('',(1.,0.,0.));
#461=DIRECTION('',(0.,0.,-1.));
#462=DIRECTION('',(1.,0.,0.));
#463=DIRECTION('',(0.,0.,1.));
#464=DIRECTION('',(1.,0.,0.));
#465=DIRECTION('',(0.,0.,1.));
#466=DIRECTION('',(-1.,0.,0.));
#467=DIRECTION('',(0.,0.,1.));
#468=DIRECTION('',(1.,0.,0.));
#469=DIRECTION('',(0.,0.,1.));
#470=DIRECTION('',(-1.,0.,0.));
#471=DIRECTION('',(0.,0.,1.));
#472=DIRECTION('',(1.,0.,0.));
#473=DIRECTION('',(0.,0.,1.));
#474=DIRECTION('',(-1.,0.,7.35114210968328E-18));
#475=DIRECTION('',(0.,0.,1.));
#476=DIRECTION('',(1.,0.,0.));
#477=DIRECTION('',(0.,0.,-1.));
#478=DIRECTION('',(1.,0.,0.));
#479=DIRECTION('',(0.,0.,1.));
#480=DIRECTION('',(1.,0.,0.));
#481=DIRECTION('',(0.,0.,1.));
#482=DIRECTION('',(-1.,0.,0.));
#483=DIRECTION('',(0.,0.,1.));
#484=DIRECTION('',(-1.,0.,-1.72309260092059E-17));
#485=DIRECTION('',(0.,0.,-1.));
#486=DIRECTION('',(-1.,0.,0.));
#487=DIRECTION('',(0.,0.,-1.));
#488=DIRECTION('',(-1.,0.,0.));
#489=DIRECTION('',(0.,0.,1.));
#490=DIRECTION('',(-1.,0.,7.76838476616268E-18));
#491=DIRECTION('',(0.,0.,-1.));
#492=DIRECTION('',(-1.,0.,0.));
#493=DIRECTION('',(0.,0.,1.));
#494=DIRECTION('',(-1.,0.,-6.89846887629342E-18));
#495=DIRECTION('',(0.,0.,-1.));
#496=DIRECTION('',(-1.,0.,0.));
#497=DIRECTION('',(0.,0.,1.));
#498=DIRECTION('',(-1.,0.,4.0040179251102E-18));
#499=DIRECTION('',(0.,0.,-1.));
#500=DIRECTION('',(-1.,0.,0.));
#501=DIRECTION('',(0.,0.,1.));
#502=DIRECTION('',(-1.,0.,-2.69020876685498E-17));
#503=DIRECTION('',(0.,0.,-1.));
#504=DIRECTION('',(-1.,0.,0.));
#505=DIRECTION('',(0.,0.,-1.));
#506=DIRECTION('',(1.,0.,0.));
#507=DIRECTION('',(0.,0.,-1.));
#508=DIRECTION('',(-1.,0.,0.));
#509=DIRECTION('',(0.,0.,1.));
#510=DIRECTION('',(-1.,0.,-2.84807775866357E-17));
#511=DIRECTION('',(0.,0.,-1.));
#512=DIRECTION('',(-1.,0.,0.));
#513=DIRECTION('',(0.,0.,1.));
#514=DIRECTION('',(-1.,0.,-1.99553681132173E-17));
#515=DIRECTION('',(0.,0.,-1.));
#516=DIRECTION('',(-1.,0.,0.));
#517=DIRECTION('',(0.,0.,-1.));
#518=DIRECTION('',(1.,0.,0.));
#519=DIRECTION('',(0.,0.,-1.));
#520=DIRECTION('',(-1.,0.,0.));
#521=DIRECTION('',(0.,0.,-1.));
#522=DIRECTION('',(1.,0.,-3.60561349177627E-17));
#523=DIRECTION('',(0.,0.,-1.));
#524=DIRECTION('',(-1.,0.,0.));
#525=DIRECTION('',(0.,0.,-1.));
#526=DIRECTION('',(1.,0.,-5.98774695340999E-17));
#527=DIRECTION('',(0.,0.,-1.));
#528=DIRECTION('',(-1.,0.,0.));
#529=DIRECTION('',(0.,0.,-1.));
#530=DIRECTION('',(1.,0.,0.));
#531=DIRECTION('',(0.,0.,-1.));
#532=DIRECTION('',(-1.,0.,0.));
#533=DIRECTION('',(0.,0.,1.));
#534=DIRECTION('',(-1.,0.,-2.10103686602643E-17));
#535=DIRECTION('',(0.,0.,-1.));
#536=DIRECTION('',(-1.,0.,0.));
#537=DIRECTION('',(0.,0.,1.));
#538=DIRECTION('',(-1.,0.,2.53358653500831E-18));
#539=DIRECTION('',(0.,0.,-1.));
#540=DIRECTION('',(-1.,0.,0.));
#541=DIRECTION('',(0.,0.,1.));
#542=DIRECTION('',(-1.,0.,7.42122398832146E-18));
#543=DIRECTION('',(0.,0.,-1.));
#544=DIRECTION('',(-1.,0.,0.));
#545=DIRECTION('',(0.,0.,1.));
#546=DIRECTION('',(-1.,0.,1.26717729380561E-17));
#547=DIRECTION('',(0.,0.,-1.));
#548=DIRECTION('',(-1.,0.,0.));
#549=DIRECTION('',(0.,0.,1.));
#550=DIRECTION('',(-1.,0.,-9.90078926992511E-18));
#551=DIRECTION('',(0.,0.,-1.));
#552=DIRECTION('',(-1.,0.,0.));
#553=DIRECTION('',(0.,0.,1.));
#554=DIRECTION('',(-1.,0.,-2.53588282301672E-18));
#555=DIRECTION('',(0.,0.,1.));
#556=DIRECTION('',(-1.,0.,-4.8965404080744E-18));
#557=DIRECTION('',(0.,0.,-1.));
#558=DIRECTION('',(1.,0.,0.));
#559=CARTESIAN_POINT('',(0.,0.,0.));
#560=CARTESIAN_POINT('',(0.,0.,0.));
#561=CARTESIAN_POINT('',(0.,0.,45.));
#562=CARTESIAN_POINT('',(0.,0.,-44.));
#563=CARTESIAN_POINT('',(0.,0.,44.5000000000001));
#564=CARTESIAN_POINT('',(7.,0.,44.5000000000001));
#565=CARTESIAN_POINT('',(0.,0.,0.));
#566=CARTESIAN_POINT('',(7.,0.,0.));
#567=CARTESIAN_POINT('',(0.,0.,0.));
#568=CARTESIAN_POINT('',(0.,0.,45.));
#569=CARTESIAN_POINT('',(6.5,0.,45.));
#570=CARTESIAN_POINT('',(0.,0.,44.5000000000001));
#571=CARTESIAN_POINT('',(0.,6.5,45.0000000000001));
#572=CARTESIAN_POINT('',(0.,0.,0.));
#573=CARTESIAN_POINT('',(0.,0.,-15.81));
#574=CARTESIAN_POINT('',(6.5,0.,-15.81));
#575=CARTESIAN_POINT('',(0.,6.5,-15.81));
#576=CARTESIAN_POINT('',(0.,0.,0.));
#577=CARTESIAN_POINT('',(7.,0.,0.));
#578=CARTESIAN_POINT('',(0.,0.,0.));
#579=CARTESIAN_POINT('',(0.,0.,-0.0999999999999959));
#580=CARTESIAN_POINT('',(6.90000000000001,0.,-0.0999999999999959));
#581=CARTESIAN_POINT('',(0.,0.,0.));
#582=CARTESIAN_POINT('',(0.,0.,-0.25));
#583=CARTESIAN_POINT('',(6.75999999999999,0.,-0.25));
#584=CARTESIAN_POINT('',(0.,0.,-0.0999999999999959));
#585=CARTESIAN_POINT('',(0.,0.,-0.25));
#586=CARTESIAN_POINT('',(6.75,0.,-0.25));
#587=CARTESIAN_POINT('',(0.,6.75999999999999,-0.25));
#588=CARTESIAN_POINT('',(0.,0.,-15.56));
#589=CARTESIAN_POINT('',(6.75,0.,-15.56));
#590=CARTESIAN_POINT('',(0.,0.,-15.81));
#591=CARTESIAN_POINT('',(0.,0.,-15.56));
#592=CARTESIAN_POINT('',(0.,0.,-15.84));
#593=CARTESIAN_POINT('',(-6.46000000000001,0.,-15.84));
#594=CARTESIAN_POINT('',(0.,0.,-15.81));
#595=CARTESIAN_POINT('',(-6.5,0.,-15.81));
#596=CARTESIAN_POINT('',(0.,0.,-15.81));
#597=CARTESIAN_POINT('',(0.,0.,-16.59));
#598=CARTESIAN_POINT('',(-5.71000000000001,0.,-16.59));
#599=CARTESIAN_POINT('',(0.,0.,-16.44));
#600=CARTESIAN_POINT('',(0.,0.,-16.7));
#601=CARTESIAN_POINT('',(-5.52000000000001,0.,-16.7));
#602=CARTESIAN_POINT('',(0.,0.,-16.59));
#603=CARTESIAN_POINT('',(0.,0.,-16.7444444444444));
#604=CARTESIAN_POINT('',(-5.44,0.,-16.7444444444444));
#605=CARTESIAN_POINT('',(0.,0.,-16.7));
#606=CARTESIAN_POINT('',(0.,0.,-39.68));
#607=CARTESIAN_POINT('',(-5.44,0.,-39.68));
#608=CARTESIAN_POINT('',(0.,0.,-15.81));
#609=CARTESIAN_POINT('',(0.,0.,-39.78));
#610=CARTESIAN_POINT('',(-5.27000000000001,0.,-39.78));
#611=CARTESIAN_POINT('',(0.,0.,-39.68));
#612=CARTESIAN_POINT('',(0.,0.,-40.08));
#613=CARTESIAN_POINT('',(-4.75,0.,-40.08));
#614=CARTESIAN_POINT('',(0.,0.,-39.78));
#615=CARTESIAN_POINT('',(0.,0.,-40.41));
#616=CARTESIAN_POINT('',(-4.75,0.,-40.41));
#617=CARTESIAN_POINT('',(0.,0.,-15.81));
#618=CARTESIAN_POINT('',(0.,0.,-40.52));
#619=CARTESIAN_POINT('',(-4.94,0.,-40.52));
#620=CARTESIAN_POINT('',(0.,0.,-40.41));
#621=CARTESIAN_POINT('',(0.,0.,-40.97));
#622=CARTESIAN_POINT('',(-5.72,0.,-40.97));
#623=CARTESIAN_POINT('',(0.,0.,-40.52));
#624=CARTESIAN_POINT('',(0.,0.,-42.24));
#625=CARTESIAN_POINT('',(-5.72,0.,-42.24));
#626=CARTESIAN_POINT('',(0.,0.,-15.81));
#627=CARTESIAN_POINT('',(0.,0.,-42.35));
#628=CARTESIAN_POINT('',(-5.43000000000001,0.,-42.35));
#629=CARTESIAN_POINT('',(0.,0.,-42.24));
#630=CARTESIAN_POINT('',(0.,0.,-42.5));
#631=CARTESIAN_POINT('',(-5.02000000000001,0.,-42.5));
#632=CARTESIAN_POINT('',(0.,0.,-42.35));
#633=CARTESIAN_POINT('',(0.,0.,-42.65));
#634=CARTESIAN_POINT('',(-4.59999999999999,0.,-42.65));
#635=CARTESIAN_POINT('',(0.,0.,-42.5));
#636=CARTESIAN_POINT('',(0.,0.,-43.1));
#637=CARTESIAN_POINT('',(-3.37,0.,-43.1));
#638=CARTESIAN_POINT('',(0.,0.,-42.65));
#639=CARTESIAN_POINT('',(0.,0.,-43.25));
#640=CARTESIAN_POINT('',(-2.94999999999999,0.,-43.25));
#641=CARTESIAN_POINT('',(0.,0.,-43.1));
#642=CARTESIAN_POINT('',(0.,0.,-43.6931818181818));
#643=CARTESIAN_POINT('',(-1.7386363636364,0.,-43.6931818181818));
#644=CARTESIAN_POINT('',(0.,0.,-43.25));
#645=CARTESIAN_POINT('',(0.,4.33680868994202E-16,-44.));
#646=CARTESIAN_POINT('',(0.,0.,-43.6931818181818));
#647=CARTESIAN_POINT('',(0.,0.,-15.81));
#648=MECHANICAL_DESIGN_GEOMETRIC_PRESENTATION_REPRESENTATION('',(#355,#356,
#357,#358,#359,#360),#649);
#649=(
GEOMETRIC_REPRESENTATION_CONTEXT(3)
GLOBAL_UNCERTAINTY_ASSIGNED_CONTEXT((#650))
GLOBAL_UNIT_ASSIGNED_CONTEXT((#656,#652,#651))
REPRESENTATION_CONTEXT('DTM-1_2X20UNF-14R1','TOP_LEVEL_ASSEMBLY_PART')
);
#650=UNCERTAINTY_MEASURE_WITH_UNIT(LENGTH_MEASURE(2.E-5),#656,
'DISTANCE_ACCURACY_VALUE','Maximum Tolerance applied to model');
#651=(
NAMED_UNIT(*)
SI_UNIT($,.STERADIAN.)
SOLID_ANGLE_UNIT()
);
#652=(
CONVERSION_BASED_UNIT('DEGREE',#654)
NAMED_UNIT(#653)
PLANE_ANGLE_UNIT()
);
#653=DIMENSIONAL_EXPONENTS(0.,0.,0.,0.,0.,0.,0.);
#654=PLANE_ANGLE_MEASURE_WITH_UNIT(PLANE_ANGLE_MEASURE(0.0174532925),#655);
#655=(
NAMED_UNIT(*)
PLANE_ANGLE_UNIT()
SI_UNIT($,.RADIAN.)
);
#656=(
LENGTH_UNIT()
NAMED_UNIT(*)
SI_UNIT(.MILLI.,.METRE.)
);
ENDSEC;
END-ISO-10303-21;
