ISO-10303-21;
HEADER;
/* Generated by software containing ST-Developer
 * from STEP Tools, Inc. (www.steptools.com) 
 */
/* OPTION: using custom schema-name function */

FILE_DESCRIPTION(
/* description */ (''),
/* implementation_level */ '2;1');

FILE_NAME(
/* name */ 'DTM-1_2X13UNC-14R1.stp',
/* time_stamp */ '2017-09-14T08:51:21+05:00',
/* author */ (''),
/* organization */ (''),
/* preprocessor_version */ 'ST-DEVELOPER v16',
/* originating_system */ 'SIEMENS PLM Software NX 11.0',
/* authorisation */ '');

FILE_SCHEMA (('AUTOMOTIVE_DESIGN { 1 0 10303 214 3 1 1 1 }'));
ENDSEC;

DATA;
#10=CONSTRUCTIVE_GEOMETRY_REPRESENTATION_RELATIONSHIP(
'supplemental geometry','',#24,#11);
#11=CONSTRUCTIVE_GEOMETRY_REPRESENTATION('supplemental geometry',(#377,
#378,#379),#649);
#12=SHAPE_REPRESENTATION_RELATIONSHIP('None',
'relationship between DTM-1_2X13UNC-14R1-None and DTM-1_2X13UNC-14R1-N
one',#24,#13);
#13=ADVANCED_BREP_SHAPE_REPRESENTATION('DTM-1_2X13UNC-14R1-None',(#40,#41,
#42),#649);
#14=SHAPE_DEFINITION_REPRESENTATION(#15,#24);
#15=PRODUCT_DEFINITION_SHAPE('','',#16);
#16=PRODUCT_DEFINITION(' ','',#18,#17);
#17=PRODUCT_DEFINITION_CONTEXT('part definition',#23,'design');
#18=PRODUCT_DEFINITION_FORMATION_WITH_SPECIFIED_SOURCE(' ',' ',#20,
 .NOT_KNOWN.);
#19=PRODUCT_RELATED_PRODUCT_CATEGORY('part','',(#20));
#20=PRODUCT('DTM-1_2X13UNC-14R1','DTM-1_2X13UNC-14R1',' ',(#21));
#21=PRODUCT_CONTEXT(' ',#23,'mechanical');
#22=APPLICATION_PROTOCOL_DEFINITION('international standard',
'automotive_design',2010,#23);
#23=APPLICATION_CONTEXT(
'core data for automotive mechanical design processes');
#24=SHAPE_REPRESENTATION('DTM-1_2X13UNC-14R1-None',(#376),#649);
#25=SURFACE_STYLE_USAGE(.BOTH.,#28);
#26=SURFACE_STYLE_USAGE(.BOTH.,#29);
#27=SURFACE_STYLE_USAGE(.BOTH.,#30);
#28=SURFACE_SIDE_STYLE('',(#31));
#29=SURFACE_SIDE_STYLE('',(#32));
#30=SURFACE_SIDE_STYLE('',(#33));
#31=SURFACE_STYLE_FILL_AREA(#34);
#32=SURFACE_STYLE_FILL_AREA(#35);
#33=SURFACE_STYLE_FILL_AREA(#36);
#34=FILL_AREA_STYLE('',(#37));
#35=FILL_AREA_STYLE('',(#38));
#36=FILL_AREA_STYLE('',(#39));
#37=FILL_AREA_STYLE_COLOUR('',#371);
#38=FILL_AREA_STYLE_COLOUR('',#372);
#39=FILL_AREA_STYLE_COLOUR('',#372);
#40=MANIFOLD_SOLID_BREP('CUT',#43);
#41=MANIFOLD_SOLID_BREP('NOCUT',#44);
#42=MANIFOLD_SOLID_BREP('NOCUT',#45);
#43=CLOSED_SHELL('',(#63,#64,#65,#66,#67,#68,#69,#70,#71,#72,#73,#74,#75,
#76,#77,#78,#79,#80,#81));
#44=CLOSED_SHELL('',(#82,#83,#84,#85,#86,#87,#88));
#45=CLOSED_SHELL('',(#89,#90,#91,#92));
#46=PLANE('',#416);
#47=PLANE('',#423);
#48=PLANE('',#428);
#49=PLANE('',#429);
#50=PLANE('',#431);
#51=PLANE('',#433);
#52=FACE_OUTER_BOUND('',#197,.T.);
#53=FACE_OUTER_BOUND('',#208,.T.);
#54=FACE_OUTER_BOUND('',#209,.T.);
#55=FACE_OUTER_BOUND('',#210,.T.);
#56=FACE_OUTER_BOUND('',#211,.T.);
#57=VERTEX_LOOP('',#288);
#58=CYLINDRICAL_SURFACE('',#388,4.94);
#59=CYLINDRICAL_SURFACE('',#398,3.88);
#60=CYLINDRICAL_SURFACE('',#404,5.37);
#61=CYLINDRICAL_SURFACE('',#425,6.75);
#62=CYLINDRICAL_SURFACE('',#436,7.);
#63=ADVANCED_FACE('',(#112,#113),#93,.T.);
#64=ADVANCED_FACE('',(#114,#115),#94,.T.);
#65=ADVANCED_FACE('',(#116,#117),#95,.T.);
#66=ADVANCED_FACE('',(#118,#119),#58,.T.);
#67=ADVANCED_FACE('',(#120,#121),#96,.T.);
#68=ADVANCED_FACE('',(#122,#123),#97,.T.);
#69=ADVANCED_FACE('',(#124,#125),#98,.T.);
#70=ADVANCED_FACE('',(#126,#127),#99,.T.);
#71=ADVANCED_FACE('',(#128,#129),#59,.T.);
#72=ADVANCED_FACE('',(#130,#131),#100,.T.);
#73=ADVANCED_FACE('',(#132,#133),#101,.T.);
#74=ADVANCED_FACE('',(#134,#135),#60,.T.);
#75=ADVANCED_FACE('',(#136,#137),#102,.T.);
#76=ADVANCED_FACE('',(#138,#139),#103,.T.);
#77=ADVANCED_FACE('',(#140,#141),#104,.T.);
#78=ADVANCED_FACE('',(#142,#143),#105,.T.);
#79=ADVANCED_FACE('',(#144,#145),#106,.T.);
#80=ADVANCED_FACE('',(#146,#147),#107,.T.);
#81=ADVANCED_FACE('',(#52),#46,.T.);
#82=ADVANCED_FACE('',(#148,#149),#108,.T.);
#83=ADVANCED_FACE('',(#150,#151),#109,.T.);
#84=ADVANCED_FACE('',(#152,#153),#47,.F.);
#85=ADVANCED_FACE('',(#154,#155),#61,.T.);
#86=ADVANCED_FACE('',(#156,#157),#110,.T.);
#87=ADVANCED_FACE('',(#53),#48,.F.);
#88=ADVANCED_FACE('',(#54),#49,.F.);
#89=ADVANCED_FACE('',(#55),#50,.T.);
#90=ADVANCED_FACE('',(#56),#51,.F.);
#91=ADVANCED_FACE('',(#158,#159),#111,.T.);
#92=ADVANCED_FACE('',(#160,#161),#62,.T.);
#93=CONICAL_SURFACE('',#382,6.49999999999943,45.2546462322684);
#94=CONICAL_SURFACE('',#384,5.37,59.0362434679247);
#95=CONICAL_SURFACE('',#386,5.17000000000002,60.0183606311633);
#96=CONICAL_SURFACE('',#390,4.94,71.5650511770929);
#97=CONICAL_SURFACE('',#392,4.91000000000003,60.0183606311709);
#98=CONICAL_SURFACE('',#394,4.65000000000003,59.0362434679012);
#99=CONICAL_SURFACE('',#396,4.40000000000003,60.0183606311575);
#100=CONICAL_SURFACE('',#400,3.88,57.7243556854351);
#101=CONICAL_SURFACE('',#402,4.06999999999999,60.0183606311509);
#102=CONICAL_SURFACE('',#406,5.37,68.1985905136194);
#103=CONICAL_SURFACE('',#408,5.31999999999999,69.9047688080928);
#104=CONICAL_SURFACE('',#410,3.68000000000001,70.3461759419561);
#105=CONICAL_SURFACE('',#412,3.25999999999999,69.9047688080962);
#106=CONICAL_SURFACE('',#414,1.62000000000001,80.4170552764588);
#107=CONICAL_SURFACE('',#415,0.850000000000023,79.9920201985645);
#108=CONICAL_SURFACE('',#419,7.,26.5650511770128);
#109=CONICAL_SURFACE('',#421,6.9500000000001,25.0168934781452);
#110=CONICAL_SURFACE('',#427,6.75,45.0000000000198);
#111=CONICAL_SURFACE('',#435,6.5,45.);
#112=FACE_BOUND('',#162,.T.);
#113=FACE_BOUND('',#163,.T.);
#114=FACE_BOUND('',#164,.T.);
#115=FACE_BOUND('',#165,.T.);
#116=FACE_BOUND('',#166,.T.);
#117=FACE_BOUND('',#167,.T.);
#118=FACE_BOUND('',#168,.T.);
#119=FACE_BOUND('',#169,.T.);
#120=FACE_BOUND('',#170,.T.);
#121=FACE_BOUND('',#171,.T.);
#122=FACE_BOUND('',#172,.T.);
#123=FACE_BOUND('',#173,.T.);
#124=FACE_BOUND('',#174,.T.);
#125=FACE_BOUND('',#175,.T.);
#126=FACE_BOUND('',#176,.T.);
#127=FACE_BOUND('',#177,.T.);
#128=FACE_BOUND('',#178,.T.);
#129=FACE_BOUND('',#179,.T.);
#130=FACE_BOUND('',#180,.T.);
#131=FACE_BOUND('',#181,.T.);
#132=FACE_BOUND('',#182,.T.);
#133=FACE_BOUND('',#183,.T.);
#134=FACE_BOUND('',#184,.T.);
#135=FACE_BOUND('',#185,.T.);
#136=FACE_BOUND('',#186,.T.);
#137=FACE_BOUND('',#187,.T.);
#138=FACE_BOUND('',#188,.T.);
#139=FACE_BOUND('',#189,.T.);
#140=FACE_BOUND('',#190,.T.);
#141=FACE_BOUND('',#191,.T.);
#142=FACE_BOUND('',#192,.T.);
#143=FACE_BOUND('',#193,.T.);
#144=FACE_BOUND('',#194,.T.);
#145=FACE_BOUND('',#195,.T.);
#146=FACE_BOUND('',#57,.T.);
#147=FACE_BOUND('',#196,.T.);
#148=FACE_BOUND('',#198,.T.);
#149=FACE_BOUND('',#199,.T.);
#150=FACE_BOUND('',#200,.T.);
#151=FACE_BOUND('',#201,.T.);
#152=FACE_BOUND('',#202,.T.);
#153=FACE_BOUND('',#203,.T.);
#154=FACE_BOUND('',#204,.T.);
#155=FACE_BOUND('',#205,.T.);
#156=FACE_BOUND('',#206,.T.);
#157=FACE_BOUND('',#207,.T.);
#158=FACE_BOUND('',#212,.T.);
#159=FACE_BOUND('',#213,.T.);
#160=FACE_BOUND('',#214,.T.);
#161=FACE_BOUND('',#215,.T.);
#162=EDGE_LOOP('',(#216));
#163=EDGE_LOOP('',(#217));
#164=EDGE_LOOP('',(#218));
#165=EDGE_LOOP('',(#219));
#166=EDGE_LOOP('',(#220));
#167=EDGE_LOOP('',(#221));
#168=EDGE_LOOP('',(#222));
#169=EDGE_LOOP('',(#223));
#170=EDGE_LOOP('',(#224));
#171=EDGE_LOOP('',(#225));
#172=EDGE_LOOP('',(#226));
#173=EDGE_LOOP('',(#227));
#174=EDGE_LOOP('',(#228));
#175=EDGE_LOOP('',(#229));
#176=EDGE_LOOP('',(#230));
#177=EDGE_LOOP('',(#231));
#178=EDGE_LOOP('',(#232));
#179=EDGE_LOOP('',(#233));
#180=EDGE_LOOP('',(#234));
#181=EDGE_LOOP('',(#235));
#182=EDGE_LOOP('',(#236));
#183=EDGE_LOOP('',(#237));
#184=EDGE_LOOP('',(#238));
#185=EDGE_LOOP('',(#239));
#186=EDGE_LOOP('',(#240));
#187=EDGE_LOOP('',(#241));
#188=EDGE_LOOP('',(#242));
#189=EDGE_LOOP('',(#243));
#190=EDGE_LOOP('',(#244));
#191=EDGE_LOOP('',(#245));
#192=EDGE_LOOP('',(#246));
#193=EDGE_LOOP('',(#247));
#194=EDGE_LOOP('',(#248));
#195=EDGE_LOOP('',(#249));
#196=EDGE_LOOP('',(#250));
#197=EDGE_LOOP('',(#251));
#198=EDGE_LOOP('',(#252));
#199=EDGE_LOOP('',(#253));
#200=EDGE_LOOP('',(#254));
#201=EDGE_LOOP('',(#255));
#202=EDGE_LOOP('',(#256));
#203=EDGE_LOOP('',(#257));
#204=EDGE_LOOP('',(#258));
#205=EDGE_LOOP('',(#259));
#206=EDGE_LOOP('',(#260));
#207=EDGE_LOOP('',(#261));
#208=EDGE_LOOP('',(#262));
#209=EDGE_LOOP('',(#263));
#210=EDGE_LOOP('',(#264));
#211=EDGE_LOOP('',(#265));
#212=EDGE_LOOP('',(#266));
#213=EDGE_LOOP('',(#267));
#214=EDGE_LOOP('',(#268));
#215=EDGE_LOOP('',(#269));
#216=ORIENTED_EDGE('',*,*,#298,.F.);
#217=ORIENTED_EDGE('',*,*,#299,.F.);
#218=ORIENTED_EDGE('',*,*,#300,.F.);
#219=ORIENTED_EDGE('',*,*,#298,.T.);
#220=ORIENTED_EDGE('',*,*,#301,.F.);
#221=ORIENTED_EDGE('',*,*,#300,.T.);
#222=ORIENTED_EDGE('',*,*,#302,.F.);
#223=ORIENTED_EDGE('',*,*,#301,.T.);
#224=ORIENTED_EDGE('',*,*,#303,.F.);
#225=ORIENTED_EDGE('',*,*,#302,.T.);
#226=ORIENTED_EDGE('',*,*,#304,.F.);
#227=ORIENTED_EDGE('',*,*,#303,.T.);
#228=ORIENTED_EDGE('',*,*,#305,.F.);
#229=ORIENTED_EDGE('',*,*,#304,.T.);
#230=ORIENTED_EDGE('',*,*,#306,.F.);
#231=ORIENTED_EDGE('',*,*,#305,.T.);
#232=ORIENTED_EDGE('',*,*,#307,.F.);
#233=ORIENTED_EDGE('',*,*,#306,.T.);
#234=ORIENTED_EDGE('',*,*,#308,.F.);
#235=ORIENTED_EDGE('',*,*,#307,.T.);
#236=ORIENTED_EDGE('',*,*,#309,.F.);
#237=ORIENTED_EDGE('',*,*,#308,.T.);
#238=ORIENTED_EDGE('',*,*,#310,.F.);
#239=ORIENTED_EDGE('',*,*,#309,.T.);
#240=ORIENTED_EDGE('',*,*,#311,.F.);
#241=ORIENTED_EDGE('',*,*,#310,.T.);
#242=ORIENTED_EDGE('',*,*,#312,.F.);
#243=ORIENTED_EDGE('',*,*,#311,.T.);
#244=ORIENTED_EDGE('',*,*,#313,.F.);
#245=ORIENTED_EDGE('',*,*,#312,.T.);
#246=ORIENTED_EDGE('',*,*,#314,.F.);
#247=ORIENTED_EDGE('',*,*,#313,.T.);
#248=ORIENTED_EDGE('',*,*,#315,.F.);
#249=ORIENTED_EDGE('',*,*,#314,.T.);
#250=ORIENTED_EDGE('',*,*,#315,.T.);
#251=ORIENTED_EDGE('',*,*,#299,.T.);
#252=ORIENTED_EDGE('',*,*,#316,.F.);
#253=ORIENTED_EDGE('',*,*,#317,.T.);
#254=ORIENTED_EDGE('',*,*,#318,.F.);
#255=ORIENTED_EDGE('',*,*,#316,.T.);
#256=ORIENTED_EDGE('',*,*,#319,.F.);
#257=ORIENTED_EDGE('',*,*,#318,.T.);
#258=ORIENTED_EDGE('',*,*,#320,.F.);
#259=ORIENTED_EDGE('',*,*,#319,.T.);
#260=ORIENTED_EDGE('',*,*,#321,.T.);
#261=ORIENTED_EDGE('',*,*,#320,.T.);
#262=ORIENTED_EDGE('',*,*,#321,.F.);
#263=ORIENTED_EDGE('',*,*,#317,.F.);
#264=ORIENTED_EDGE('',*,*,#322,.T.);
#265=ORIENTED_EDGE('',*,*,#323,.F.);
#266=ORIENTED_EDGE('',*,*,#324,.F.);
#267=ORIENTED_EDGE('',*,*,#323,.T.);
#268=ORIENTED_EDGE('',*,*,#322,.F.);
#269=ORIENTED_EDGE('',*,*,#324,.T.);
#270=VERTEX_POINT('',#564);
#271=VERTEX_POINT('',#566);
#272=VERTEX_POINT('',#569);
#273=VERTEX_POINT('',#572);
#274=VERTEX_POINT('',#575);
#275=VERTEX_POINT('',#578);
#276=VERTEX_POINT('',#581);
#277=VERTEX_POINT('',#584);
#278=VERTEX_POINT('',#587);
#279=VERTEX_POINT('',#590);
#280=VERTEX_POINT('',#593);
#281=VERTEX_POINT('',#596);
#282=VERTEX_POINT('',#599);
#283=VERTEX_POINT('',#602);
#284=VERTEX_POINT('',#605);
#285=VERTEX_POINT('',#608);
#286=VERTEX_POINT('',#611);
#287=VERTEX_POINT('',#614);
#288=VERTEX_POINT('',#616);
#289=VERTEX_POINT('',#620);
#290=VERTEX_POINT('',#622);
#291=VERTEX_POINT('',#625);
#292=VERTEX_POINT('',#628);
#293=VERTEX_POINT('',#631);
#294=VERTEX_POINT('',#634);
#295=VERTEX_POINT('',#639);
#296=VERTEX_POINT('',#642);
#297=VERTEX_POINT('',#645);
#298=EDGE_CURVE('',#270,#270,#325,.T.);
#299=EDGE_CURVE('',#271,#271,#326,.T.);
#300=EDGE_CURVE('',#272,#272,#327,.T.);
#301=EDGE_CURVE('',#273,#273,#328,.T.);
#302=EDGE_CURVE('',#274,#274,#329,.T.);
#303=EDGE_CURVE('',#275,#275,#330,.T.);
#304=EDGE_CURVE('',#276,#276,#331,.T.);
#305=EDGE_CURVE('',#277,#277,#332,.T.);
#306=EDGE_CURVE('',#278,#278,#333,.T.);
#307=EDGE_CURVE('',#279,#279,#334,.T.);
#308=EDGE_CURVE('',#280,#280,#335,.T.);
#309=EDGE_CURVE('',#281,#281,#336,.T.);
#310=EDGE_CURVE('',#282,#282,#337,.T.);
#311=EDGE_CURVE('',#283,#283,#338,.T.);
#312=EDGE_CURVE('',#284,#284,#339,.T.);
#313=EDGE_CURVE('',#285,#285,#340,.T.);
#314=EDGE_CURVE('',#286,#286,#341,.T.);
#315=EDGE_CURVE('',#287,#287,#342,.T.);
#316=EDGE_CURVE('',#289,#289,#343,.T.);
#317=EDGE_CURVE('',#290,#290,#344,.T.);
#318=EDGE_CURVE('',#291,#291,#345,.T.);
#319=EDGE_CURVE('',#292,#292,#346,.T.);
#320=EDGE_CURVE('',#293,#293,#347,.T.);
#321=EDGE_CURVE('',#294,#294,#348,.T.);
#322=EDGE_CURVE('',#295,#295,#349,.T.);
#323=EDGE_CURVE('',#296,#296,#350,.T.);
#324=EDGE_CURVE('',#297,#297,#351,.T.);
#325=CIRCLE('',#380,5.37);
#326=CIRCLE('',#381,6.49999999999984);
#327=CIRCLE('',#383,5.17000000000002);
#328=CIRCLE('',#385,4.94);
#329=CIRCLE('',#387,4.94);
#330=CIRCLE('',#389,4.91000000000003);
#331=CIRCLE('',#391,4.65000000000003);
#332=CIRCLE('',#393,4.40000000000003);
#333=CIRCLE('',#395,3.88);
#334=CIRCLE('',#397,3.88);
#335=CIRCLE('',#399,4.06999999999999);
#336=CIRCLE('',#401,5.37);
#337=CIRCLE('',#403,5.37);
#338=CIRCLE('',#405,5.31999999999999);
#339=CIRCLE('',#407,3.68000000000001);
#340=CIRCLE('',#409,3.25999999999999);
#341=CIRCLE('',#411,1.62000000000001);
#342=CIRCLE('',#413,0.850000000000023);
#343=CIRCLE('',#417,6.9500000000001);
#344=CIRCLE('',#418,7.00000000000003);
#345=CIRCLE('',#420,6.88);
#346=CIRCLE('',#422,6.75);
#347=CIRCLE('',#424,6.75);
#348=CIRCLE('',#426,6.49999999999984);
#349=CIRCLE('',#430,7.);
#350=CIRCLE('',#432,6.5);
#351=CIRCLE('',#434,7.);
#352=PRESENTATION_LAYER_ASSIGNMENT('1','Layer 1',(#377,#378,#379,#42));
#353=PRESENTATION_LAYER_ASSIGNMENT('3','Layer 3',(#40));
#354=PRESENTATION_LAYER_ASSIGNMENT('2','Layer 2',(#41));
#355=STYLED_ITEM('',(#361),#377);
#356=STYLED_ITEM('',(#362),#378);
#357=STYLED_ITEM('',(#363),#379);
#358=STYLED_ITEM('',(#364),#40);
#359=STYLED_ITEM('',(#365),#41);
#360=STYLED_ITEM('',(#366),#42);
#361=PRESENTATION_STYLE_ASSIGNMENT((#367));
#362=PRESENTATION_STYLE_ASSIGNMENT((#368));
#363=PRESENTATION_STYLE_ASSIGNMENT((#369));
#364=PRESENTATION_STYLE_ASSIGNMENT((#25));
#365=PRESENTATION_STYLE_ASSIGNMENT((#26));
#366=PRESENTATION_STYLE_ASSIGNMENT((#27));
#367=CURVE_STYLE('',#373,POSITIVE_LENGTH_MEASURE(0.18),#370);
#368=CURVE_STYLE('',#374,POSITIVE_LENGTH_MEASURE(0.18),#370);
#369=CURVE_STYLE('',#375,POSITIVE_LENGTH_MEASURE(0.18),#370);
#370=COLOUR_RGB('Medium Maroon',0.6,0.4,0.4);
#371=COLOUR_RGB('Light Gray',0.8,0.8,0.8);
#372=COLOUR_RGB('Medium Gray',0.490196078431373,0.490196078431373,0.490196078431373);
#373=DRAUGHTING_PRE_DEFINED_CURVE_FONT('continuous');
#374=DRAUGHTING_PRE_DEFINED_CURVE_FONT('continuous');
#375=DRAUGHTING_PRE_DEFINED_CURVE_FONT('continuous');
#376=AXIS2_PLACEMENT_3D('',#559,#437,#438);
#377=AXIS2_PLACEMENT_3D('MCS',#560,#439,#440);
#378=AXIS2_PLACEMENT_3D('PCS',#561,#441,#442);
#379=AXIS2_PLACEMENT_3D('CIP',#562,#443,#444);
#380=AXIS2_PLACEMENT_3D('',#563,#445,#446);
#381=AXIS2_PLACEMENT_3D('',#565,#447,#448);
#382=AXIS2_PLACEMENT_3D('',#567,#449,#450);
#383=AXIS2_PLACEMENT_3D('',#568,#451,#452);
#384=AXIS2_PLACEMENT_3D('',#570,#453,#454);
#385=AXIS2_PLACEMENT_3D('',#571,#455,#456);
#386=AXIS2_PLACEMENT_3D('',#573,#457,#458);
#387=AXIS2_PLACEMENT_3D('',#574,#459,#460);
#388=AXIS2_PLACEMENT_3D('',#576,#461,#462);
#389=AXIS2_PLACEMENT_3D('',#577,#463,#464);
#390=AXIS2_PLACEMENT_3D('',#579,#465,#466);
#391=AXIS2_PLACEMENT_3D('',#580,#467,#468);
#392=AXIS2_PLACEMENT_3D('',#582,#469,#470);
#393=AXIS2_PLACEMENT_3D('',#583,#471,#472);
#394=AXIS2_PLACEMENT_3D('',#585,#473,#474);
#395=AXIS2_PLACEMENT_3D('',#586,#475,#476);
#396=AXIS2_PLACEMENT_3D('',#588,#477,#478);
#397=AXIS2_PLACEMENT_3D('',#589,#479,#480);
#398=AXIS2_PLACEMENT_3D('',#591,#481,#482);
#399=AXIS2_PLACEMENT_3D('',#592,#483,#484);
#400=AXIS2_PLACEMENT_3D('',#594,#485,#486);
#401=AXIS2_PLACEMENT_3D('',#595,#487,#488);
#402=AXIS2_PLACEMENT_3D('',#597,#489,#490);
#403=AXIS2_PLACEMENT_3D('',#598,#491,#492);
#404=AXIS2_PLACEMENT_3D('',#600,#493,#494);
#405=AXIS2_PLACEMENT_3D('',#601,#495,#496);
#406=AXIS2_PLACEMENT_3D('',#603,#497,#498);
#407=AXIS2_PLACEMENT_3D('',#604,#499,#500);
#408=AXIS2_PLACEMENT_3D('',#606,#501,#502);
#409=AXIS2_PLACEMENT_3D('',#607,#503,#504);
#410=AXIS2_PLACEMENT_3D('',#609,#505,#506);
#411=AXIS2_PLACEMENT_3D('',#610,#507,#508);
#412=AXIS2_PLACEMENT_3D('',#612,#509,#510);
#413=AXIS2_PLACEMENT_3D('',#613,#511,#512);
#414=AXIS2_PLACEMENT_3D('',#615,#513,#514);
#415=AXIS2_PLACEMENT_3D('',#617,#515,#516);
#416=AXIS2_PLACEMENT_3D('',#618,#517,#518);
#417=AXIS2_PLACEMENT_3D('',#619,#519,#520);
#418=AXIS2_PLACEMENT_3D('',#621,#521,#522);
#419=AXIS2_PLACEMENT_3D('',#623,#523,#524);
#420=AXIS2_PLACEMENT_3D('',#624,#525,#526);
#421=AXIS2_PLACEMENT_3D('',#626,#527,#528);
#422=AXIS2_PLACEMENT_3D('',#627,#529,#530);
#423=AXIS2_PLACEMENT_3D('',#629,#531,#532);
#424=AXIS2_PLACEMENT_3D('',#630,#533,#534);
#425=AXIS2_PLACEMENT_3D('',#632,#535,#536);
#426=AXIS2_PLACEMENT_3D('',#633,#537,#538);
#427=AXIS2_PLACEMENT_3D('',#635,#539,#540);
#428=AXIS2_PLACEMENT_3D('',#636,#541,#542);
#429=AXIS2_PLACEMENT_3D('',#637,#543,#544);
#430=AXIS2_PLACEMENT_3D('',#638,#545,#546);
#431=AXIS2_PLACEMENT_3D('',#640,#547,#548);
#432=AXIS2_PLACEMENT_3D('',#641,#549,#550);
#433=AXIS2_PLACEMENT_3D('',#643,#551,#552);
#434=AXIS2_PLACEMENT_3D('',#644,#553,#554);
#435=AXIS2_PLACEMENT_3D('',#646,#555,#556);
#436=AXIS2_PLACEMENT_3D('',#647,#557,#558);
#437=DIRECTION('',(0.,0.,1.));
#438=DIRECTION('',(1.,0.,0.));
#439=DIRECTION('',(0.,0.,1.));
#440=DIRECTION('',(1.,0.,0.));
#441=DIRECTION('',(0.,0.,1.));
#442=DIRECTION('',(1.,0.,0.));
#443=DIRECTION('',(0.,0.,1.));
#444=DIRECTION('',(1.,0.,0.));
#445=DIRECTION('',(0.,0.,-1.));
#446=DIRECTION('',(-1.,0.,0.));
#447=DIRECTION('',(0.,0.,1.));
#448=DIRECTION('',(1.,0.,0.));
#449=DIRECTION('',(0.,0.,1.));
#450=DIRECTION('',(-1.,0.,-5.12509749514893E-17));
#451=DIRECTION('',(0.,0.,-1.));
#452=DIRECTION('',(-1.,0.,0.));
#453=DIRECTION('',(0.,0.,1.));
#454=DIRECTION('',(-1.,0.,-1.14124041751953E-17));
#455=DIRECTION('',(0.,0.,-1.));
#456=DIRECTION('',(-1.,0.,0.));
#457=DIRECTION('',(0.,0.,1.));
#458=DIRECTION('',(-1.,0.,-1.5965212768616E-17));
#459=DIRECTION('',(0.,0.,-1.));
#460=DIRECTION('',(-1.,0.,0.));
#461=DIRECTION('',(0.,0.,-1.));
#462=DIRECTION('',(1.,0.,0.));
#463=DIRECTION('',(0.,0.,-1.));
#464=DIRECTION('',(-1.,0.,0.));
#465=DIRECTION('',(0.,0.,1.));
#466=DIRECTION('',(-1.,0.,-4.61832442837542E-18));
#467=DIRECTION('',(0.,0.,-1.));
#468=DIRECTION('',(-1.,0.,0.));
#469=DIRECTION('',(0.,0.,1.));
#470=DIRECTION('',(-1.,0.,1.59676007860079E-17));
#471=DIRECTION('',(0.,0.,-1.));
#472=DIRECTION('',(-1.,0.,0.));
#473=DIRECTION('',(0.,0.,1.));
#474=DIRECTION('',(-1.,0.,-2.90622706612944E-17));
#475=DIRECTION('',(0.,0.,-1.));
#476=DIRECTION('',(-1.,0.,0.));
#477=DIRECTION('',(0.,0.,1.));
#478=DIRECTION('',(-1.,0.,-2.79515023367628E-17));
#479=DIRECTION('',(0.,0.,-1.));
#480=DIRECTION('',(-1.,0.,0.));
#481=DIRECTION('',(0.,0.,-1.));
#482=DIRECTION('',(1.,0.,0.));
#483=DIRECTION('',(0.,0.,-1.));
#484=DIRECTION('',(-1.,0.,0.));
#485=DIRECTION('',(0.,0.,-1.));
#486=DIRECTION('',(1.,0.,-1.31152386856491E-17));
#487=DIRECTION('',(0.,0.,-1.));
#488=DIRECTION('',(-1.,0.,0.));
#489=DIRECTION('',(0.,0.,-1.));
#490=DIRECTION('',(1.,0.,-1.19814906028661E-17));
#491=DIRECTION('',(0.,0.,-1.));
#492=DIRECTION('',(-1.,0.,0.));
#493=DIRECTION('',(0.,0.,-1.));
#494=DIRECTION('',(1.,0.,0.));
#495=DIRECTION('',(0.,0.,-1.));
#496=DIRECTION('',(-1.,0.,0.));
#497=DIRECTION('',(0.,0.,1.));
#498=DIRECTION('',(-1.,0.,2.76960844263215E-18));
#499=DIRECTION('',(0.,0.,-1.));
#500=DIRECTION('',(-1.,0.,0.));
#501=DIRECTION('',(0.,0.,1.));
#502=DIRECTION('',(-1.,0.,-1.26684414917577E-17));
#503=DIRECTION('',(0.,0.,-1.));
#504=DIRECTION('',(-1.,0.,0.));
#505=DIRECTION('',(0.,0.,1.));
#506=DIRECTION('',(-1.,0.,1.23746181873531E-17));
#507=DIRECTION('',(0.,0.,-1.));
#508=DIRECTION('',(-1.,0.,0.));
#509=DIRECTION('',(0.,0.,1.));
#510=DIRECTION('',(-1.,0.,1.77491689158594E-17));
#511=DIRECTION('',(0.,0.,-1.));
#512=DIRECTION('',(-1.,0.,0.));
#513=DIRECTION('',(0.,0.,1.));
#514=DIRECTION('',(-1.,0.,3.51354372755491E-18));
#515=DIRECTION('',(0.,0.,1.));
#516=DIRECTION('',(-1.,0.,8.57028927907667E-18));
#517=DIRECTION('',(0.,0.,1.));
#518=DIRECTION('',(-1.,0.,0.));
#519=DIRECTION('',(0.,0.,-1.));
#520=DIRECTION('',(-1.,0.,0.));
#521=DIRECTION('',(0.,0.,-1.));
#522=DIRECTION('',(-1.,0.,0.));
#523=DIRECTION('',(0.,0.,1.));
#524=DIRECTION('',(-1.,0.,1.09489450160579E-16));
#525=DIRECTION('',(0.,0.,-1.));
#526=DIRECTION('',(-1.,0.,0.));
#527=DIRECTION('',(0.,0.,1.));
#528=DIRECTION('',(-1.,0.,7.38838549816632E-17));
#529=DIRECTION('',(0.,0.,-1.));
#530=DIRECTION('',(-1.,0.,0.));
#531=DIRECTION('',(0.,0.,1.));
#532=DIRECTION('',(-1.,0.,0.));
#533=DIRECTION('',(0.,0.,-1.));
#534=DIRECTION('',(-1.,0.,0.));
#535=DIRECTION('',(0.,0.,-1.));
#536=DIRECTION('',(1.,0.,0.));
#537=DIRECTION('',(0.,0.,1.));
#538=DIRECTION('',(1.,0.,0.));
#539=DIRECTION('',(0.,0.,1.));
#540=DIRECTION('',(-1.,0.,-3.61849446193076E-17));
#541=DIRECTION('',(0.,0.,1.));
#542=DIRECTION('',(-1.,0.,0.));
#543=DIRECTION('',(0.,0.,-1.));
#544=DIRECTION('',(1.,0.,0.));
#545=DIRECTION('',(0.,0.,-1.));
#546=DIRECTION('',(-1.,0.,0.));
#547=DIRECTION('',(0.,0.,-1.));
#548=DIRECTION('',(1.,0.,0.));
#549=DIRECTION('',(0.,0.,-1.));
#550=DIRECTION('',(-1.,0.,0.));
#551=DIRECTION('',(0.,0.,-1.));
#552=DIRECTION('',(1.,0.,0.));
#553=DIRECTION('',(0.,0.,-1.));
#554=DIRECTION('',(-1.,0.,0.));
#555=DIRECTION('',(0.,0.,-1.));
#556=DIRECTION('',(1.,0.,4.13644942110714E-17));
#557=DIRECTION('',(0.,0.,-1.));
#558=DIRECTION('',(1.,0.,0.));
#559=CARTESIAN_POINT('',(0.,0.,0.));
#560=CARTESIAN_POINT('',(0.,0.,0.));
#561=CARTESIAN_POINT('',(0.,0.,45.));
#562=CARTESIAN_POINT('',(0.,0.,-44.));
#563=CARTESIAN_POINT('',(0.,0.,-15.0500000000001));
#564=CARTESIAN_POINT('',(-5.37,0.,-15.0500000000001));
#565=CARTESIAN_POINT('',(0.,0.,-13.9300000000001));
#566=CARTESIAN_POINT('',(6.49999999999984,0.,-13.9300000000001));
#567=CARTESIAN_POINT('',(0.,0.,-13.9300000000005));
#568=CARTESIAN_POINT('',(0.,0.,-15.1700000000001));
#569=CARTESIAN_POINT('',(-5.17000000000002,0.,-15.1700000000001));
#570=CARTESIAN_POINT('',(0.,0.,-15.0500000000001));
#571=CARTESIAN_POINT('',(0.,0.,-15.3026923076923));
#572=CARTESIAN_POINT('',(-4.94,0.,-15.3026923076923));
#573=CARTESIAN_POINT('',(0.,0.,-15.1700000000001));
#574=CARTESIAN_POINT('',(0.,0.,-38.8600000000001));
#575=CARTESIAN_POINT('',(-4.94,0.,-38.8600000000001));
#576=CARTESIAN_POINT('',(0.,0.,45.));
#577=CARTESIAN_POINT('',(0.,0.,-38.8700000000001));
#578=CARTESIAN_POINT('',(-4.91000000000003,0.,-38.8700000000001));
#579=CARTESIAN_POINT('',(0.,0.,-38.8600000000001));
#580=CARTESIAN_POINT('',(0.,0.,-39.0199999999999));
#581=CARTESIAN_POINT('',(-4.65000000000003,0.,-39.0199999999999));
#582=CARTESIAN_POINT('',(0.,0.,-38.8700000000001));
#583=CARTESIAN_POINT('',(0.,0.,-39.1700000000001));
#584=CARTESIAN_POINT('',(-4.40000000000003,0.,-39.1700000000001));
#585=CARTESIAN_POINT('',(0.,0.,-39.0199999999999));
#586=CARTESIAN_POINT('',(0.,0.,-39.47));
#587=CARTESIAN_POINT('',(-3.88,0.,-39.47));
#588=CARTESIAN_POINT('',(0.,0.,-39.1700000000001));
#589=CARTESIAN_POINT('',(0.,0.,-39.9800000000001));
#590=CARTESIAN_POINT('',(-3.88,0.,-39.9800000000001));
#591=CARTESIAN_POINT('',(0.,0.,45.));
#592=CARTESIAN_POINT('',(0.,0.,-40.1));
#593=CARTESIAN_POINT('',(-4.06999999999999,0.,-40.1));
#594=CARTESIAN_POINT('',(0.,0.,-39.9800000000001));
#595=CARTESIAN_POINT('',(0.,0.,-40.85));
#596=CARTESIAN_POINT('',(-5.37,0.,-40.85));
#597=CARTESIAN_POINT('',(0.,0.,-40.1));
#598=CARTESIAN_POINT('',(0.,0.,-42.35));
#599=CARTESIAN_POINT('',(-5.37,0.,-42.35));
#600=CARTESIAN_POINT('',(0.,0.,45.));
#601=CARTESIAN_POINT('',(0.,0.,-42.3700000000001));
#602=CARTESIAN_POINT('',(-5.31999999999999,0.,-42.3700000000001));
#603=CARTESIAN_POINT('',(0.,0.,-42.35));
#604=CARTESIAN_POINT('',(0.,0.,-42.9700000000001));
#605=CARTESIAN_POINT('',(-3.68000000000001,0.,-42.9700000000001));
#606=CARTESIAN_POINT('',(0.,0.,-42.3700000000001));
#607=CARTESIAN_POINT('',(0.,0.,-43.1200000000001));
#608=CARTESIAN_POINT('',(-3.25999999999999,0.,-43.1200000000001));
#609=CARTESIAN_POINT('',(0.,0.,-42.9700000000001));
#610=CARTESIAN_POINT('',(0.,0.,-43.72));
#611=CARTESIAN_POINT('',(-1.62000000000001,0.,-43.72));
#612=CARTESIAN_POINT('',(0.,0.,-43.1200000000001));
#613=CARTESIAN_POINT('',(0.,0.,-43.8500000000001));
#614=CARTESIAN_POINT('',(-0.850000000000023,0.,-43.8500000000001));
#615=CARTESIAN_POINT('',(0.,0.,-43.72));
#616=CARTESIAN_POINT('',(0.,0.,-44.0000000000001));
#617=CARTESIAN_POINT('',(0.,0.,-43.8500000000001));
#618=CARTESIAN_POINT('',(0.,0.,-13.9300000000001));
#619=CARTESIAN_POINT('',(0.,0.,-0.100000000000135));
#620=CARTESIAN_POINT('',(-6.9500000000001,0.,-0.100000000000135));
#621=CARTESIAN_POINT('',(0.,0.,0.));
#622=CARTESIAN_POINT('',(-7.00000000000003,0.,0.));
#623=CARTESIAN_POINT('',(0.,0.,-5.55111512312578E-14));
#624=CARTESIAN_POINT('',(0.,0.,-0.250000000000056));
#625=CARTESIAN_POINT('',(-6.88,0.,-0.250000000000056));
#626=CARTESIAN_POINT('',(0.,0.,-0.100000000000135));
#627=CARTESIAN_POINT('',(0.,0.,-0.250000000000174));
#628=CARTESIAN_POINT('',(-6.75,0.,-0.250000000000174));
#629=CARTESIAN_POINT('',(0.,6.88,-0.250000000000114));
#630=CARTESIAN_POINT('',(0.,0.,-13.6800000000001));
#631=CARTESIAN_POINT('',(-6.75,0.,-13.6800000000001));
#632=CARTESIAN_POINT('',(0.,0.,45.));
#633=CARTESIAN_POINT('',(0.,0.,-13.9300000000001));
#634=CARTESIAN_POINT('',(6.49999999999984,0.,-13.9300000000001));
#635=CARTESIAN_POINT('',(0.,0.,-13.6800000000001));
#636=CARTESIAN_POINT('',(0.,0.,-13.9300000000001));
#637=CARTESIAN_POINT('',(0.,0.,0.));
#638=CARTESIAN_POINT('',(0.,0.,-5.55111512312578E-14));
#639=CARTESIAN_POINT('',(-7.,0.,-5.55111512312578E-14));
#640=CARTESIAN_POINT('',(0.,0.,0.));
#641=CARTESIAN_POINT('',(0.,0.,45.));
#642=CARTESIAN_POINT('',(-6.5,0.,45.));
#643=CARTESIAN_POINT('',(0.,0.,45.));
#644=CARTESIAN_POINT('',(0.,0.,44.5));
#645=CARTESIAN_POINT('',(-7.,0.,44.5));
#646=CARTESIAN_POINT('',(0.,0.,45.));
#647=CARTESIAN_POINT('',(0.,0.,45.));
#648=MECHANICAL_DESIGN_GEOMETRIC_PRESENTATION_REPRESENTATION('',(#355,#356,
#357,#358,#359,#360),#649);
#649=(
GEOMETRIC_REPRESENTATION_CONTEXT(3)
GLOBAL_UNCERTAINTY_ASSIGNED_CONTEXT((#650))
GLOBAL_UNIT_ASSIGNED_CONTEXT((#656,#652,#651))
REPRESENTATION_CONTEXT('DTM-1_2X13UNC-14R1','TOP_LEVEL_ASSEMBLY_PART')
);
#650=UNCERTAINTY_MEASURE_WITH_UNIT(LENGTH_MEASURE(2.E-5),#656,
'DISTANCE_ACCURACY_VALUE','Maximum Tolerance applied to model');
#651=(
NAMED_UNIT(*)
SI_UNIT($,.STERADIAN.)
SOLID_ANGLE_UNIT()
);
#652=(
CONVERSION_BASED_UNIT('DEGREE',#654)
NAMED_UNIT(#653)
PLANE_ANGLE_UNIT()
);
#653=DIMENSIONAL_EXPONENTS(0.,0.,0.,0.,0.,0.,0.);
#654=PLANE_ANGLE_MEASURE_WITH_UNIT(PLANE_ANGLE_MEASURE(0.0174532925),#655);
#655=(
NAMED_UNIT(*)
PLANE_ANGLE_UNIT()
SI_UNIT($,.RADIAN.)
);
#656=(
LENGTH_UNIT()
NAMED_UNIT(*)
SI_UNIT(.MILLI.,.METRE.)
);
ENDSEC;
END-ISO-10303-21;
