ISO-10303-21;
HEADER;
/* Generated by software containing ST-Developer
 * from STEP Tools, Inc. (www.steptools.com) 
 */
/* OPTION: using custom schema-name function */

FILE_DESCRIPTION(
/* description */ (''),
/* implementation_level */ '2;1');

FILE_NAME(
/* name */ '31999-MEGAW.stp',
/* time_stamp */ '2017-12-13T13:51:23+05:00',
/* author */ (''),
/* organization */ (''),
/* preprocessor_version */ 'ST-DEVELOPER v16',
/* originating_system */ 'SIEMENS PLM Software NX 11.0',
/* authorisation */ '');

FILE_SCHEMA (('AUTOMOTIVE_DESIGN { 1 0 10303 214 3 1 1 1 }'));
ENDSEC;

DATA;
#10=CONSTRUCTIVE_GEOMETRY_REPRESENTATION_RELATIONSHIP(
'supplemental geometry','',#32,#11);
#11=CONSTRUCTIVE_GEOMETRY_REPRESENTATION('supplemental geometry',(#189,
#190,#191,#192),#302);
#12=PROPERTY_DEFINITION_REPRESENTATION(#16,#14);
#13=PROPERTY_DEFINITION_REPRESENTATION(#17,#15);
#14=REPRESENTATION('',(#18),#302);
#15=REPRESENTATION('',(#19),#302);
#16=PROPERTY_DEFINITION('pmi validation property','',#23);
#17=PROPERTY_DEFINITION('pmi validation property','',#23);
#18=VALUE_REPRESENTATION_ITEM('number of annotations',COUNT_MEASURE(0.));
#19=VALUE_REPRESENTATION_ITEM('number of views',COUNT_MEASURE(0.));
#20=SHAPE_REPRESENTATION_RELATIONSHIP('None',
'relationship between 31999-MEGAW-None and 31999-MEGAW-None',#32,#21);
#21=ADVANCED_BREP_SHAPE_REPRESENTATION('31999-MEGAW-None',(#48,#49,#50),
#302);
#22=SHAPE_DEFINITION_REPRESENTATION(#23,#32);
#23=PRODUCT_DEFINITION_SHAPE('','',#24);
#24=PRODUCT_DEFINITION(' ','',#26,#25);
#25=PRODUCT_DEFINITION_CONTEXT('part definition',#31,'design');
#26=PRODUCT_DEFINITION_FORMATION_WITH_SPECIFIED_SOURCE(' ',' ',#28,
 .NOT_KNOWN.);
#27=PRODUCT_RELATED_PRODUCT_CATEGORY('part','',(#28));
#28=PRODUCT('31999-MEGAW','31999-MEGAW',' ',(#29));
#29=PRODUCT_CONTEXT(' ',#31,'mechanical');
#30=APPLICATION_PROTOCOL_DEFINITION('international standard',
'automotive_design',2010,#31);
#31=APPLICATION_CONTEXT(
'core data for automotive mechanical design processes');
#32=SHAPE_REPRESENTATION('31999-MEGAW-None',(#188),#302);
#33=SURFACE_STYLE_USAGE(.BOTH.,#36);
#34=SURFACE_STYLE_USAGE(.BOTH.,#37);
#35=SURFACE_STYLE_USAGE(.BOTH.,#38);
#36=SURFACE_SIDE_STYLE('',(#39));
#37=SURFACE_SIDE_STYLE('',(#40));
#38=SURFACE_SIDE_STYLE('',(#41));
#39=SURFACE_STYLE_FILL_AREA(#42);
#40=SURFACE_STYLE_FILL_AREA(#43);
#41=SURFACE_STYLE_FILL_AREA(#44);
#42=FILL_AREA_STYLE('',(#45));
#43=FILL_AREA_STYLE('',(#46));
#44=FILL_AREA_STYLE('',(#47));
#45=FILL_AREA_STYLE_COLOUR('',#182);
#46=FILL_AREA_STYLE_COLOUR('',#183);
#47=FILL_AREA_STYLE_COLOUR('',#182);
#48=MANIFOLD_SOLID_BREP('NOCUT',#51);
#49=MANIFOLD_SOLID_BREP('CUT',#52);
#50=MANIFOLD_SOLID_BREP('NOCUT',#53);
#51=CLOSED_SHELL('',(#70,#71,#72,#73,#74));
#52=CLOSED_SHELL('',(#75,#76,#77));
#53=CLOSED_SHELL('',(#78,#79,#80,#81));
#54=PLANE('',#200);
#55=PLANE('',#201);
#56=PLANE('',#203);
#57=PLANE('',#206);
#58=PLANE('',#210);
#59=PLANE('',#212);
#60=FACE_OUTER_BOUND('',#102,.T.);
#61=FACE_OUTER_BOUND('',#103,.T.);
#62=FACE_OUTER_BOUND('',#104,.T.);
#63=FACE_OUTER_BOUND('',#107,.T.);
#64=FACE_OUTER_BOUND('',#110,.T.);
#65=FACE_OUTER_BOUND('',#111,.T.);
#66=CYLINDRICAL_SURFACE('',#199,14.0000000000001);
#67=CYLINDRICAL_SURFACE('',#209,12.5000000000001);
#68=CONICAL_SURFACE('',#197,14.0000000000001,45.0000000000011);
#69=CONICAL_SURFACE('',#213,12.5,45.0000000000001);
#70=ADVANCED_FACE('',(#84,#85),#82,.F.);
#71=ADVANCED_FACE('',(#86,#87),#68,.T.);
#72=ADVANCED_FACE('',(#88,#89),#66,.T.);
#73=ADVANCED_FACE('',(#60),#54,.F.);
#74=ADVANCED_FACE('',(#61),#55,.T.);
#75=ADVANCED_FACE('',(#62),#56,.T.);
#76=ADVANCED_FACE('',(#90,#91),#83,.F.);
#77=ADVANCED_FACE('',(#63),#57,.T.);
#78=ADVANCED_FACE('',(#92,#93),#67,.T.);
#79=ADVANCED_FACE('',(#64),#58,.F.);
#80=ADVANCED_FACE('',(#65),#59,.F.);
#81=ADVANCED_FACE('',(#94,#95),#69,.T.);
#82=TOROIDAL_SURFACE('',#195,12.8000000000002,0.300000000000001);
#83=TOROIDAL_SURFACE('',#205,14.0000000000001,10.);
#84=FACE_BOUND('',#96,.T.);
#85=FACE_BOUND('',#97,.T.);
#86=FACE_BOUND('',#98,.T.);
#87=FACE_BOUND('',#99,.T.);
#88=FACE_BOUND('',#100,.T.);
#89=FACE_BOUND('',#101,.T.);
#90=FACE_BOUND('',#105,.T.);
#91=FACE_BOUND('',#106,.T.);
#92=FACE_BOUND('',#108,.T.);
#93=FACE_BOUND('',#109,.T.);
#94=FACE_BOUND('',#112,.T.);
#95=FACE_BOUND('',#113,.T.);
#96=EDGE_LOOP('',(#114));
#97=EDGE_LOOP('',(#115));
#98=EDGE_LOOP('',(#116));
#99=EDGE_LOOP('',(#117));
#100=EDGE_LOOP('',(#118));
#101=EDGE_LOOP('',(#119));
#102=EDGE_LOOP('',(#120));
#103=EDGE_LOOP('',(#121));
#104=EDGE_LOOP('',(#122));
#105=EDGE_LOOP('',(#123));
#106=EDGE_LOOP('',(#124));
#107=EDGE_LOOP('',(#125));
#108=EDGE_LOOP('',(#126));
#109=EDGE_LOOP('',(#127));
#110=EDGE_LOOP('',(#128));
#111=EDGE_LOOP('',(#129));
#112=EDGE_LOOP('',(#130));
#113=EDGE_LOOP('',(#131));
#114=ORIENTED_EDGE('',*,*,#141,.F.);
#115=ORIENTED_EDGE('',*,*,#142,.T.);
#116=ORIENTED_EDGE('',*,*,#142,.F.);
#117=ORIENTED_EDGE('',*,*,#143,.T.);
#118=ORIENTED_EDGE('',*,*,#143,.F.);
#119=ORIENTED_EDGE('',*,*,#144,.T.);
#120=ORIENTED_EDGE('',*,*,#144,.F.);
#121=ORIENTED_EDGE('',*,*,#141,.T.);
#122=ORIENTED_EDGE('',*,*,#145,.F.);
#123=ORIENTED_EDGE('',*,*,#145,.T.);
#124=ORIENTED_EDGE('',*,*,#146,.F.);
#125=ORIENTED_EDGE('',*,*,#146,.T.);
#126=ORIENTED_EDGE('',*,*,#147,.T.);
#127=ORIENTED_EDGE('',*,*,#148,.F.);
#128=ORIENTED_EDGE('',*,*,#147,.F.);
#129=ORIENTED_EDGE('',*,*,#149,.T.);
#130=ORIENTED_EDGE('',*,*,#149,.F.);
#131=ORIENTED_EDGE('',*,*,#148,.T.);
#132=VERTEX_POINT('',#272);
#133=VERTEX_POINT('',#274);
#134=VERTEX_POINT('',#277);
#135=VERTEX_POINT('',#280);
#136=VERTEX_POINT('',#285);
#137=VERTEX_POINT('',#288);
#138=VERTEX_POINT('',#292);
#139=VERTEX_POINT('',#294);
#140=VERTEX_POINT('',#298);
#141=EDGE_CURVE('',#132,#132,#150,.T.);
#142=EDGE_CURVE('',#133,#133,#151,.T.);
#143=EDGE_CURVE('',#134,#134,#152,.T.);
#144=EDGE_CURVE('',#135,#135,#153,.T.);
#145=EDGE_CURVE('',#136,#136,#154,.T.);
#146=EDGE_CURVE('',#137,#137,#155,.T.);
#147=EDGE_CURVE('',#138,#138,#156,.T.);
#148=EDGE_CURVE('',#139,#139,#157,.T.);
#149=EDGE_CURVE('',#140,#140,#158,.T.);
#150=CIRCLE('',#193,12.5000000000002);
#151=CIRCLE('',#194,12.5878679656442);
#152=CIRCLE('',#196,14.0000000000001);
#153=CIRCLE('',#198,14.);
#154=CIRCLE('',#202,14.);
#155=CIRCLE('',#204,3.99999999999993);
#156=CIRCLE('',#207,12.5000000000002);
#157=CIRCLE('',#208,12.5);
#158=CIRCLE('',#211,11.);
#159=PRESENTATION_LAYER_ASSIGNMENT('1','Layer 1',(#189,#190,#191,#192,#50));
#160=PRESENTATION_LAYER_ASSIGNMENT('2','Layer 2',(#48));
#161=PRESENTATION_LAYER_ASSIGNMENT('3','Layer 3',(#49));
#162=STYLED_ITEM('',(#169),#189);
#163=STYLED_ITEM('',(#170),#190);
#164=STYLED_ITEM('',(#171),#191);
#165=STYLED_ITEM('',(#172),#192);
#166=STYLED_ITEM('',(#173),#48);
#167=STYLED_ITEM('',(#174),#49);
#168=STYLED_ITEM('',(#175),#50);
#169=PRESENTATION_STYLE_ASSIGNMENT((#176));
#170=PRESENTATION_STYLE_ASSIGNMENT((#177));
#171=PRESENTATION_STYLE_ASSIGNMENT((#178));
#172=PRESENTATION_STYLE_ASSIGNMENT((#179));
#173=PRESENTATION_STYLE_ASSIGNMENT((#33));
#174=PRESENTATION_STYLE_ASSIGNMENT((#34));
#175=PRESENTATION_STYLE_ASSIGNMENT((#35));
#176=CURVE_STYLE('',#184,POSITIVE_LENGTH_MEASURE(0.18),#180);
#177=CURVE_STYLE('',#185,POSITIVE_LENGTH_MEASURE(0.18),#180);
#178=CURVE_STYLE('',#186,POSITIVE_LENGTH_MEASURE(0.18),#180);
#179=CURVE_STYLE('',#187,POSITIVE_LENGTH_MEASURE(0.18),#181);
#180=COLOUR_RGB('Strong Stone',0.576470588235294,0.54508278019379,0.392156862745098);
#181=COLOUR_RGB('Medium Maroon',0.6,0.4,0.4);
#182=COLOUR_RGB('Medium Gray',0.490196078431373,0.490196078431373,0.490196078431373);
#183=COLOUR_RGB('Light Gray',0.8,0.8,0.8);
#184=DRAUGHTING_PRE_DEFINED_CURVE_FONT('continuous');
#185=DRAUGHTING_PRE_DEFINED_CURVE_FONT('continuous');
#186=DRAUGHTING_PRE_DEFINED_CURVE_FONT('continuous');
#187=DRAUGHTING_PRE_DEFINED_CURVE_FONT('continuous');
#188=AXIS2_PLACEMENT_3D('',#266,#214,#215);
#189=AXIS2_PLACEMENT_3D('MCS',#267,#216,#217);
#190=AXIS2_PLACEMENT_3D('PCS',#268,#218,#219);
#191=AXIS2_PLACEMENT_3D('CIP',#269,#220,#221);
#192=AXIS2_PLACEMENT_3D('LCS',#270,#222,#223);
#193=AXIS2_PLACEMENT_3D('',#271,#224,#225);
#194=AXIS2_PLACEMENT_3D('',#273,#226,#227);
#195=AXIS2_PLACEMENT_3D('',#275,#228,#229);
#196=AXIS2_PLACEMENT_3D('',#276,#230,#231);
#197=AXIS2_PLACEMENT_3D('',#278,#232,#233);
#198=AXIS2_PLACEMENT_3D('',#279,#234,#235);
#199=AXIS2_PLACEMENT_3D('',#281,#236,#237);
#200=AXIS2_PLACEMENT_3D('',#282,#238,#239);
#201=AXIS2_PLACEMENT_3D('',#283,#240,#241);
#202=AXIS2_PLACEMENT_3D('',#284,#242,#243);
#203=AXIS2_PLACEMENT_3D('',#286,#244,#245);
#204=AXIS2_PLACEMENT_3D('',#287,#246,#247);
#205=AXIS2_PLACEMENT_3D('',#289,#248,#249);
#206=AXIS2_PLACEMENT_3D('',#290,#250,#251);
#207=AXIS2_PLACEMENT_3D('',#291,#252,#253);
#208=AXIS2_PLACEMENT_3D('',#293,#254,#255);
#209=AXIS2_PLACEMENT_3D('',#295,#256,#257);
#210=AXIS2_PLACEMENT_3D('',#296,#258,#259);
#211=AXIS2_PLACEMENT_3D('',#297,#260,#261);
#212=AXIS2_PLACEMENT_3D('',#299,#262,#263);
#213=AXIS2_PLACEMENT_3D('',#300,#264,#265);
#214=DIRECTION('',(0.,0.,1.));
#215=DIRECTION('',(1.,0.,0.));
#216=DIRECTION('',(0.,0.,1.));
#217=DIRECTION('',(1.,0.,0.));
#218=DIRECTION('',(0.,0.,1.));
#219=DIRECTION('',(1.,0.,0.));
#220=DIRECTION('',(0.,0.,1.));
#221=DIRECTION('',(1.,0.,0.));
#222=DIRECTION('',(0.,0.,1.));
#223=DIRECTION('',(1.,0.,0.));
#224=DIRECTION('',(0.,1.99840144432528E-15,1.));
#225=DIRECTION('',(0.,-1.,1.99840144432528E-15));
#226=DIRECTION('',(0.,1.99840144432528E-15,1.));
#227=DIRECTION('',(0.,-1.,1.99823278019078E-15));
#228=DIRECTION('',(0.,1.99840144432528E-15,1.));
#229=DIRECTION('',(0.,1.,-1.99840144432528E-15));
#230=DIRECTION('',(0.,1.99840144432528E-15,1.));
#231=DIRECTION('',(0.,-1.,1.99802971786613E-15));
#232=DIRECTION('',(0.,-1.99840144432528E-15,-1.));
#233=DIRECTION('',(0.,-1.,1.90580074185216E-15));
#234=DIRECTION('',(0.,1.99840144432528E-15,1.));
#235=DIRECTION('',(0.,-1.,1.98254111540207E-15));
#236=DIRECTION('',(0.,1.99840144432528E-15,1.));
#237=DIRECTION('',(0.,1.,-1.98254111540205E-15));
#238=DIRECTION('',(0.,1.99840144432528E-15,1.));
#239=DIRECTION('',(0.,1.,-1.99840144432528E-15));
#240=DIRECTION('',(0.,0.,1.));
#241=DIRECTION('',(-1.,0.,0.));
#242=DIRECTION('',(0.,-1.99840144432528E-15,-1.));
#243=DIRECTION('',(0.,1.,-1.98254111540207E-15));
#244=DIRECTION('',(0.,1.99840144432528E-15,1.));
#245=DIRECTION('',(0.,1.,-1.99840144432528E-15));
#246=DIRECTION('',(0.,-1.99840144432528E-15,-1.));
#247=DIRECTION('',(0.,1.,-1.73472347597684E-15));
#248=DIRECTION('',(0.,-1.99840144432528E-15,-1.));
#249=DIRECTION('',(0.,-1.,2.02384405530627E-15));
#250=DIRECTION('',(0.,-1.99840144432528E-15,-1.));
#251=DIRECTION('',(0.,-1.,1.99840144432528E-15));
#252=DIRECTION('',(0.,0.,1.));
#253=DIRECTION('',(-1.,0.,0.));
#254=DIRECTION('',(0.,1.99840144432528E-15,1.));
#255=DIRECTION('',(0.,-1.,2.22044604925031E-15));
#256=DIRECTION('',(0.,1.99840144432528E-15,1.));
#257=DIRECTION('',(0.,1.,-2.2204460492503E-15));
#258=DIRECTION('',(0.,0.,1.));
#259=DIRECTION('',(-1.,0.,0.));
#260=DIRECTION('',(0.,1.99840144432528E-15,1.));
#261=DIRECTION('',(0.,-1.,1.89242561015652E-15));
#262=DIRECTION('',(0.,-1.99840144432528E-15,-1.));
#263=DIRECTION('',(0.,-1.,1.99840144432528E-15));
#264=DIRECTION('',(0.,-1.99840144432528E-15,-1.));
#265=DIRECTION('',(0.,-1.,1.96002336446169E-15));
#266=CARTESIAN_POINT('',(0.,0.,0.));
#267=CARTESIAN_POINT('',(0.,0.,0.));
#268=CARTESIAN_POINT('',(0.,1.09663749943499E-13,54.8757359312882));
#269=CARTESIAN_POINT('',(0.,-5.02083656025234E-14,-25.1242640687118));
#270=CARTESIAN_POINT('',(0.,0.,22.88));
#271=CARTESIAN_POINT('',(0.,0.,0.));
#272=CARTESIAN_POINT('',(0.,-12.5000000000002,3.03576608295941E-14));
#273=CARTESIAN_POINT('',(0.,-4.23924963844599E-16,-0.21213203435598));
#274=CARTESIAN_POINT('',(0.,-12.5878679656442,-0.21213203435596));
#275=CARTESIAN_POINT('',(0.,-2.20573918775699E-16,0.));
#276=CARTESIAN_POINT('',(0.,-3.2459316608793E-15,-1.62426406871179));
#277=CARTESIAN_POINT('',(0.,-14.0000000000001,-1.62426406871176));
#278=CARTESIAN_POINT('',(0.,-3.2459316608793E-15,-1.62426406871179));
#279=CARTESIAN_POINT('',(0.,-3.02243511592705E-14,-15.1242640687118));
#280=CARTESIAN_POINT('',(0.,-14.0000000000001,-15.1242640687118));
#281=CARTESIAN_POINT('',(0.,1.09663749943499E-13,54.8757359312882));
#282=CARTESIAN_POINT('',(0.,1.01877669370851E-14,-15.1242640687118));
#283=CARTESIAN_POINT('',(0.,0.,0.));
#284=CARTESIAN_POINT('',(0.,-3.02243511592705E-14,-15.1242640687118));
#285=CARTESIAN_POINT('',(0.,14.,-15.1242640687118));
#286=CARTESIAN_POINT('',(0.,14.,-15.1242640687118));
#287=CARTESIAN_POINT('',(0.,-5.02083656025234E-14,-25.1242640687118));
#288=CARTESIAN_POINT('',(0.,3.99999999999988,-25.1242640687118));
#289=CARTESIAN_POINT('',(0.,-5.05275547221031E-14,-25.1242640687118));
#290=CARTESIAN_POINT('',(0.,-2.88920835297204E-14,-25.1242640687118));
#291=CARTESIAN_POINT('',(0.,-2.20573918775699E-16,0.));
#292=CARTESIAN_POINT('',(-12.5000000000002,-2.20573918775699E-16,0.));
#293=CARTESIAN_POINT('',(0.,1.06666147777011E-13,53.3757359312882));
#294=CARTESIAN_POINT('',(0.,-12.4999999999999,53.3757359312882));
#295=CARTESIAN_POINT('',(0.,1.09663749943499E-13,54.8757359312882));
#296=CARTESIAN_POINT('',(0.,0.,0.));
#297=CARTESIAN_POINT('',(0.,1.09663749943499E-13,54.8757359312882));
#298=CARTESIAN_POINT('',(0.,-10.9999999999999,54.8757359312882));
#299=CARTESIAN_POINT('',(0.,11.0000000000001,54.8757359312881));
#300=CARTESIAN_POINT('',(0.,1.06666147777011E-13,53.3757359312882));
#301=MECHANICAL_DESIGN_GEOMETRIC_PRESENTATION_REPRESENTATION('',(#162,#163,
#164,#165,#166,#167,#168),#302);
#302=(
GEOMETRIC_REPRESENTATION_CONTEXT(3)
GLOBAL_UNCERTAINTY_ASSIGNED_CONTEXT((#303))
GLOBAL_UNIT_ASSIGNED_CONTEXT((#309,#305,#304))
REPRESENTATION_CONTEXT('31999-MEGAW','TOP_LEVEL_ASSEMBLY_PART')
);
#303=UNCERTAINTY_MEASURE_WITH_UNIT(LENGTH_MEASURE(2.E-5),#309,
'DISTANCE_ACCURACY_VALUE','Maximum Tolerance applied to model');
#304=(
NAMED_UNIT(*)
SI_UNIT($,.STERADIAN.)
SOLID_ANGLE_UNIT()
);
#305=(
CONVERSION_BASED_UNIT('DEGREE',#307)
NAMED_UNIT(#306)
PLANE_ANGLE_UNIT()
);
#306=DIMENSIONAL_EXPONENTS(0.,0.,0.,0.,0.,0.,0.);
#307=PLANE_ANGLE_MEASURE_WITH_UNIT(PLANE_ANGLE_MEASURE(0.0174532925),#308);
#308=(
NAMED_UNIT(*)
PLANE_ANGLE_UNIT()
SI_UNIT($,.RADIAN.)
);
#309=(
LENGTH_UNIT()
NAMED_UNIT(*)
SI_UNIT(.MILLI.,.METRE.)
);
ENDSEC;
END-ISO-10303-21;
