ISO-10303-21;
HEADER;
/* Generated by software containing ST-Developer
 * from STEP Tools, Inc. (www.steptools.com) 
 */
/* OPTION: using custom schema-name function */

FILE_DESCRIPTION(
/* description */ (''),
/* implementation_level */ '2;1');

FILE_NAME(
/* name */ '31800-MEGAW.stp',
/* time_stamp */ '2017-12-13T13:51:24+05:00',
/* author */ (''),
/* organization */ (''),
/* preprocessor_version */ 'ST-DEVELOPER v16',
/* originating_system */ 'SIEMENS PLM Software NX 11.0',
/* authorisation */ '');

FILE_SCHEMA (('AUTOMOTIVE_DESIGN { 1 0 10303 214 3 1 1 1 }'));
ENDSEC;

DATA;
#10=CONSTRUCTIVE_GEOMETRY_REPRESENTATION_RELATIONSHIP(
'supplemental geometry','',#32,#11);
#11=CONSTRUCTIVE_GEOMETRY_REPRESENTATION('supplemental geometry',(#167,
#168,#169,#170),#262);
#12=PROPERTY_DEFINITION_REPRESENTATION(#16,#14);
#13=PROPERTY_DEFINITION_REPRESENTATION(#17,#15);
#14=REPRESENTATION('',(#18),#262);
#15=REPRESENTATION('',(#19),#262);
#16=PROPERTY_DEFINITION('pmi validation property','',#23);
#17=PROPERTY_DEFINITION('pmi validation property','',#23);
#18=VALUE_REPRESENTATION_ITEM('number of annotations',COUNT_MEASURE(0.));
#19=VALUE_REPRESENTATION_ITEM('number of views',COUNT_MEASURE(0.));
#20=SHAPE_REPRESENTATION_RELATIONSHIP('None',
'relationship between 31800-MEGAW-None and 31800-MEGAW-None',#32,#21);
#21=ADVANCED_BREP_SHAPE_REPRESENTATION('31800-MEGAW-None',(#49,#50,#51),
#262);
#22=SHAPE_DEFINITION_REPRESENTATION(#23,#32);
#23=PRODUCT_DEFINITION_SHAPE('','',#24);
#24=PRODUCT_DEFINITION(' ','',#26,#25);
#25=PRODUCT_DEFINITION_CONTEXT('part definition',#31,'design');
#26=PRODUCT_DEFINITION_FORMATION_WITH_SPECIFIED_SOURCE(' ',' ',#28,
 .NOT_KNOWN.);
#27=PRODUCT_RELATED_PRODUCT_CATEGORY('part','',(#28));
#28=PRODUCT('31800-MEGAW','31800-MEGAW',' ',(#29));
#29=PRODUCT_CONTEXT(' ',#31,'mechanical');
#30=APPLICATION_PROTOCOL_DEFINITION('international standard',
'automotive_design',2010,#31);
#31=APPLICATION_CONTEXT(
'core data for automotive mechanical design processes');
#32=SHAPE_REPRESENTATION('31800-MEGAW-None',(#166),#262);
#33=TOROIDAL_SURFACE('',#182,12.5,8.);
#34=SURFACE_STYLE_USAGE(.BOTH.,#37);
#35=SURFACE_STYLE_USAGE(.BOTH.,#38);
#36=SURFACE_STYLE_USAGE(.BOTH.,#39);
#37=SURFACE_SIDE_STYLE('',(#40));
#38=SURFACE_SIDE_STYLE('',(#41));
#39=SURFACE_SIDE_STYLE('',(#42));
#40=SURFACE_STYLE_FILL_AREA(#43);
#41=SURFACE_STYLE_FILL_AREA(#44);
#42=SURFACE_STYLE_FILL_AREA(#45);
#43=FILL_AREA_STYLE('',(#46));
#44=FILL_AREA_STYLE('',(#47));
#45=FILL_AREA_STYLE('',(#48));
#46=FILL_AREA_STYLE_COLOUR('',#160);
#47=FILL_AREA_STYLE_COLOUR('',#161);
#48=FILL_AREA_STYLE_COLOUR('',#160);
#49=MANIFOLD_SOLID_BREP('NOCUT',#52);
#50=MANIFOLD_SOLID_BREP('CUT',#53);
#51=MANIFOLD_SOLID_BREP('NOCUT',#54);
#52=CLOSED_SHELL('',(#68,#69,#70,#71));
#53=CLOSED_SHELL('',(#72,#73,#74));
#54=CLOSED_SHELL('',(#75,#76,#77));
#55=PLANE('',#176);
#56=PLANE('',#177);
#57=PLANE('',#179);
#58=PLANE('',#181);
#59=PLANE('',#184);
#60=PLANE('',#186);
#61=FACE_OUTER_BOUND('',#92,.T.);
#62=FACE_OUTER_BOUND('',#93,.T.);
#63=FACE_OUTER_BOUND('',#94,.T.);
#64=FACE_OUTER_BOUND('',#95,.T.);
#65=FACE_OUTER_BOUND('',#98,.T.);
#66=FACE_OUTER_BOUND('',#99,.T.);
#67=CONICAL_SURFACE('',#175,11.,44.9999999999995);
#68=ADVANCED_FACE('',(#80,#81),#78,.T.);
#69=ADVANCED_FACE('',(#82,#83),#67,.T.);
#70=ADVANCED_FACE('',(#61),#55,.F.);
#71=ADVANCED_FACE('',(#62),#56,.F.);
#72=ADVANCED_FACE('',(#63),#57,.T.);
#73=ADVANCED_FACE('',(#64),#58,.F.);
#74=ADVANCED_FACE('',(#84,#85),#33,.F.);
#75=ADVANCED_FACE('',(#65),#59,.T.);
#76=ADVANCED_FACE('',(#66),#60,.F.);
#77=ADVANCED_FACE('',(#86,#87),#79,.T.);
#78=CYLINDRICAL_SURFACE('',#173,12.5);
#79=CYLINDRICAL_SURFACE('',#187,12.5);
#80=FACE_BOUND('',#88,.T.);
#81=FACE_BOUND('',#89,.T.);
#82=FACE_BOUND('',#90,.T.);
#83=FACE_BOUND('',#91,.T.);
#84=FACE_BOUND('',#96,.T.);
#85=FACE_BOUND('',#97,.T.);
#86=FACE_BOUND('',#100,.T.);
#87=FACE_BOUND('',#101,.T.);
#88=EDGE_LOOP('',(#102));
#89=EDGE_LOOP('',(#103));
#90=EDGE_LOOP('',(#104));
#91=EDGE_LOOP('',(#105));
#92=EDGE_LOOP('',(#106));
#93=EDGE_LOOP('',(#107));
#94=EDGE_LOOP('',(#108));
#95=EDGE_LOOP('',(#109));
#96=EDGE_LOOP('',(#110));
#97=EDGE_LOOP('',(#111));
#98=EDGE_LOOP('',(#112));
#99=EDGE_LOOP('',(#113));
#100=EDGE_LOOP('',(#114));
#101=EDGE_LOOP('',(#115));
#102=ORIENTED_EDGE('',*,*,#123,.F.);
#103=ORIENTED_EDGE('',*,*,#124,.T.);
#104=ORIENTED_EDGE('',*,*,#124,.F.);
#105=ORIENTED_EDGE('',*,*,#125,.T.);
#106=ORIENTED_EDGE('',*,*,#125,.F.);
#107=ORIENTED_EDGE('',*,*,#123,.T.);
#108=ORIENTED_EDGE('',*,*,#126,.T.);
#109=ORIENTED_EDGE('',*,*,#127,.T.);
#110=ORIENTED_EDGE('',*,*,#127,.F.);
#111=ORIENTED_EDGE('',*,*,#126,.F.);
#112=ORIENTED_EDGE('',*,*,#128,.T.);
#113=ORIENTED_EDGE('',*,*,#129,.F.);
#114=ORIENTED_EDGE('',*,*,#129,.T.);
#115=ORIENTED_EDGE('',*,*,#128,.F.);
#116=VERTEX_POINT('',#238);
#117=VERTEX_POINT('',#240);
#118=VERTEX_POINT('',#243);
#119=VERTEX_POINT('',#248);
#120=VERTEX_POINT('',#251);
#121=VERTEX_POINT('',#255);
#122=VERTEX_POINT('',#258);
#123=EDGE_CURVE('',#116,#116,#130,.T.);
#124=EDGE_CURVE('',#117,#117,#131,.T.);
#125=EDGE_CURVE('',#118,#118,#132,.T.);
#126=EDGE_CURVE('',#119,#119,#133,.T.);
#127=EDGE_CURVE('',#120,#120,#134,.T.);
#128=EDGE_CURVE('',#121,#121,#135,.T.);
#129=EDGE_CURVE('',#122,#122,#136,.T.);
#130=CIRCLE('',#171,12.5);
#131=CIRCLE('',#172,12.5);
#132=CIRCLE('',#174,11.);
#133=CIRCLE('',#178,12.5);
#134=CIRCLE('',#180,4.49999999999998);
#135=CIRCLE('',#183,12.5);
#136=CIRCLE('',#185,12.5);
#137=PRESENTATION_LAYER_ASSIGNMENT('1','Layer 1',(#167,#168,#169,#170,#49));
#138=PRESENTATION_LAYER_ASSIGNMENT('3','Layer 3',(#50));
#139=PRESENTATION_LAYER_ASSIGNMENT('2','Layer 2',(#51));
#140=STYLED_ITEM('',(#147),#167);
#141=STYLED_ITEM('',(#148),#168);
#142=STYLED_ITEM('',(#149),#169);
#143=STYLED_ITEM('',(#150),#170);
#144=STYLED_ITEM('',(#151),#49);
#145=STYLED_ITEM('',(#152),#50);
#146=STYLED_ITEM('',(#153),#51);
#147=PRESENTATION_STYLE_ASSIGNMENT((#154));
#148=PRESENTATION_STYLE_ASSIGNMENT((#155));
#149=PRESENTATION_STYLE_ASSIGNMENT((#156));
#150=PRESENTATION_STYLE_ASSIGNMENT((#157));
#151=PRESENTATION_STYLE_ASSIGNMENT((#34));
#152=PRESENTATION_STYLE_ASSIGNMENT((#35));
#153=PRESENTATION_STYLE_ASSIGNMENT((#36));
#154=CURVE_STYLE('',#162,POSITIVE_LENGTH_MEASURE(0.18),#158);
#155=CURVE_STYLE('',#163,POSITIVE_LENGTH_MEASURE(0.18),#158);
#156=CURVE_STYLE('',#164,POSITIVE_LENGTH_MEASURE(0.18),#158);
#157=CURVE_STYLE('',#165,POSITIVE_LENGTH_MEASURE(0.18),#159);
#158=COLOUR_RGB('Strong Stone',0.576470588235294,0.54508278019379,0.392156862745098);
#159=COLOUR_RGB('Medium Maroon',0.6,0.4,0.4);
#160=COLOUR_RGB('Medium Gray',0.490196078431373,0.490196078431373,0.490196078431373);
#161=COLOUR_RGB('Light Gray',0.8,0.8,0.8);
#162=DRAUGHTING_PRE_DEFINED_CURVE_FONT('continuous');
#163=DRAUGHTING_PRE_DEFINED_CURVE_FONT('continuous');
#164=DRAUGHTING_PRE_DEFINED_CURVE_FONT('continuous');
#165=DRAUGHTING_PRE_DEFINED_CURVE_FONT('continuous');
#166=AXIS2_PLACEMENT_3D('',#232,#188,#189);
#167=AXIS2_PLACEMENT_3D('MCS',#233,#190,#191);
#168=AXIS2_PLACEMENT_3D('PCS',#234,#192,#193);
#169=AXIS2_PLACEMENT_3D('CIP',#235,#194,#195);
#170=AXIS2_PLACEMENT_3D('LCS',#236,#196,#197);
#171=AXIS2_PLACEMENT_3D('',#237,#198,#199);
#172=AXIS2_PLACEMENT_3D('',#239,#200,#201);
#173=AXIS2_PLACEMENT_3D('',#241,#202,#203);
#174=AXIS2_PLACEMENT_3D('',#242,#204,#205);
#175=AXIS2_PLACEMENT_3D('',#244,#206,#207);
#176=AXIS2_PLACEMENT_3D('',#245,#208,#209);
#177=AXIS2_PLACEMENT_3D('',#246,#210,#211);
#178=AXIS2_PLACEMENT_3D('',#247,#212,#213);
#179=AXIS2_PLACEMENT_3D('',#249,#214,#215);
#180=AXIS2_PLACEMENT_3D('',#250,#216,#217);
#181=AXIS2_PLACEMENT_3D('',#252,#218,#219);
#182=AXIS2_PLACEMENT_3D('',#253,#220,#221);
#183=AXIS2_PLACEMENT_3D('',#254,#222,#223);
#184=AXIS2_PLACEMENT_3D('',#256,#224,#225);
#185=AXIS2_PLACEMENT_3D('',#257,#226,#227);
#186=AXIS2_PLACEMENT_3D('',#259,#228,#229);
#187=AXIS2_PLACEMENT_3D('',#260,#230,#231);
#188=DIRECTION('',(0.,0.,1.));
#189=DIRECTION('',(1.,0.,0.));
#190=DIRECTION('',(0.,0.,1.));
#191=DIRECTION('',(1.,0.,0.));
#192=DIRECTION('',(0.,0.,1.));
#193=DIRECTION('',(1.,0.,0.));
#194=DIRECTION('',(0.,0.,1.));
#195=DIRECTION('',(1.,0.,0.));
#196=DIRECTION('',(0.,0.,1.));
#197=DIRECTION('',(1.,0.,0.));
#198=DIRECTION('',(0.,0.,-1.));
#199=DIRECTION('',(1.,0.,0.));
#200=DIRECTION('',(0.,0.,-1.));
#201=DIRECTION('',(-1.,0.,0.));
#202=DIRECTION('',(0.,0.,-1.));
#203=DIRECTION('',(-1.,0.,0.));
#204=DIRECTION('',(0.,0.,-1.));
#205=DIRECTION('',(-1.,0.,0.));
#206=DIRECTION('',(0.,0.,-1.));
#207=DIRECTION('',(-1.,0.,2.05901896258378E-17));
#208=DIRECTION('',(0.,0.,-1.));
#209=DIRECTION('',(-1.,0.,0.));
#210=DIRECTION('',(0.,0.,1.));
#211=DIRECTION('',(1.,0.,0.));
#212=DIRECTION('',(0.,0.,1.));
#213=DIRECTION('',(1.,0.,0.));
#214=DIRECTION('',(0.,0.,1.));
#215=DIRECTION('',(1.,0.,0.));
#216=DIRECTION('',(0.,0.,-1.));
#217=DIRECTION('',(-1.,0.,0.));
#218=DIRECTION('',(0.,0.,1.));
#219=DIRECTION('',(1.,0.,0.));
#220=DIRECTION('',(0.,0.,-1.));
#221=DIRECTION('',(-1.,0.,0.));
#222=DIRECTION('',(0.,0.,1.));
#223=DIRECTION('',(1.,0.,0.));
#224=DIRECTION('',(0.,0.,1.));
#225=DIRECTION('',(1.,0.,0.));
#226=DIRECTION('',(0.,0.,1.));
#227=DIRECTION('',(1.,0.,0.));
#228=DIRECTION('',(0.,0.,1.));
#229=DIRECTION('',(1.,0.,0.));
#230=DIRECTION('',(0.,0.,-1.));
#231=DIRECTION('',(-1.,0.,0.));
#232=CARTESIAN_POINT('',(0.,0.,0.));
#233=CARTESIAN_POINT('',(0.,0.,0.));
#234=CARTESIAN_POINT('',(0.,1.06581410364015E-14,56.));
#235=CARTESIAN_POINT('',(0.,1.04083408558608E-14,-19.));
#236=CARTESIAN_POINT('',(0.,0.,24.));
#237=CARTESIAN_POINT('',(0.,1.78E-14,0.));
#238=CARTESIAN_POINT('',(12.5,1.78E-14,0.));
#239=CARTESIAN_POINT('',(0.,1.78E-14,54.5));
#240=CARTESIAN_POINT('',(-12.5,1.78E-14,54.5));
#241=CARTESIAN_POINT('',(0.,1.78E-14,58.951754788834));
#242=CARTESIAN_POINT('',(0.,1.78E-14,56.));
#243=CARTESIAN_POINT('',(-11.,1.78E-14,56.));
#244=CARTESIAN_POINT('',(0.,1.78E-14,56.));
#245=CARTESIAN_POINT('',(0.,1.06581410364015E-14,56.));
#246=CARTESIAN_POINT('',(0.,0.,0.));
#247=CARTESIAN_POINT('',(0.,1.78E-14,-11.));
#248=CARTESIAN_POINT('',(12.5,1.78E-14,-11.));
#249=CARTESIAN_POINT('',(0.,1.78E-14,-11.));
#250=CARTESIAN_POINT('',(0.,1.78E-14,-19.));
#251=CARTESIAN_POINT('',(-4.49999999999998,1.78E-14,-19.));
#252=CARTESIAN_POINT('',(0.,4.50000000000002,-19.));
#253=CARTESIAN_POINT('',(0.,1.73472347597681E-14,-19.));
#254=CARTESIAN_POINT('',(0.,1.78E-14,0.));
#255=CARTESIAN_POINT('',(12.5,1.78E-14,0.));
#256=CARTESIAN_POINT('',(0.,0.,0.));
#257=CARTESIAN_POINT('',(0.,1.78E-14,-11.));
#258=CARTESIAN_POINT('',(12.5,1.78E-14,-11.));
#259=CARTESIAN_POINT('',(0.,1.78E-14,-11.));
#260=CARTESIAN_POINT('',(0.,1.78E-14,58.951754788834));
#261=MECHANICAL_DESIGN_GEOMETRIC_PRESENTATION_REPRESENTATION('',(#140,#141,
#142,#143,#144,#145,#146),#262);
#262=(
GEOMETRIC_REPRESENTATION_CONTEXT(3)
GLOBAL_UNCERTAINTY_ASSIGNED_CONTEXT((#263))
GLOBAL_UNIT_ASSIGNED_CONTEXT((#269,#265,#264))
REPRESENTATION_CONTEXT('31800-MEGAW','TOP_LEVEL_ASSEMBLY_PART')
);
#263=UNCERTAINTY_MEASURE_WITH_UNIT(LENGTH_MEASURE(2.E-5),#269,
'DISTANCE_ACCURACY_VALUE','Maximum Tolerance applied to model');
#264=(
NAMED_UNIT(*)
SI_UNIT($,.STERADIAN.)
SOLID_ANGLE_UNIT()
);
#265=(
CONVERSION_BASED_UNIT('DEGREE',#267)
NAMED_UNIT(#266)
PLANE_ANGLE_UNIT()
);
#266=DIMENSIONAL_EXPONENTS(0.,0.,0.,0.,0.,0.,0.);
#267=PLANE_ANGLE_MEASURE_WITH_UNIT(PLANE_ANGLE_MEASURE(0.0174532925),#268);
#268=(
NAMED_UNIT(*)
PLANE_ANGLE_UNIT()
SI_UNIT($,.RADIAN.)
);
#269=(
LENGTH_UNIT()
NAMED_UNIT(*)
SI_UNIT(.MILLI.,.METRE.)
);
ENDSEC;
END-ISO-10303-21;
