ISO-10303-21;
HEADER;
/* Generated by software containing ST-Developer
 * from STEP Tools, Inc. (www.steptools.com) 
 */
/* OPTION: using custom schema-name function */

FILE_DESCRIPTION(
/* description */ (''),
/* implementation_level */ '2;1');

FILE_NAME(
/* name */ '31800-MEGA.stp',
/* time_stamp */ '2017-12-13T13:51:24+05:00',
/* author */ (''),
/* organization */ (''),
/* preprocessor_version */ 'ST-DEVELOPER v16',
/* originating_system */ 'SIEMENS PLM Software NX 11.0',
/* authorisation */ '');

FILE_SCHEMA (('AUTOMOTIVE_DESIGN { 1 0 10303 214 3 1 1 1 }'));
ENDSEC;

DATA;
#10=CONSTRUCTIVE_GEOMETRY_REPRESENTATION_RELATIONSHIP(
'supplemental geometry','',#32,#11);
#11=CONSTRUCTIVE_GEOMETRY_REPRESENTATION('supplemental geometry',(#162,
#163,#164),#253);
#12=PROPERTY_DEFINITION_REPRESENTATION(#16,#14);
#13=PROPERTY_DEFINITION_REPRESENTATION(#17,#15);
#14=REPRESENTATION('',(#18),#253);
#15=REPRESENTATION('',(#19),#253);
#16=PROPERTY_DEFINITION('pmi validation property','',#23);
#17=PROPERTY_DEFINITION('pmi validation property','',#23);
#18=VALUE_REPRESENTATION_ITEM('number of annotations',COUNT_MEASURE(0.));
#19=VALUE_REPRESENTATION_ITEM('number of views',COUNT_MEASURE(0.));
#20=SHAPE_REPRESENTATION_RELATIONSHIP('None',
'relationship between 31800-MEGA-None and 31800-MEGA-None',#32,#21);
#21=ADVANCED_BREP_SHAPE_REPRESENTATION('31800-MEGA-None',(#49,#50,#51),
#253);
#22=SHAPE_DEFINITION_REPRESENTATION(#23,#32);
#23=PRODUCT_DEFINITION_SHAPE('','',#24);
#24=PRODUCT_DEFINITION(' ','',#26,#25);
#25=PRODUCT_DEFINITION_CONTEXT('part definition',#31,'design');
#26=PRODUCT_DEFINITION_FORMATION_WITH_SPECIFIED_SOURCE(' ',' ',#28,
 .NOT_KNOWN.);
#27=PRODUCT_RELATED_PRODUCT_CATEGORY('part','',(#28));
#28=PRODUCT('31800-MEGA','31800-MEGA',' ',(#29));
#29=PRODUCT_CONTEXT(' ',#31,'mechanical');
#30=APPLICATION_PROTOCOL_DEFINITION('international standard',
'automotive_design',2010,#31);
#31=APPLICATION_CONTEXT(
'core data for automotive mechanical design processes');
#32=SHAPE_REPRESENTATION('31800-MEGA-None',(#161),#253);
#33=TOROIDAL_SURFACE('',#176,12.5,8.);
#34=SURFACE_STYLE_USAGE(.BOTH.,#37);
#35=SURFACE_STYLE_USAGE(.BOTH.,#38);
#36=SURFACE_STYLE_USAGE(.BOTH.,#39);
#37=SURFACE_SIDE_STYLE('',(#40));
#38=SURFACE_SIDE_STYLE('',(#41));
#39=SURFACE_SIDE_STYLE('',(#42));
#40=SURFACE_STYLE_FILL_AREA(#43);
#41=SURFACE_STYLE_FILL_AREA(#44);
#42=SURFACE_STYLE_FILL_AREA(#45);
#43=FILL_AREA_STYLE('',(#46));
#44=FILL_AREA_STYLE('',(#47));
#45=FILL_AREA_STYLE('',(#48));
#46=FILL_AREA_STYLE_COLOUR('',#156);
#47=FILL_AREA_STYLE_COLOUR('',#157);
#48=FILL_AREA_STYLE_COLOUR('',#156);
#49=MANIFOLD_SOLID_BREP('NOCUT',#52);
#50=MANIFOLD_SOLID_BREP('CUT',#53);
#51=MANIFOLD_SOLID_BREP('NOCUT',#54);
#52=CLOSED_SHELL('',(#68,#69,#70,#71));
#53=CLOSED_SHELL('',(#72,#73,#74));
#54=CLOSED_SHELL('',(#75,#76,#77));
#55=PLANE('',#170);
#56=PLANE('',#171);
#57=PLANE('',#173);
#58=PLANE('',#175);
#59=PLANE('',#178);
#60=PLANE('',#180);
#61=FACE_OUTER_BOUND('',#92,.T.);
#62=FACE_OUTER_BOUND('',#93,.T.);
#63=FACE_OUTER_BOUND('',#94,.T.);
#64=FACE_OUTER_BOUND('',#95,.T.);
#65=FACE_OUTER_BOUND('',#98,.T.);
#66=FACE_OUTER_BOUND('',#99,.T.);
#67=CONICAL_SURFACE('',#169,11.,44.9999999999995);
#68=ADVANCED_FACE('',(#80,#81),#78,.T.);
#69=ADVANCED_FACE('',(#82,#83),#67,.T.);
#70=ADVANCED_FACE('',(#61),#55,.F.);
#71=ADVANCED_FACE('',(#62),#56,.F.);
#72=ADVANCED_FACE('',(#63),#57,.T.);
#73=ADVANCED_FACE('',(#64),#58,.F.);
#74=ADVANCED_FACE('',(#84,#85),#33,.F.);
#75=ADVANCED_FACE('',(#65),#59,.T.);
#76=ADVANCED_FACE('',(#66),#60,.F.);
#77=ADVANCED_FACE('',(#86,#87),#79,.T.);
#78=CYLINDRICAL_SURFACE('',#167,12.5);
#79=CYLINDRICAL_SURFACE('',#181,12.5);
#80=FACE_BOUND('',#88,.T.);
#81=FACE_BOUND('',#89,.T.);
#82=FACE_BOUND('',#90,.T.);
#83=FACE_BOUND('',#91,.T.);
#84=FACE_BOUND('',#96,.T.);
#85=FACE_BOUND('',#97,.T.);
#86=FACE_BOUND('',#100,.T.);
#87=FACE_BOUND('',#101,.T.);
#88=EDGE_LOOP('',(#102));
#89=EDGE_LOOP('',(#103));
#90=EDGE_LOOP('',(#104));
#91=EDGE_LOOP('',(#105));
#92=EDGE_LOOP('',(#106));
#93=EDGE_LOOP('',(#107));
#94=EDGE_LOOP('',(#108));
#95=EDGE_LOOP('',(#109));
#96=EDGE_LOOP('',(#110));
#97=EDGE_LOOP('',(#111));
#98=EDGE_LOOP('',(#112));
#99=EDGE_LOOP('',(#113));
#100=EDGE_LOOP('',(#114));
#101=EDGE_LOOP('',(#115));
#102=ORIENTED_EDGE('',*,*,#123,.F.);
#103=ORIENTED_EDGE('',*,*,#124,.T.);
#104=ORIENTED_EDGE('',*,*,#124,.F.);
#105=ORIENTED_EDGE('',*,*,#125,.T.);
#106=ORIENTED_EDGE('',*,*,#125,.F.);
#107=ORIENTED_EDGE('',*,*,#123,.T.);
#108=ORIENTED_EDGE('',*,*,#126,.T.);
#109=ORIENTED_EDGE('',*,*,#127,.T.);
#110=ORIENTED_EDGE('',*,*,#127,.F.);
#111=ORIENTED_EDGE('',*,*,#126,.F.);
#112=ORIENTED_EDGE('',*,*,#128,.T.);
#113=ORIENTED_EDGE('',*,*,#129,.F.);
#114=ORIENTED_EDGE('',*,*,#129,.T.);
#115=ORIENTED_EDGE('',*,*,#128,.F.);
#116=VERTEX_POINT('',#229);
#117=VERTEX_POINT('',#231);
#118=VERTEX_POINT('',#234);
#119=VERTEX_POINT('',#239);
#120=VERTEX_POINT('',#242);
#121=VERTEX_POINT('',#246);
#122=VERTEX_POINT('',#249);
#123=EDGE_CURVE('',#116,#116,#130,.T.);
#124=EDGE_CURVE('',#117,#117,#131,.T.);
#125=EDGE_CURVE('',#118,#118,#132,.T.);
#126=EDGE_CURVE('',#119,#119,#133,.T.);
#127=EDGE_CURVE('',#120,#120,#134,.T.);
#128=EDGE_CURVE('',#121,#121,#135,.T.);
#129=EDGE_CURVE('',#122,#122,#136,.T.);
#130=CIRCLE('',#165,12.5);
#131=CIRCLE('',#166,12.5);
#132=CIRCLE('',#168,11.);
#133=CIRCLE('',#172,12.5);
#134=CIRCLE('',#174,4.49999999999998);
#135=CIRCLE('',#177,12.5);
#136=CIRCLE('',#179,12.5);
#137=PRESENTATION_LAYER_ASSIGNMENT('1','Layer 1',(#162,#163,#164,#49));
#138=PRESENTATION_LAYER_ASSIGNMENT('3','Layer 3',(#50));
#139=PRESENTATION_LAYER_ASSIGNMENT('2','Layer 2',(#51));
#140=STYLED_ITEM('',(#146),#162);
#141=STYLED_ITEM('',(#147),#163);
#142=STYLED_ITEM('',(#148),#164);
#143=STYLED_ITEM('',(#149),#49);
#144=STYLED_ITEM('',(#150),#50);
#145=STYLED_ITEM('',(#151),#51);
#146=PRESENTATION_STYLE_ASSIGNMENT((#152));
#147=PRESENTATION_STYLE_ASSIGNMENT((#153));
#148=PRESENTATION_STYLE_ASSIGNMENT((#154));
#149=PRESENTATION_STYLE_ASSIGNMENT((#34));
#150=PRESENTATION_STYLE_ASSIGNMENT((#35));
#151=PRESENTATION_STYLE_ASSIGNMENT((#36));
#152=CURVE_STYLE('',#158,POSITIVE_LENGTH_MEASURE(0.18),#155);
#153=CURVE_STYLE('',#159,POSITIVE_LENGTH_MEASURE(0.18),#155);
#154=CURVE_STYLE('',#160,POSITIVE_LENGTH_MEASURE(0.18),#155);
#155=COLOUR_RGB('Strong Stone',0.576470588235294,0.54508278019379,0.392156862745098);
#156=COLOUR_RGB('Medium Gray',0.490196078431373,0.490196078431373,0.490196078431373);
#157=COLOUR_RGB('Light Gray',0.8,0.8,0.8);
#158=DRAUGHTING_PRE_DEFINED_CURVE_FONT('continuous');
#159=DRAUGHTING_PRE_DEFINED_CURVE_FONT('continuous');
#160=DRAUGHTING_PRE_DEFINED_CURVE_FONT('continuous');
#161=AXIS2_PLACEMENT_3D('',#224,#182,#183);
#162=AXIS2_PLACEMENT_3D('MCS',#225,#184,#185);
#163=AXIS2_PLACEMENT_3D('PCS',#226,#186,#187);
#164=AXIS2_PLACEMENT_3D('CIP',#227,#188,#189);
#165=AXIS2_PLACEMENT_3D('',#228,#190,#191);
#166=AXIS2_PLACEMENT_3D('',#230,#192,#193);
#167=AXIS2_PLACEMENT_3D('',#232,#194,#195);
#168=AXIS2_PLACEMENT_3D('',#233,#196,#197);
#169=AXIS2_PLACEMENT_3D('',#235,#198,#199);
#170=AXIS2_PLACEMENT_3D('',#236,#200,#201);
#171=AXIS2_PLACEMENT_3D('',#237,#202,#203);
#172=AXIS2_PLACEMENT_3D('',#238,#204,#205);
#173=AXIS2_PLACEMENT_3D('',#240,#206,#207);
#174=AXIS2_PLACEMENT_3D('',#241,#208,#209);
#175=AXIS2_PLACEMENT_3D('',#243,#210,#211);
#176=AXIS2_PLACEMENT_3D('',#244,#212,#213);
#177=AXIS2_PLACEMENT_3D('',#245,#214,#215);
#178=AXIS2_PLACEMENT_3D('',#247,#216,#217);
#179=AXIS2_PLACEMENT_3D('',#248,#218,#219);
#180=AXIS2_PLACEMENT_3D('',#250,#220,#221);
#181=AXIS2_PLACEMENT_3D('',#251,#222,#223);
#182=DIRECTION('',(0.,0.,1.));
#183=DIRECTION('',(1.,0.,0.));
#184=DIRECTION('',(0.,0.,1.));
#185=DIRECTION('',(1.,0.,0.));
#186=DIRECTION('',(0.,0.,1.));
#187=DIRECTION('',(1.,0.,0.));
#188=DIRECTION('',(0.,0.,1.));
#189=DIRECTION('',(1.,0.,0.));
#190=DIRECTION('',(0.,0.,-1.));
#191=DIRECTION('',(1.,0.,0.));
#192=DIRECTION('',(0.,0.,-1.));
#193=DIRECTION('',(-1.,0.,0.));
#194=DIRECTION('',(0.,0.,-1.));
#195=DIRECTION('',(-1.,0.,0.));
#196=DIRECTION('',(0.,0.,-1.));
#197=DIRECTION('',(-1.,0.,0.));
#198=DIRECTION('',(0.,0.,-1.));
#199=DIRECTION('',(-1.,0.,2.05901896258378E-17));
#200=DIRECTION('',(0.,0.,-1.));
#201=DIRECTION('',(-1.,0.,0.));
#202=DIRECTION('',(0.,0.,1.));
#203=DIRECTION('',(1.,0.,0.));
#204=DIRECTION('',(0.,0.,1.));
#205=DIRECTION('',(1.,0.,0.));
#206=DIRECTION('',(0.,0.,1.));
#207=DIRECTION('',(1.,0.,0.));
#208=DIRECTION('',(0.,0.,-1.));
#209=DIRECTION('',(-1.,0.,0.));
#210=DIRECTION('',(0.,0.,1.));
#211=DIRECTION('',(1.,0.,0.));
#212=DIRECTION('',(0.,0.,-1.));
#213=DIRECTION('',(-1.,0.,0.));
#214=DIRECTION('',(0.,0.,1.));
#215=DIRECTION('',(1.,0.,0.));
#216=DIRECTION('',(0.,0.,1.));
#217=DIRECTION('',(1.,0.,0.));
#218=DIRECTION('',(0.,0.,1.));
#219=DIRECTION('',(1.,0.,0.));
#220=DIRECTION('',(0.,0.,1.));
#221=DIRECTION('',(1.,0.,0.));
#222=DIRECTION('',(0.,0.,-1.));
#223=DIRECTION('',(-1.,0.,0.));
#224=CARTESIAN_POINT('',(0.,0.,0.));
#225=CARTESIAN_POINT('',(0.,0.,0.));
#226=CARTESIAN_POINT('',(0.,1.06581410364015E-14,56.));
#227=CARTESIAN_POINT('',(0.,1.04083408558608E-14,-19.));
#228=CARTESIAN_POINT('',(0.,1.78E-14,0.));
#229=CARTESIAN_POINT('',(12.5,1.78E-14,0.));
#230=CARTESIAN_POINT('',(0.,1.78E-14,54.5));
#231=CARTESIAN_POINT('',(-12.5,1.78E-14,54.5));
#232=CARTESIAN_POINT('',(0.,1.78E-14,58.951754788834));
#233=CARTESIAN_POINT('',(0.,1.78E-14,56.));
#234=CARTESIAN_POINT('',(-11.,1.78E-14,56.));
#235=CARTESIAN_POINT('',(0.,1.78E-14,56.));
#236=CARTESIAN_POINT('',(0.,1.06581410364015E-14,56.));
#237=CARTESIAN_POINT('',(0.,0.,0.));
#238=CARTESIAN_POINT('',(0.,1.78E-14,-11.));
#239=CARTESIAN_POINT('',(12.5,1.78E-14,-11.));
#240=CARTESIAN_POINT('',(0.,1.78E-14,-11.));
#241=CARTESIAN_POINT('',(0.,1.78E-14,-19.));
#242=CARTESIAN_POINT('',(-4.49999999999998,1.78E-14,-19.));
#243=CARTESIAN_POINT('',(0.,4.50000000000002,-19.));
#244=CARTESIAN_POINT('',(0.,1.73472347597681E-14,-19.));
#245=CARTESIAN_POINT('',(0.,1.78E-14,0.));
#246=CARTESIAN_POINT('',(12.5,1.78E-14,0.));
#247=CARTESIAN_POINT('',(0.,0.,0.));
#248=CARTESIAN_POINT('',(0.,1.78E-14,-11.));
#249=CARTESIAN_POINT('',(12.5,1.78E-14,-11.));
#250=CARTESIAN_POINT('',(0.,1.78E-14,-11.));
#251=CARTESIAN_POINT('',(0.,1.78E-14,58.951754788834));
#252=MECHANICAL_DESIGN_GEOMETRIC_PRESENTATION_REPRESENTATION('',(#140,#141,
#142,#143,#144,#145),#253);
#253=(
GEOMETRIC_REPRESENTATION_CONTEXT(3)
GLOBAL_UNCERTAINTY_ASSIGNED_CONTEXT((#254))
GLOBAL_UNIT_ASSIGNED_CONTEXT((#260,#256,#255))
REPRESENTATION_CONTEXT('31800-MEGA','TOP_LEVEL_ASSEMBLY_PART')
);
#254=UNCERTAINTY_MEASURE_WITH_UNIT(LENGTH_MEASURE(2.E-5),#260,
'DISTANCE_ACCURACY_VALUE','Maximum Tolerance applied to model');
#255=(
NAMED_UNIT(*)
SI_UNIT($,.STERADIAN.)
SOLID_ANGLE_UNIT()
);
#256=(
CONVERSION_BASED_UNIT('DEGREE',#258)
NAMED_UNIT(#257)
PLANE_ANGLE_UNIT()
);
#257=DIMENSIONAL_EXPONENTS(0.,0.,0.,0.,0.,0.,0.);
#258=PLANE_ANGLE_MEASURE_WITH_UNIT(PLANE_ANGLE_MEASURE(0.0174532925),#259);
#259=(
NAMED_UNIT(*)
PLANE_ANGLE_UNIT()
SI_UNIT($,.RADIAN.)
);
#260=(
LENGTH_UNIT()
NAMED_UNIT(*)
SI_UNIT(.MILLI.,.METRE.)
);
ENDSEC;
END-ISO-10303-21;
