ISO-10303-21;
HEADER;
/* Generated by software containing ST-Developer
 * from STEP Tools, Inc. (www.steptools.com) 
 */
/* OPTION: using custom schema-name function */

FILE_DESCRIPTION(
/* description */ (''),
/* implementation_level */ '2;1');

FILE_NAME(
/* name */ '31400-MEGAW.stp',
/* time_stamp */ '2017-12-13T13:51:25+05:00',
/* author */ (''),
/* organization */ (''),
/* preprocessor_version */ 'ST-DEVELOPER v16',
/* originating_system */ 'SIEMENS PLM Software NX 11.0',
/* authorisation */ '');

FILE_SCHEMA (('AUTOMOTIVE_DESIGN { 1 0 10303 214 3 1 1 1 }'));
ENDSEC;

DATA;
#10=CONSTRUCTIVE_GEOMETRY_REPRESENTATION_RELATIONSHIP(
'supplemental geometry','',#32,#11);
#11=CONSTRUCTIVE_GEOMETRY_REPRESENTATION('supplemental geometry',(#167,
#168,#169,#170),#262);
#12=PROPERTY_DEFINITION_REPRESENTATION(#16,#14);
#13=PROPERTY_DEFINITION_REPRESENTATION(#17,#15);
#14=REPRESENTATION('',(#18),#262);
#15=REPRESENTATION('',(#19),#262);
#16=PROPERTY_DEFINITION('pmi validation property','',#23);
#17=PROPERTY_DEFINITION('pmi validation property','',#23);
#18=VALUE_REPRESENTATION_ITEM('number of annotations',COUNT_MEASURE(0.));
#19=VALUE_REPRESENTATION_ITEM('number of views',COUNT_MEASURE(0.));
#20=SHAPE_REPRESENTATION_RELATIONSHIP('None',
'relationship between 31400-MEGAW-None and 31400-MEGAW-None',#32,#21);
#21=ADVANCED_BREP_SHAPE_REPRESENTATION('31400-MEGAW-None',(#49,#50,#51),
#262);
#22=SHAPE_DEFINITION_REPRESENTATION(#23,#32);
#23=PRODUCT_DEFINITION_SHAPE('','',#24);
#24=PRODUCT_DEFINITION(' ','',#26,#25);
#25=PRODUCT_DEFINITION_CONTEXT('part definition',#31,'design');
#26=PRODUCT_DEFINITION_FORMATION_WITH_SPECIFIED_SOURCE(' ',' ',#28,
 .NOT_KNOWN.);
#27=PRODUCT_RELATED_PRODUCT_CATEGORY('part','',(#28));
#28=PRODUCT('31400-MEGAW','31400-MEGAW',' ',(#29));
#29=PRODUCT_CONTEXT(' ',#31,'mechanical');
#30=APPLICATION_PROTOCOL_DEFINITION('international standard',
'automotive_design',2010,#31);
#31=APPLICATION_CONTEXT(
'core data for automotive mechanical design processes');
#32=SHAPE_REPRESENTATION('31400-MEGAW-None',(#166),#262);
#33=TOROIDAL_SURFACE('',#180,6.,4.);
#34=SURFACE_STYLE_USAGE(.BOTH.,#37);
#35=SURFACE_STYLE_USAGE(.BOTH.,#38);
#36=SURFACE_STYLE_USAGE(.BOTH.,#39);
#37=SURFACE_SIDE_STYLE('',(#40));
#38=SURFACE_SIDE_STYLE('',(#41));
#39=SURFACE_SIDE_STYLE('',(#42));
#40=SURFACE_STYLE_FILL_AREA(#43);
#41=SURFACE_STYLE_FILL_AREA(#44);
#42=SURFACE_STYLE_FILL_AREA(#45);
#43=FILL_AREA_STYLE('',(#46));
#44=FILL_AREA_STYLE('',(#47));
#45=FILL_AREA_STYLE('',(#48));
#46=FILL_AREA_STYLE_COLOUR('',#160);
#47=FILL_AREA_STYLE_COLOUR('',#161);
#48=FILL_AREA_STYLE_COLOUR('',#160);
#49=MANIFOLD_SOLID_BREP('NOCUT',#52);
#50=MANIFOLD_SOLID_BREP('CUT',#53);
#51=MANIFOLD_SOLID_BREP('NOCUT',#54);
#52=CLOSED_SHELL('',(#66,#67,#68,#69));
#53=CLOSED_SHELL('',(#70,#71,#72));
#54=CLOSED_SHELL('',(#73,#74,#75));
#55=CONICAL_SURFACE('',#176,5.,44.9999999999996);
#56=CYLINDRICAL_SURFACE('',#175,6.);
#57=CYLINDRICAL_SURFACE('',#187,6.);
#58=FACE_BOUND('',#89,.T.);
#59=FACE_BOUND('',#90,.T.);
#60=FACE_BOUND('',#91,.T.);
#61=FACE_BOUND('',#92,.T.);
#62=FACE_BOUND('',#94,.T.);
#63=FACE_BOUND('',#95,.T.);
#64=FACE_BOUND('',#100,.T.);
#65=FACE_BOUND('',#101,.T.);
#66=ADVANCED_FACE('',(#82),#76,.T.);
#67=ADVANCED_FACE('',(#58,#59),#56,.T.);
#68=ADVANCED_FACE('',(#60,#61),#55,.T.);
#69=ADVANCED_FACE('',(#83),#77,.F.);
#70=ADVANCED_FACE('',(#62,#63),#33,.F.);
#71=ADVANCED_FACE('',(#84),#78,.T.);
#72=ADVANCED_FACE('',(#85),#79,.T.);
#73=ADVANCED_FACE('',(#86),#80,.T.);
#74=ADVANCED_FACE('',(#87),#81,.T.);
#75=ADVANCED_FACE('',(#64,#65),#57,.T.);
#76=PLANE('',#172);
#77=PLANE('',#177);
#78=PLANE('',#181);
#79=PLANE('',#182);
#80=PLANE('',#184);
#81=PLANE('',#186);
#82=FACE_OUTER_BOUND('',#88,.T.);
#83=FACE_OUTER_BOUND('',#93,.T.);
#84=FACE_OUTER_BOUND('',#96,.T.);
#85=FACE_OUTER_BOUND('',#97,.T.);
#86=FACE_OUTER_BOUND('',#98,.T.);
#87=FACE_OUTER_BOUND('',#99,.T.);
#88=EDGE_LOOP('',(#102));
#89=EDGE_LOOP('',(#103));
#90=EDGE_LOOP('',(#104));
#91=EDGE_LOOP('',(#105));
#92=EDGE_LOOP('',(#106));
#93=EDGE_LOOP('',(#107));
#94=EDGE_LOOP('',(#108));
#95=EDGE_LOOP('',(#109));
#96=EDGE_LOOP('',(#110));
#97=EDGE_LOOP('',(#111));
#98=EDGE_LOOP('',(#112));
#99=EDGE_LOOP('',(#113));
#100=EDGE_LOOP('',(#114));
#101=EDGE_LOOP('',(#115));
#102=ORIENTED_EDGE('',*,*,#123,.T.);
#103=ORIENTED_EDGE('',*,*,#124,.F.);
#104=ORIENTED_EDGE('',*,*,#125,.T.);
#105=ORIENTED_EDGE('',*,*,#125,.F.);
#106=ORIENTED_EDGE('',*,*,#123,.F.);
#107=ORIENTED_EDGE('',*,*,#124,.T.);
#108=ORIENTED_EDGE('',*,*,#126,.T.);
#109=ORIENTED_EDGE('',*,*,#127,.F.);
#110=ORIENTED_EDGE('',*,*,#126,.F.);
#111=ORIENTED_EDGE('',*,*,#127,.T.);
#112=ORIENTED_EDGE('',*,*,#128,.F.);
#113=ORIENTED_EDGE('',*,*,#129,.F.);
#114=ORIENTED_EDGE('',*,*,#129,.T.);
#115=ORIENTED_EDGE('',*,*,#128,.T.);
#116=VERTEX_POINT('',#238);
#117=VERTEX_POINT('',#241);
#118=VERTEX_POINT('',#243);
#119=VERTEX_POINT('',#248);
#120=VERTEX_POINT('',#250);
#121=VERTEX_POINT('',#255);
#122=VERTEX_POINT('',#258);
#123=EDGE_CURVE('',#116,#116,#130,.T.);
#124=EDGE_CURVE('',#117,#117,#131,.T.);
#125=EDGE_CURVE('',#118,#118,#132,.T.);
#126=EDGE_CURVE('',#119,#119,#133,.T.);
#127=EDGE_CURVE('',#120,#120,#134,.T.);
#128=EDGE_CURVE('',#121,#121,#135,.T.);
#129=EDGE_CURVE('',#122,#122,#136,.T.);
#130=CIRCLE('',#171,5.00000000000001);
#131=CIRCLE('',#173,6.);
#132=CIRCLE('',#174,6.);
#133=CIRCLE('',#178,5.99999999999999);
#134=CIRCLE('',#179,2.);
#135=CIRCLE('',#183,6.);
#136=CIRCLE('',#185,5.99999999999999);
#137=PRESENTATION_LAYER_ASSIGNMENT('1','Layer 1',(#167,#168,#169,#170,#49));
#138=PRESENTATION_LAYER_ASSIGNMENT('3','Layer 3',(#50));
#139=PRESENTATION_LAYER_ASSIGNMENT('2','Layer 2',(#51));
#140=STYLED_ITEM('',(#147),#167);
#141=STYLED_ITEM('',(#148),#168);
#142=STYLED_ITEM('',(#149),#169);
#143=STYLED_ITEM('',(#150),#170);
#144=STYLED_ITEM('',(#151),#49);
#145=STYLED_ITEM('',(#152),#50);
#146=STYLED_ITEM('',(#153),#51);
#147=PRESENTATION_STYLE_ASSIGNMENT((#154));
#148=PRESENTATION_STYLE_ASSIGNMENT((#155));
#149=PRESENTATION_STYLE_ASSIGNMENT((#156));
#150=PRESENTATION_STYLE_ASSIGNMENT((#157));
#151=PRESENTATION_STYLE_ASSIGNMENT((#34));
#152=PRESENTATION_STYLE_ASSIGNMENT((#35));
#153=PRESENTATION_STYLE_ASSIGNMENT((#36));
#154=CURVE_STYLE('',#162,POSITIVE_LENGTH_MEASURE(0.18),#158);
#155=CURVE_STYLE('',#163,POSITIVE_LENGTH_MEASURE(0.18),#158);
#156=CURVE_STYLE('',#164,POSITIVE_LENGTH_MEASURE(0.18),#158);
#157=CURVE_STYLE('',#165,POSITIVE_LENGTH_MEASURE(0.18),#159);
#158=COLOUR_RGB('Strong Stone',0.576470588235294,0.54508278019379,0.392156862745098);
#159=COLOUR_RGB('Medium Maroon',0.6,0.4,0.4);
#160=COLOUR_RGB('Medium Gray',0.490196078431373,0.490196078431373,0.490196078431373);
#161=COLOUR_RGB('Light Gray',0.8,0.8,0.8);
#162=DRAUGHTING_PRE_DEFINED_CURVE_FONT('continuous');
#163=DRAUGHTING_PRE_DEFINED_CURVE_FONT('continuous');
#164=DRAUGHTING_PRE_DEFINED_CURVE_FONT('continuous');
#165=DRAUGHTING_PRE_DEFINED_CURVE_FONT('continuous');
#166=AXIS2_PLACEMENT_3D('',#232,#188,#189);
#167=AXIS2_PLACEMENT_3D('MCS',#233,#190,#191);
#168=AXIS2_PLACEMENT_3D('CIP',#234,#192,#193);
#169=AXIS2_PLACEMENT_3D('PCS',#235,#194,#195);
#170=AXIS2_PLACEMENT_3D('LCS',#236,#196,#197);
#171=AXIS2_PLACEMENT_3D('',#237,#198,#199);
#172=AXIS2_PLACEMENT_3D('',#239,#200,#201);
#173=AXIS2_PLACEMENT_3D('',#240,#202,#203);
#174=AXIS2_PLACEMENT_3D('',#242,#204,#205);
#175=AXIS2_PLACEMENT_3D('',#244,#206,#207);
#176=AXIS2_PLACEMENT_3D('',#245,#208,#209);
#177=AXIS2_PLACEMENT_3D('',#246,#210,#211);
#178=AXIS2_PLACEMENT_3D('',#247,#212,#213);
#179=AXIS2_PLACEMENT_3D('',#249,#214,#215);
#180=AXIS2_PLACEMENT_3D('',#251,#216,#217);
#181=AXIS2_PLACEMENT_3D('',#252,#218,#219);
#182=AXIS2_PLACEMENT_3D('',#253,#220,#221);
#183=AXIS2_PLACEMENT_3D('',#254,#222,#223);
#184=AXIS2_PLACEMENT_3D('',#256,#224,#225);
#185=AXIS2_PLACEMENT_3D('',#257,#226,#227);
#186=AXIS2_PLACEMENT_3D('',#259,#228,#229);
#187=AXIS2_PLACEMENT_3D('',#260,#230,#231);
#188=DIRECTION('',(0.,0.,1.));
#189=DIRECTION('',(1.,0.,0.));
#190=DIRECTION('',(0.,0.,1.));
#191=DIRECTION('',(1.,0.,0.));
#192=DIRECTION('',(0.,0.,1.));
#193=DIRECTION('',(1.,0.,0.));
#194=DIRECTION('',(0.,0.,1.));
#195=DIRECTION('',(1.,0.,0.));
#196=DIRECTION('',(0.,0.,1.));
#197=DIRECTION('',(1.,0.,0.));
#198=DIRECTION('',(0.,-6.92529140644595E-16,1.));
#199=DIRECTION('',(0.,-1.,0.));
#200=DIRECTION('',(0.,-6.92529140644595E-16,1.));
#201=DIRECTION('',(0.,1.,6.93889390390723E-16));
#202=DIRECTION('',(0.,0.,-1.));
#203=DIRECTION('',(1.,0.,0.));
#204=DIRECTION('',(0.,6.92529140644594E-16,-1.));
#205=DIRECTION('',(0.,-1.,-1.15648231731787E-15));
#206=DIRECTION('',(0.,-6.92529140644595E-16,1.));
#207=DIRECTION('',(0.,1.,5.78241158658936E-16));
#208=DIRECTION('',(0.,6.92529140644594E-16,-1.));
#209=DIRECTION('',(0.,-1.,-6.21393483931999E-16));
#210=DIRECTION('',(0.,0.,1.));
#211=DIRECTION('',(-1.,0.,0.));
#212=DIRECTION('',(0.,3.37050134514808E-16,-1.));
#213=DIRECTION('',(0.,1.,5.78241158658937E-16));
#214=DIRECTION('',(0.,3.37050134514808E-16,-1.));
#215=DIRECTION('',(0.,1.,0.));
#216=DIRECTION('',(0.,3.37050134514808E-16,-1.));
#217=DIRECTION('',(0.,-1.,-3.46944695195361E-16));
#218=DIRECTION('',(0.,-3.37050134514808E-16,1.));
#219=DIRECTION('',(0.,1.,3.36536354339501E-16));
#220=DIRECTION('',(0.,3.37050134514808E-16,-1.));
#221=DIRECTION('',(0.,-1.,-3.36536354339501E-16));
#222=DIRECTION('',(0.,0.,-1.));
#223=DIRECTION('',(1.,0.,0.));
#224=DIRECTION('',(0.,0.,1.));
#225=DIRECTION('',(-1.,0.,0.));
#226=DIRECTION('',(0.,-6.92529140644595E-16,1.));
#227=DIRECTION('',(0.,-1.,-5.78241158658937E-16));
#228=DIRECTION('',(0.,6.92529140644595E-16,-1.));
#229=DIRECTION('',(0.,-1.,-6.93889390390723E-16));
#230=DIRECTION('',(0.,-6.92529140644595E-16,1.));
#231=DIRECTION('',(0.,1.,5.78241158658936E-16));
#232=CARTESIAN_POINT('',(0.,0.,0.));
#233=CARTESIAN_POINT('',(0.,0.,0.));
#234=CARTESIAN_POINT('',(0.,2.50910403565285E-14,-30.));
#235=CARTESIAN_POINT('',(0.,-2.54267291672969E-14,45.));
#236=CARTESIAN_POINT('',(0.,0.,22.4));
#237=CARTESIAN_POINT('',(0.,-2.54267291672969E-14,45.));
#238=CARTESIAN_POINT('',(0.,-5.00000000000003,45.));
#239=CARTESIAN_POINT('',(0.,-2.54267291672969E-14,45.));
#240=CARTESIAN_POINT('',(0.,1.26623735681558E-14,0.));
#241=CARTESIAN_POINT('',(6.,1.26623735681558E-14,0.));
#242=CARTESIAN_POINT('',(0.,-2.47342000266523E-14,44.));
#243=CARTESIAN_POINT('',(0.,-6.00000000000002,44.));
#244=CARTESIAN_POINT('',(0.,2.37428398184693E-14,-16.));
#245=CARTESIAN_POINT('',(0.,-2.54267291672969E-14,45.));
#246=CARTESIAN_POINT('',(0.,0.,0.));
#247=CARTESIAN_POINT('',(0.,2.37428398184693E-14,-26.));
#248=CARTESIAN_POINT('',(0.,6.00000000000001,-26.));
#249=CARTESIAN_POINT('',(0.,2.50910403565285E-14,-30.));
#250=CARTESIAN_POINT('',(0.,2.00000000000003,-30.));
#251=CARTESIAN_POINT('',(0.,2.51534904016637E-14,-30.));
#252=CARTESIAN_POINT('',(0.,6.00000000000001,-26.));
#253=CARTESIAN_POINT('',(0.,2.50910403565285E-14,-30.));
#254=CARTESIAN_POINT('',(0.,1.26623735681558E-14,0.));
#255=CARTESIAN_POINT('',(6.,1.26623735681558E-14,0.));
#256=CARTESIAN_POINT('',(0.,0.,0.));
#257=CARTESIAN_POINT('',(0.,2.37428398184693E-14,-26.));
#258=CARTESIAN_POINT('',(0.,-5.99999999999996,-26.));
#259=CARTESIAN_POINT('',(0.,6.00000000000001,-26.));
#260=CARTESIAN_POINT('',(0.,2.37428398184693E-14,-16.));
#261=MECHANICAL_DESIGN_GEOMETRIC_PRESENTATION_REPRESENTATION('',(#140,#141,
#142,#143,#144,#145,#146),#262);
#262=(
GEOMETRIC_REPRESENTATION_CONTEXT(3)
GLOBAL_UNCERTAINTY_ASSIGNED_CONTEXT((#263))
GLOBAL_UNIT_ASSIGNED_CONTEXT((#269,#265,#264))
REPRESENTATION_CONTEXT('31400-MEGAW','TOP_LEVEL_ASSEMBLY_PART')
);
#263=UNCERTAINTY_MEASURE_WITH_UNIT(LENGTH_MEASURE(2.E-5),#269,
'DISTANCE_ACCURACY_VALUE','Maximum Tolerance applied to model');
#264=(
NAMED_UNIT(*)
SI_UNIT($,.STERADIAN.)
SOLID_ANGLE_UNIT()
);
#265=(
CONVERSION_BASED_UNIT('DEGREE',#267)
NAMED_UNIT(#266)
PLANE_ANGLE_UNIT()
);
#266=DIMENSIONAL_EXPONENTS(0.,0.,0.,0.,0.,0.,0.);
#267=PLANE_ANGLE_MEASURE_WITH_UNIT(PLANE_ANGLE_MEASURE(0.0174532925),#268);
#268=(
NAMED_UNIT(*)
PLANE_ANGLE_UNIT()
SI_UNIT($,.RADIAN.)
);
#269=(
LENGTH_UNIT()
NAMED_UNIT(*)
SI_UNIT(.MILLI.,.METRE.)
);
ENDSEC;
END-ISO-10303-21;
