ISO-10303-21;
HEADER;
/* Generated by software containing ST-Developer
 * from STEP Tools, Inc. (www.steptools.com) 
 */
/* OPTION: using custom schema-name function */

FILE_DESCRIPTION(
/* description */ (''),
/* implementation_level */ '2;1');

FILE_NAME(
/* name */ '31200-MEGA.stp',
/* time_stamp */ '2017-12-13T13:51:27+05:00',
/* author */ (''),
/* organization */ (''),
/* preprocessor_version */ 'ST-DEVELOPER v16',
/* originating_system */ 'SIEMENS PLM Software NX 11.0',
/* authorisation */ '');

FILE_SCHEMA (('AUTOMOTIVE_DESIGN { 1 0 10303 214 3 1 1 1 }'));
ENDSEC;

DATA;
#10=CONSTRUCTIVE_GEOMETRY_REPRESENTATION_RELATIONSHIP(
'supplemental geometry','',#32,#11);
#11=CONSTRUCTIVE_GEOMETRY_REPRESENTATION('supplemental geometry',(#162,
#163,#164),#253);
#12=PROPERTY_DEFINITION_REPRESENTATION(#16,#14);
#13=PROPERTY_DEFINITION_REPRESENTATION(#17,#15);
#14=REPRESENTATION('',(#18),#253);
#15=REPRESENTATION('',(#19),#253);
#16=PROPERTY_DEFINITION('pmi validation property','',#23);
#17=PROPERTY_DEFINITION('pmi validation property','',#23);
#18=VALUE_REPRESENTATION_ITEM('number of annotations',COUNT_MEASURE(0.));
#19=VALUE_REPRESENTATION_ITEM('number of views',COUNT_MEASURE(0.));
#20=SHAPE_REPRESENTATION_RELATIONSHIP('None',
'relationship between 31200-MEGA-None and 31200-MEGA-None',#32,#21);
#21=ADVANCED_BREP_SHAPE_REPRESENTATION('31200-MEGA-None',(#49,#50,#51),
#253);
#22=SHAPE_DEFINITION_REPRESENTATION(#23,#32);
#23=PRODUCT_DEFINITION_SHAPE('','',#24);
#24=PRODUCT_DEFINITION(' ','',#26,#25);
#25=PRODUCT_DEFINITION_CONTEXT('part definition',#31,'design');
#26=PRODUCT_DEFINITION_FORMATION_WITH_SPECIFIED_SOURCE(' ',' ',#28,
 .NOT_KNOWN.);
#27=PRODUCT_RELATED_PRODUCT_CATEGORY('part','',(#28));
#28=PRODUCT('31200-MEGA','31200-MEGA',' ',(#29));
#29=PRODUCT_CONTEXT(' ',#31,'mechanical');
#30=APPLICATION_PROTOCOL_DEFINITION('international standard',
'automotive_design',2010,#31);
#31=APPLICATION_CONTEXT(
'core data for automotive mechanical design processes');
#32=SHAPE_REPRESENTATION('31200-MEGA-None',(#161),#253);
#33=TOROIDAL_SURFACE('',#174,4.00000000000002,2.);
#34=SURFACE_STYLE_USAGE(.BOTH.,#37);
#35=SURFACE_STYLE_USAGE(.BOTH.,#38);
#36=SURFACE_STYLE_USAGE(.BOTH.,#39);
#37=SURFACE_SIDE_STYLE('',(#40));
#38=SURFACE_SIDE_STYLE('',(#41));
#39=SURFACE_SIDE_STYLE('',(#42));
#40=SURFACE_STYLE_FILL_AREA(#43);
#41=SURFACE_STYLE_FILL_AREA(#44);
#42=SURFACE_STYLE_FILL_AREA(#45);
#43=FILL_AREA_STYLE('',(#46));
#44=FILL_AREA_STYLE('',(#47));
#45=FILL_AREA_STYLE('',(#48));
#46=FILL_AREA_STYLE_COLOUR('',#156);
#47=FILL_AREA_STYLE_COLOUR('',#157);
#48=FILL_AREA_STYLE_COLOUR('',#156);
#49=MANIFOLD_SOLID_BREP('NOCUT',#52);
#50=MANIFOLD_SOLID_BREP('CUT',#53);
#51=MANIFOLD_SOLID_BREP('NOCUT',#54);
#52=CLOSED_SHELL('',(#66,#67,#68,#69));
#53=CLOSED_SHELL('',(#70,#71,#72));
#54=CLOSED_SHELL('',(#73,#74,#75));
#55=CONICAL_SURFACE('',#170,3.5,45.);
#56=CYLINDRICAL_SURFACE('',#169,4.);
#57=CYLINDRICAL_SURFACE('',#181,4.);
#58=FACE_BOUND('',#89,.T.);
#59=FACE_BOUND('',#90,.T.);
#60=FACE_BOUND('',#91,.T.);
#61=FACE_BOUND('',#92,.T.);
#62=FACE_BOUND('',#94,.T.);
#63=FACE_BOUND('',#95,.T.);
#64=FACE_BOUND('',#100,.T.);
#65=FACE_BOUND('',#101,.T.);
#66=ADVANCED_FACE('',(#82),#76,.T.);
#67=ADVANCED_FACE('',(#58,#59),#56,.T.);
#68=ADVANCED_FACE('',(#60,#61),#55,.T.);
#69=ADVANCED_FACE('',(#83),#77,.F.);
#70=ADVANCED_FACE('',(#62,#63),#33,.F.);
#71=ADVANCED_FACE('',(#84),#78,.T.);
#72=ADVANCED_FACE('',(#85),#79,.T.);
#73=ADVANCED_FACE('',(#86),#80,.T.);
#74=ADVANCED_FACE('',(#87),#81,.T.);
#75=ADVANCED_FACE('',(#64,#65),#57,.T.);
#76=PLANE('',#166);
#77=PLANE('',#171);
#78=PLANE('',#175);
#79=PLANE('',#176);
#80=PLANE('',#178);
#81=PLANE('',#180);
#82=FACE_OUTER_BOUND('',#88,.T.);
#83=FACE_OUTER_BOUND('',#93,.T.);
#84=FACE_OUTER_BOUND('',#96,.T.);
#85=FACE_OUTER_BOUND('',#97,.T.);
#86=FACE_OUTER_BOUND('',#98,.T.);
#87=FACE_OUTER_BOUND('',#99,.T.);
#88=EDGE_LOOP('',(#102));
#89=EDGE_LOOP('',(#103));
#90=EDGE_LOOP('',(#104));
#91=EDGE_LOOP('',(#105));
#92=EDGE_LOOP('',(#106));
#93=EDGE_LOOP('',(#107));
#94=EDGE_LOOP('',(#108));
#95=EDGE_LOOP('',(#109));
#96=EDGE_LOOP('',(#110));
#97=EDGE_LOOP('',(#111));
#98=EDGE_LOOP('',(#112));
#99=EDGE_LOOP('',(#113));
#100=EDGE_LOOP('',(#114));
#101=EDGE_LOOP('',(#115));
#102=ORIENTED_EDGE('',*,*,#123,.T.);
#103=ORIENTED_EDGE('',*,*,#124,.F.);
#104=ORIENTED_EDGE('',*,*,#125,.T.);
#105=ORIENTED_EDGE('',*,*,#125,.F.);
#106=ORIENTED_EDGE('',*,*,#123,.F.);
#107=ORIENTED_EDGE('',*,*,#124,.T.);
#108=ORIENTED_EDGE('',*,*,#126,.T.);
#109=ORIENTED_EDGE('',*,*,#127,.F.);
#110=ORIENTED_EDGE('',*,*,#126,.F.);
#111=ORIENTED_EDGE('',*,*,#127,.T.);
#112=ORIENTED_EDGE('',*,*,#128,.F.);
#113=ORIENTED_EDGE('',*,*,#129,.F.);
#114=ORIENTED_EDGE('',*,*,#129,.T.);
#115=ORIENTED_EDGE('',*,*,#128,.T.);
#116=VERTEX_POINT('',#229);
#117=VERTEX_POINT('',#232);
#118=VERTEX_POINT('',#234);
#119=VERTEX_POINT('',#239);
#120=VERTEX_POINT('',#241);
#121=VERTEX_POINT('',#246);
#122=VERTEX_POINT('',#249);
#123=EDGE_CURVE('',#116,#116,#130,.T.);
#124=EDGE_CURVE('',#117,#117,#131,.T.);
#125=EDGE_CURVE('',#118,#118,#132,.T.);
#126=EDGE_CURVE('',#119,#119,#133,.T.);
#127=EDGE_CURVE('',#120,#120,#134,.T.);
#128=EDGE_CURVE('',#121,#121,#135,.T.);
#129=EDGE_CURVE('',#122,#122,#136,.T.);
#130=CIRCLE('',#165,3.50000000000001);
#131=CIRCLE('',#167,4.);
#132=CIRCLE('',#168,4.);
#133=CIRCLE('',#172,3.99999999999999);
#134=CIRCLE('',#173,2.00000000000003);
#135=CIRCLE('',#177,4.);
#136=CIRCLE('',#179,3.99999999999999);
#137=PRESENTATION_LAYER_ASSIGNMENT('1','Layer 1',(#162,#163,#164,#49));
#138=PRESENTATION_LAYER_ASSIGNMENT('3','Layer 3',(#50));
#139=PRESENTATION_LAYER_ASSIGNMENT('2','Layer 2',(#51));
#140=STYLED_ITEM('',(#146),#162);
#141=STYLED_ITEM('',(#147),#163);
#142=STYLED_ITEM('',(#148),#164);
#143=STYLED_ITEM('',(#149),#49);
#144=STYLED_ITEM('',(#150),#50);
#145=STYLED_ITEM('',(#151),#51);
#146=PRESENTATION_STYLE_ASSIGNMENT((#152));
#147=PRESENTATION_STYLE_ASSIGNMENT((#153));
#148=PRESENTATION_STYLE_ASSIGNMENT((#154));
#149=PRESENTATION_STYLE_ASSIGNMENT((#34));
#150=PRESENTATION_STYLE_ASSIGNMENT((#35));
#151=PRESENTATION_STYLE_ASSIGNMENT((#36));
#152=CURVE_STYLE('',#158,POSITIVE_LENGTH_MEASURE(0.18),#155);
#153=CURVE_STYLE('',#159,POSITIVE_LENGTH_MEASURE(0.18),#155);
#154=CURVE_STYLE('',#160,POSITIVE_LENGTH_MEASURE(0.18),#155);
#155=COLOUR_RGB('Strong Stone',0.576470588235294,0.54508278019379,0.392156862745098);
#156=COLOUR_RGB('Medium Gray',0.490196078431373,0.490196078431373,0.490196078431373);
#157=COLOUR_RGB('Light Gray',0.8,0.8,0.8);
#158=DRAUGHTING_PRE_DEFINED_CURVE_FONT('continuous');
#159=DRAUGHTING_PRE_DEFINED_CURVE_FONT('continuous');
#160=DRAUGHTING_PRE_DEFINED_CURVE_FONT('continuous');
#161=AXIS2_PLACEMENT_3D('',#224,#182,#183);
#162=AXIS2_PLACEMENT_3D('MCS',#225,#184,#185);
#163=AXIS2_PLACEMENT_3D('CIP',#226,#186,#187);
#164=AXIS2_PLACEMENT_3D('PCS',#227,#188,#189);
#165=AXIS2_PLACEMENT_3D('',#228,#190,#191);
#166=AXIS2_PLACEMENT_3D('',#230,#192,#193);
#167=AXIS2_PLACEMENT_3D('',#231,#194,#195);
#168=AXIS2_PLACEMENT_3D('',#233,#196,#197);
#169=AXIS2_PLACEMENT_3D('',#235,#198,#199);
#170=AXIS2_PLACEMENT_3D('',#236,#200,#201);
#171=AXIS2_PLACEMENT_3D('',#237,#202,#203);
#172=AXIS2_PLACEMENT_3D('',#238,#204,#205);
#173=AXIS2_PLACEMENT_3D('',#240,#206,#207);
#174=AXIS2_PLACEMENT_3D('',#242,#208,#209);
#175=AXIS2_PLACEMENT_3D('',#243,#210,#211);
#176=AXIS2_PLACEMENT_3D('',#244,#212,#213);
#177=AXIS2_PLACEMENT_3D('',#245,#214,#215);
#178=AXIS2_PLACEMENT_3D('',#247,#216,#217);
#179=AXIS2_PLACEMENT_3D('',#248,#218,#219);
#180=AXIS2_PLACEMENT_3D('',#250,#220,#221);
#181=AXIS2_PLACEMENT_3D('',#251,#222,#223);
#182=DIRECTION('',(0.,0.,1.));
#183=DIRECTION('',(1.,0.,0.));
#184=DIRECTION('',(0.,0.,1.));
#185=DIRECTION('',(1.,0.,0.));
#186=DIRECTION('',(0.,0.,1.));
#187=DIRECTION('',(1.,0.,0.));
#188=DIRECTION('',(0.,0.,1.));
#189=DIRECTION('',(1.,0.,0.));
#190=DIRECTION('',(0.,-7.21996392031564E-16,1.));
#191=DIRECTION('',(0.,-1.,0.));
#192=DIRECTION('',(0.,-7.21996392031564E-16,1.));
#193=DIRECTION('',(0.,1.,7.21644966006352E-16));
#194=DIRECTION('',(0.,0.,-1.));
#195=DIRECTION('',(1.,0.,0.));
#196=DIRECTION('',(0.,7.21996392031558E-16,-1.));
#197=DIRECTION('',(0.,-1.,0.));
#198=DIRECTION('',(0.,-7.21996392031564E-16,1.));
#199=DIRECTION('',(0.,1.,8.67361737988404E-16));
#200=DIRECTION('',(0.,7.21996392031558E-16,-1.));
#201=DIRECTION('',(0.,-1.,-7.46786787864455E-16));
#202=DIRECTION('',(0.,0.,1.));
#203=DIRECTION('',(-1.,0.,0.));
#204=DIRECTION('',(0.,-1.26982097271186E-14,-1.));
#205=DIRECTION('',(0.,1.,-1.21430643318377E-14));
#206=DIRECTION('',(0.,-1.26982097271186E-14,-1.));
#207=DIRECTION('',(0.,1.,-1.38777878078142E-14));
#208=DIRECTION('',(0.,-1.26982097271186E-14,-1.));
#209=DIRECTION('',(0.,-1.,1.27213054904965E-14));
#210=DIRECTION('',(0.,1.26982097271186E-14,1.));
#211=DIRECTION('',(0.,1.,-1.26981758441502E-14));
#212=DIRECTION('',(0.,-1.26982097271186E-14,-1.));
#213=DIRECTION('',(0.,-1.,1.26981758441502E-14));
#214=DIRECTION('',(0.,0.,-1.));
#215=DIRECTION('',(1.,0.,0.));
#216=DIRECTION('',(0.,0.,1.));
#217=DIRECTION('',(-1.,0.,0.));
#218=DIRECTION('',(0.,-7.21996392031564E-16,1.));
#219=DIRECTION('',(0.,-1.,0.));
#220=DIRECTION('',(0.,7.21996392031564E-16,-1.));
#221=DIRECTION('',(0.,-1.,-7.21644966006352E-16));
#222=DIRECTION('',(0.,-7.21996392031564E-16,1.));
#223=DIRECTION('',(0.,1.,8.67361737988404E-16));
#224=CARTESIAN_POINT('',(0.,0.,0.));
#225=CARTESIAN_POINT('',(0.,0.,0.));
#226=CARTESIAN_POINT('',(0.,-9.80023896236488E-16,-39.));
#227=CARTESIAN_POINT('',(0.,-2.82893410603038E-14,36.));
#228=CARTESIAN_POINT('',(0.,-2.82893410603038E-14,36.));
#229=CARTESIAN_POINT('',(0.,-3.50000000000004,36.));
#230=CARTESIAN_POINT('',(0.,-2.82893410603039E-14,36.));
#231=CARTESIAN_POINT('',(0.,1.28644532854953E-14,0.));
#232=CARTESIAN_POINT('',(4.,1.28644532854953E-14,0.));
#233=CARTESIAN_POINT('',(0.,-2.79283428642881E-14,35.5));
#234=CARTESIAN_POINT('',(0.,-4.00000000000003,35.5));
#235=CARTESIAN_POINT('',(0.,2.44163955580003E-14,-16.));
#236=CARTESIAN_POINT('',(0.,-2.82893410603039E-14,36.));
#237=CARTESIAN_POINT('',(0.,0.,0.));
#238=CARTESIAN_POINT('',(0.,2.4416395558001E-14,-36.9999999999999));
#239=CARTESIAN_POINT('',(0.,4.00000000000001,-37.));
#240=CARTESIAN_POINT('',(0.,-9.80023896236488E-16,-39.));
#241=CARTESIAN_POINT('',(0.,2.00000000000003,-39.));
#242=CARTESIAN_POINT('',(0.,-8.67361737988404E-16,-38.9999999999999));
#243=CARTESIAN_POINT('',(0.,4.00000000000001,-37.));
#244=CARTESIAN_POINT('',(0.,3.16877359279394E-15,-39.));
#245=CARTESIAN_POINT('',(0.,1.28644532854953E-14,0.));
#246=CARTESIAN_POINT('',(4.,1.28644532854953E-14,0.));
#247=CARTESIAN_POINT('',(0.,0.,0.));
#248=CARTESIAN_POINT('',(0.,2.44163955580004E-14,-37.));
#249=CARTESIAN_POINT('',(0.,-3.99999999999996,-37.));
#250=CARTESIAN_POINT('',(0.,4.00000000000001,-37.));
#251=CARTESIAN_POINT('',(0.,2.44163955580003E-14,-16.));
#252=MECHANICAL_DESIGN_GEOMETRIC_PRESENTATION_REPRESENTATION('',(#140,#141,
#142,#143,#144,#145),#253);
#253=(
GEOMETRIC_REPRESENTATION_CONTEXT(3)
GLOBAL_UNCERTAINTY_ASSIGNED_CONTEXT((#254))
GLOBAL_UNIT_ASSIGNED_CONTEXT((#260,#256,#255))
REPRESENTATION_CONTEXT('31200-MEGA','TOP_LEVEL_ASSEMBLY_PART')
);
#254=UNCERTAINTY_MEASURE_WITH_UNIT(LENGTH_MEASURE(2.E-5),#260,
'DISTANCE_ACCURACY_VALUE','Maximum Tolerance applied to model');
#255=(
NAMED_UNIT(*)
SI_UNIT($,.STERADIAN.)
SOLID_ANGLE_UNIT()
);
#256=(
CONVERSION_BASED_UNIT('DEGREE',#258)
NAMED_UNIT(#257)
PLANE_ANGLE_UNIT()
);
#257=DIMENSIONAL_EXPONENTS(0.,0.,0.,0.,0.,0.,0.);
#258=PLANE_ANGLE_MEASURE_WITH_UNIT(PLANE_ANGLE_MEASURE(0.0174532925),#259);
#259=(
NAMED_UNIT(*)
PLANE_ANGLE_UNIT()
SI_UNIT($,.RADIAN.)
);
#260=(
LENGTH_UNIT()
NAMED_UNIT(*)
SI_UNIT(.MILLI.,.METRE.)
);
ENDSEC;
END-ISO-10303-21;
