ISO-10303-21;
HEADER;
/* Generated by software containing ST-Developer
 * from STEP Tools, Inc. (www.steptools.com) 
 */
/* OPTION: using custom schema-name function */

FILE_DESCRIPTION(
/* description */ (''),
/* implementation_level */ '2;1');

FILE_NAME(
/* name */ '29040.stp',
/* time_stamp */ '2017-12-13T13:51:29+05:00',
/* author */ (''),
/* organization */ (''),
/* preprocessor_version */ 'ST-DEVELOPER v16',
/* originating_system */ 'SIEMENS PLM Software NX 11.0',
/* authorisation */ '');

FILE_SCHEMA (('AUTOMOTIVE_DESIGN { 1 0 10303 214 3 1 1 1 }'));
ENDSEC;

DATA;
#10=CONSTRUCTIVE_GEOMETRY_REPRESENTATION_RELATIONSHIP(
'supplemental geometry','',#32,#11);
#11=CONSTRUCTIVE_GEOMETRY_REPRESENTATION('supplemental geometry',(#165,
#166,#167),#257);
#12=PROPERTY_DEFINITION_REPRESENTATION(#16,#14);
#13=PROPERTY_DEFINITION_REPRESENTATION(#17,#15);
#14=REPRESENTATION('',(#18),#257);
#15=REPRESENTATION('',(#19),#257);
#16=PROPERTY_DEFINITION('pmi validation property','',#23);
#17=PROPERTY_DEFINITION('pmi validation property','',#23);
#18=VALUE_REPRESENTATION_ITEM('number of annotations',COUNT_MEASURE(0.));
#19=VALUE_REPRESENTATION_ITEM('number of views',COUNT_MEASURE(0.));
#20=SHAPE_REPRESENTATION_RELATIONSHIP('None',
'relationship between 29040-None and 29040-None',#32,#21);
#21=ADVANCED_BREP_SHAPE_REPRESENTATION('29040-None',(#49,#50,#51),#257);
#22=SHAPE_DEFINITION_REPRESENTATION(#23,#32);
#23=PRODUCT_DEFINITION_SHAPE('','',#24);
#24=PRODUCT_DEFINITION(' ','',#26,#25);
#25=PRODUCT_DEFINITION_CONTEXT('part definition',#31,'design');
#26=PRODUCT_DEFINITION_FORMATION_WITH_SPECIFIED_SOURCE(' ',' ',#28,
 .NOT_KNOWN.);
#27=PRODUCT_RELATED_PRODUCT_CATEGORY('part','',(#28));
#28=PRODUCT('29040','29040',' ',(#29));
#29=PRODUCT_CONTEXT(' ',#31,'mechanical');
#30=APPLICATION_PROTOCOL_DEFINITION('international standard',
'automotive_design',2010,#31);
#31=APPLICATION_CONTEXT(
'core data for automotive mechanical design processes');
#32=SHAPE_REPRESENTATION('29040-None',(#164),#257);
#33=VERTEX_LOOP('',#122);
#34=SURFACE_STYLE_USAGE(.BOTH.,#37);
#35=SURFACE_STYLE_USAGE(.BOTH.,#38);
#36=SURFACE_STYLE_USAGE(.BOTH.,#39);
#37=SURFACE_SIDE_STYLE('',(#40));
#38=SURFACE_SIDE_STYLE('',(#41));
#39=SURFACE_SIDE_STYLE('',(#42));
#40=SURFACE_STYLE_FILL_AREA(#43);
#41=SURFACE_STYLE_FILL_AREA(#44);
#42=SURFACE_STYLE_FILL_AREA(#45);
#43=FILL_AREA_STYLE('',(#46));
#44=FILL_AREA_STYLE('',(#47));
#45=FILL_AREA_STYLE('',(#48));
#46=FILL_AREA_STYLE_COLOUR('',#159);
#47=FILL_AREA_STYLE_COLOUR('',#160);
#48=FILL_AREA_STYLE_COLOUR('',#159);
#49=MANIFOLD_SOLID_BREP('NOCUT',#52);
#50=MANIFOLD_SOLID_BREP('CUT',#53);
#51=MANIFOLD_SOLID_BREP('NOCUT',#54);
#52=CLOSED_SHELL('',(#67,#68,#69,#70));
#53=CLOSED_SHELL('',(#71,#72,#73));
#54=CLOSED_SHELL('',(#74,#75,#76));
#55=PLANE('',#173);
#56=PLANE('',#174);
#57=PLANE('',#179);
#58=PLANE('',#181);
#59=PLANE('',#184);
#60=FACE_OUTER_BOUND('',#94,.T.);
#61=FACE_OUTER_BOUND('',#95,.T.);
#62=FACE_OUTER_BOUND('',#99,.T.);
#63=FACE_OUTER_BOUND('',#100,.T.);
#64=FACE_OUTER_BOUND('',#103,.T.);
#65=CONICAL_SURFACE('',#172,2.00000000000003,44.9999999999992);
#66=CONICAL_SURFACE('',#176,0.,30.0000000000006);
#67=ADVANCED_FACE('',(#80,#81),#77,.T.);
#68=ADVANCED_FACE('',(#82,#83),#65,.T.);
#69=ADVANCED_FACE('',(#60),#55,.T.);
#70=ADVANCED_FACE('',(#61),#56,.F.);
#71=ADVANCED_FACE('',(#84,#85),#66,.T.);
#72=ADVANCED_FACE('',(#86,#87),#78,.T.);
#73=ADVANCED_FACE('',(#62),#57,.T.);
#74=ADVANCED_FACE('',(#63),#58,.T.);
#75=ADVANCED_FACE('',(#88,#89),#79,.T.);
#76=ADVANCED_FACE('',(#64),#59,.T.);
#77=CYLINDRICAL_SURFACE('',#170,2.00000000000003);
#78=CYLINDRICAL_SURFACE('',#178,2.00000000000003);
#79=CYLINDRICAL_SURFACE('',#183,2.00000000000003);
#80=FACE_BOUND('',#90,.T.);
#81=FACE_BOUND('',#91,.T.);
#82=FACE_BOUND('',#92,.T.);
#83=FACE_BOUND('',#93,.T.);
#84=FACE_BOUND('',#96,.T.);
#85=FACE_BOUND('',#33,.T.);
#86=FACE_BOUND('',#97,.T.);
#87=FACE_BOUND('',#98,.T.);
#88=FACE_BOUND('',#101,.T.);
#89=FACE_BOUND('',#102,.T.);
#90=EDGE_LOOP('',(#104));
#91=EDGE_LOOP('',(#105));
#92=EDGE_LOOP('',(#106));
#93=EDGE_LOOP('',(#107));
#94=EDGE_LOOP('',(#108));
#95=EDGE_LOOP('',(#109));
#96=EDGE_LOOP('',(#110));
#97=EDGE_LOOP('',(#111));
#98=EDGE_LOOP('',(#112));
#99=EDGE_LOOP('',(#113));
#100=EDGE_LOOP('',(#114));
#101=EDGE_LOOP('',(#115));
#102=EDGE_LOOP('',(#116));
#103=EDGE_LOOP('',(#117));
#104=ORIENTED_EDGE('',*,*,#126,.F.);
#105=ORIENTED_EDGE('',*,*,#127,.T.);
#106=ORIENTED_EDGE('',*,*,#128,.T.);
#107=ORIENTED_EDGE('',*,*,#127,.F.);
#108=ORIENTED_EDGE('',*,*,#128,.F.);
#109=ORIENTED_EDGE('',*,*,#126,.T.);
#110=ORIENTED_EDGE('',*,*,#129,.T.);
#111=ORIENTED_EDGE('',*,*,#130,.T.);
#112=ORIENTED_EDGE('',*,*,#129,.F.);
#113=ORIENTED_EDGE('',*,*,#130,.F.);
#114=ORIENTED_EDGE('',*,*,#131,.F.);
#115=ORIENTED_EDGE('',*,*,#131,.T.);
#116=ORIENTED_EDGE('',*,*,#132,.F.);
#117=ORIENTED_EDGE('',*,*,#132,.T.);
#118=VERTEX_POINT('',#232);
#119=VERTEX_POINT('',#234);
#120=VERTEX_POINT('',#237);
#121=VERTEX_POINT('',#242);
#122=VERTEX_POINT('',#243);
#123=VERTEX_POINT('',#246);
#124=VERTEX_POINT('',#250);
#125=VERTEX_POINT('',#253);
#126=EDGE_CURVE('',#118,#118,#133,.T.);
#127=EDGE_CURVE('',#119,#119,#134,.T.);
#128=EDGE_CURVE('',#120,#120,#135,.T.);
#129=EDGE_CURVE('',#121,#121,#136,.T.);
#130=EDGE_CURVE('',#123,#123,#137,.T.);
#131=EDGE_CURVE('',#124,#124,#138,.T.);
#132=EDGE_CURVE('',#125,#125,#139,.T.);
#133=CIRCLE('',#168,2.00000000000003);
#134=CIRCLE('',#169,2.00000000000003);
#135=CIRCLE('',#171,1.50000000000003);
#136=CIRCLE('',#175,2.00000000000003);
#137=CIRCLE('',#177,2.00000000000003);
#138=CIRCLE('',#180,2.00000000000003);
#139=CIRCLE('',#182,2.);
#140=PRESENTATION_LAYER_ASSIGNMENT('1','Layer 1',(#165,#166,#167,#49));
#141=PRESENTATION_LAYER_ASSIGNMENT('3','Layer 3',(#50));
#142=PRESENTATION_LAYER_ASSIGNMENT('2','Layer 2',(#51));
#143=STYLED_ITEM('',(#149),#165);
#144=STYLED_ITEM('',(#150),#166);
#145=STYLED_ITEM('',(#151),#167);
#146=STYLED_ITEM('',(#152),#49);
#147=STYLED_ITEM('',(#153),#50);
#148=STYLED_ITEM('',(#154),#51);
#149=PRESENTATION_STYLE_ASSIGNMENT((#155));
#150=PRESENTATION_STYLE_ASSIGNMENT((#156));
#151=PRESENTATION_STYLE_ASSIGNMENT((#157));
#152=PRESENTATION_STYLE_ASSIGNMENT((#34));
#153=PRESENTATION_STYLE_ASSIGNMENT((#35));
#154=PRESENTATION_STYLE_ASSIGNMENT((#36));
#155=CURVE_STYLE('',#161,POSITIVE_LENGTH_MEASURE(0.18),#158);
#156=CURVE_STYLE('',#162,POSITIVE_LENGTH_MEASURE(0.18),#158);
#157=CURVE_STYLE('',#163,POSITIVE_LENGTH_MEASURE(0.18),#158);
#158=COLOUR_RGB('Strong Stone',0.576470588235294,0.54508278019379,0.392156862745098);
#159=COLOUR_RGB('Medium Gray',0.490196078431373,0.490196078431373,0.490196078431373);
#160=COLOUR_RGB('Light Gray',0.8,0.8,0.8);
#161=DRAUGHTING_PRE_DEFINED_CURVE_FONT('continuous');
#162=DRAUGHTING_PRE_DEFINED_CURVE_FONT('continuous');
#163=DRAUGHTING_PRE_DEFINED_CURVE_FONT('continuous');
#164=AXIS2_PLACEMENT_3D('',#227,#185,#186);
#165=AXIS2_PLACEMENT_3D('MCS',#228,#187,#188);
#166=AXIS2_PLACEMENT_3D('PCS',#229,#189,#190);
#167=AXIS2_PLACEMENT_3D('CIP',#230,#191,#192);
#168=AXIS2_PLACEMENT_3D('',#231,#193,#194);
#169=AXIS2_PLACEMENT_3D('',#233,#195,#196);
#170=AXIS2_PLACEMENT_3D('',#235,#197,#198);
#171=AXIS2_PLACEMENT_3D('',#236,#199,#200);
#172=AXIS2_PLACEMENT_3D('',#238,#201,#202);
#173=AXIS2_PLACEMENT_3D('',#239,#203,#204);
#174=AXIS2_PLACEMENT_3D('',#240,#205,#206);
#175=AXIS2_PLACEMENT_3D('',#241,#207,#208);
#176=AXIS2_PLACEMENT_3D('',#244,#209,#210);
#177=AXIS2_PLACEMENT_3D('',#245,#211,#212);
#178=AXIS2_PLACEMENT_3D('',#247,#213,#214);
#179=AXIS2_PLACEMENT_3D('',#248,#215,#216);
#180=AXIS2_PLACEMENT_3D('',#249,#217,#218);
#181=AXIS2_PLACEMENT_3D('',#251,#219,#220);
#182=AXIS2_PLACEMENT_3D('',#252,#221,#222);
#183=AXIS2_PLACEMENT_3D('',#254,#223,#224);
#184=AXIS2_PLACEMENT_3D('',#255,#225,#226);
#185=DIRECTION('',(0.,0.,1.));
#186=DIRECTION('',(1.,0.,0.));
#187=DIRECTION('',(0.,0.,1.));
#188=DIRECTION('',(1.,0.,0.));
#189=DIRECTION('',(0.,0.,1.));
#190=DIRECTION('',(1.,0.,0.));
#191=DIRECTION('',(0.,0.,1.));
#192=DIRECTION('',(1.,0.,0.));
#193=DIRECTION('',(0.,0.,-1.));
#194=DIRECTION('',(1.,0.,0.));
#195=DIRECTION('',(0.,0.,-1.));
#196=DIRECTION('',(-1.,0.,0.));
#197=DIRECTION('',(0.,0.,-1.));
#198=DIRECTION('',(1.,0.,0.));
#199=DIRECTION('',(0.,0.,-1.));
#200=DIRECTION('',(-1.,0.,0.));
#201=DIRECTION('',(0.,0.,-1.));
#202=DIRECTION('',(1.,0.,-3.11626971732369E-17));
#203=DIRECTION('',(0.,0.,1.));
#204=DIRECTION('',(-1.,0.,0.));
#205=DIRECTION('',(0.,0.,1.));
#206=DIRECTION('',(-1.,0.,0.));
#207=DIRECTION('',(0.,0.,-1.));
#208=DIRECTION('',(-1.,0.,0.));
#209=DIRECTION('',(0.,0.,1.));
#210=DIRECTION('',(-1.,0.,-3.60555503696909E-17));
#211=DIRECTION('',(0.,0.,-1.));
#212=DIRECTION('',(-1.,0.,0.));
#213=DIRECTION('',(0.,0.,-1.));
#214=DIRECTION('',(1.,0.,0.));
#215=DIRECTION('',(0.,0.,1.));
#216=DIRECTION('',(-1.,0.,0.));
#217=DIRECTION('',(0.,0.,-1.));
#218=DIRECTION('',(1.,0.,0.));
#219=DIRECTION('',(0.,0.,1.));
#220=DIRECTION('',(-1.,0.,0.));
#221=DIRECTION('',(0.,0.,-1.));
#222=DIRECTION('',(-1.,0.,0.));
#223=DIRECTION('',(0.,0.,-1.));
#224=DIRECTION('',(1.,0.,0.));
#225=DIRECTION('',(0.,0.,-1.));
#226=DIRECTION('',(1.,0.,0.));
#227=CARTESIAN_POINT('',(0.,0.,0.));
#228=CARTESIAN_POINT('',(0.,0.,0.));
#229=CARTESIAN_POINT('',(0.,0.,28.));
#230=CARTESIAN_POINT('',(0.,0.,-22.));
#231=CARTESIAN_POINT('',(0.,0.,0.));
#232=CARTESIAN_POINT('',(2.00000000000003,0.,0.));
#233=CARTESIAN_POINT('',(0.,0.,27.5));
#234=CARTESIAN_POINT('',(-2.00000000000003,0.,27.5));
#235=CARTESIAN_POINT('',(0.,0.,23.));
#236=CARTESIAN_POINT('',(0.,0.,28.));
#237=CARTESIAN_POINT('',(-1.50000000000003,0.,28.));
#238=CARTESIAN_POINT('',(0.,0.,27.5));
#239=CARTESIAN_POINT('',(0.,1.50000000000003,28.));
#240=CARTESIAN_POINT('',(0.,0.,0.));
#241=CARTESIAN_POINT('',(0.,0.,-18.5358983848623));
#242=CARTESIAN_POINT('',(-2.00000000000003,0.,-18.5358983848623));
#243=CARTESIAN_POINT('',(0.,0.,-22.));
#244=CARTESIAN_POINT('',(0.,0.,-22.));
#245=CARTESIAN_POINT('',(0.,0.,-2.));
#246=CARTESIAN_POINT('',(-2.00000000000003,0.,-2.));
#247=CARTESIAN_POINT('',(0.,0.,-2.));
#248=CARTESIAN_POINT('',(0.,2.,-2.));
#249=CARTESIAN_POINT('',(0.,0.,0.));
#250=CARTESIAN_POINT('',(2.00000000000003,0.,0.));
#251=CARTESIAN_POINT('',(0.,0.,0.));
#252=CARTESIAN_POINT('',(0.,0.,-2.));
#253=CARTESIAN_POINT('',(-2.,0.,-2.));
#254=CARTESIAN_POINT('',(0.,0.,23.));
#255=CARTESIAN_POINT('',(0.,0.,-2.));
#256=MECHANICAL_DESIGN_GEOMETRIC_PRESENTATION_REPRESENTATION('',(#143,#144,
#145,#146,#147,#148),#257);
#257=(
GEOMETRIC_REPRESENTATION_CONTEXT(3)
GLOBAL_UNCERTAINTY_ASSIGNED_CONTEXT((#258))
GLOBAL_UNIT_ASSIGNED_CONTEXT((#264,#260,#259))
REPRESENTATION_CONTEXT('29040','TOP_LEVEL_ASSEMBLY_PART')
);
#258=UNCERTAINTY_MEASURE_WITH_UNIT(LENGTH_MEASURE(2.E-5),#264,
'DISTANCE_ACCURACY_VALUE','Maximum Tolerance applied to model');
#259=(
NAMED_UNIT(*)
SI_UNIT($,.STERADIAN.)
SOLID_ANGLE_UNIT()
);
#260=(
CONVERSION_BASED_UNIT('DEGREE',#262)
NAMED_UNIT(#261)
PLANE_ANGLE_UNIT()
);
#261=DIMENSIONAL_EXPONENTS(0.,0.,0.,0.,0.,0.,0.);
#262=PLANE_ANGLE_MEASURE_WITH_UNIT(PLANE_ANGLE_MEASURE(0.0174532925),#263);
#263=(
NAMED_UNIT(*)
PLANE_ANGLE_UNIT()
SI_UNIT($,.RADIAN.)
);
#264=(
LENGTH_UNIT()
NAMED_UNIT(*)
SI_UNIT(.MILLI.,.METRE.)
);
ENDSEC;
END-ISO-10303-21;
