ISO-10303-21;
HEADER;
/* Generated by software containing ST-Developer
 * from STEP Tools, Inc. (www.steptools.com) 
 */
/* OPTION: using custom schema-name function */

FILE_DESCRIPTION(
/* description */ (''),
/* implementation_level */ '2;1');

FILE_NAME(
/* name */ '180070R150Z4-MEGA-64.stp',
/* time_stamp */ '2015-04-03T10:04:58+06:00',
/* author */ (''),
/* organization */ (''),
/* preprocessor_version */ 'ST-DEVELOPER v11',
/* originating_system */ 'SIEMENS PLM Software NX 7.5',
/* authorisation */ '');

FILE_SCHEMA (('AUTOMOTIVE_DESIGN { 1 0 10303 214 1 1 1 1 }'));
ENDSEC;

DATA;
#10=SHAPE_REPRESENTATION_RELATIONSHIP('None',
'relationship between Nile684D7r8r-None and Nile684D7r8r-None',#22,#11);
#11=ADVANCED_BREP_SHAPE_REPRESENTATION('Nile684D7r8r-None',(#54,#55,#56),
#286);
#12=SHAPE_DEFINITION_REPRESENTATION(#13,#22);
#13=PRODUCT_DEFINITION_SHAPE('','',#14);
#14=PRODUCT_DEFINITION(' ','',#16,#15);
#15=PRODUCT_DEFINITION_CONTEXT('part definition',#21,'design');
#16=PRODUCT_DEFINITION_FORMATION_WITH_SPECIFIED_SOURCE(' ',' ',#18,.NOT_KNOWN.);
#17=PRODUCT_RELATED_PRODUCT_CATEGORY('part','',(#18));
#18=PRODUCT('Nile684D7r8r','Nile684D7r8r',' ',(#19));
#19=PRODUCT_CONTEXT(' ',#21,'mechanical');
#20=APPLICATION_PROTOCOL_DEFINITION('international standard',
'automotive_design',2001,#21);
#21=APPLICATION_CONTEXT(
'core data for automotive mechanical design processes');
#22=SHAPE_REPRESENTATION('Nile684D7r8r-None',(#163),#286);
#23=TOROIDAL_SURFACE('',#180,2.,1.5);
#24=VERTEX_LOOP('',#142);
#25=CONICAL_SURFACE('',#173,3.,45.);
#26=CONICAL_SURFACE('',#178,6.66133814775094E-016,84.4999999999998);
#27=CONICAL_SURFACE('',#182,3.49908166648712,2.005);
#28=PRESENTATION_LAYER_ASSIGNMENT('2','Layer 2',(#54));
#29=PRESENTATION_LAYER_ASSIGNMENT('1','Layer 1',(#55));
#30=PRESENTATION_LAYER_ASSIGNMENT('3','Layer 3',(#56));
#31=STYLED_ITEM('',(#34),#54);
#32=STYLED_ITEM('',(#35),#55);
#33=STYLED_ITEM('',(#36),#56);
#34=PRESENTATION_STYLE_ASSIGNMENT((#37));
#35=PRESENTATION_STYLE_ASSIGNMENT((#38));
#36=PRESENTATION_STYLE_ASSIGNMENT((#39));
#37=SURFACE_STYLE_USAGE(.BOTH.,#40);
#38=SURFACE_STYLE_USAGE(.BOTH.,#41);
#39=SURFACE_STYLE_USAGE(.BOTH.,#42);
#40=SURFACE_SIDE_STYLE('',(#43));
#41=SURFACE_SIDE_STYLE('',(#44));
#42=SURFACE_SIDE_STYLE('',(#45));
#43=SURFACE_STYLE_FILL_AREA(#46);
#44=SURFACE_STYLE_FILL_AREA(#47);
#45=SURFACE_STYLE_FILL_AREA(#48);
#46=FILL_AREA_STYLE('',(#49));
#47=FILL_AREA_STYLE('',(#50));
#48=FILL_AREA_STYLE('',(#51));
#49=FILL_AREA_STYLE_COLOUR('',#52);
#50=FILL_AREA_STYLE_COLOUR('',#52);
#51=FILL_AREA_STYLE_COLOUR('',#53);
#52=COLOUR_RGB('Medium Gray',0.490196078431373,0.490196078431373,0.490196078431373);
#53=COLOUR_RGB('Light Gray',0.8,0.8,0.8);
#54=MANIFOLD_SOLID_BREP('',#57);
#55=MANIFOLD_SOLID_BREP('',#58);
#56=MANIFOLD_SOLID_BREP('',#59);
#57=CLOSED_SHELL('',(#71,#72,#73,#74));
#58=CLOSED_SHELL('',(#75,#76,#77,#78));
#59=CLOSED_SHELL('',(#79,#80,#81,#82));
#60=PLANE('',#168);
#61=PLANE('',#169);
#62=PLANE('',#171);
#63=PLANE('',#176);
#64=PLANE('',#183);
#65=FACE_OUTER_BOUND('',#103,.T.);
#66=FACE_OUTER_BOUND('',#104,.T.);
#67=FACE_OUTER_BOUND('',#105,.T.);
#68=FACE_OUTER_BOUND('',#110,.T.);
#69=FACE_OUTER_BOUND('',#116,.T.);
#70=(
BOUNDED_SURFACE()
B_SPLINE_SURFACE(3,3,((#234,#235,#236,#237,#238,#239,#240),(#241,#242,#243,
#244,#245,#246,#247),(#248,#249,#250,#251,#252,#253,#254),(#255,#256,#257,
#258,#259,#260,#261)),.UNSPECIFIED.,.F.,.T.,.F.)
B_SPLINE_SURFACE_WITH_KNOTS((4,4),(1,3,3,3,1),(0.,1.),(-0.5,0.,0.5,1.,1.5),
 .UNSPECIFIED.)
GEOMETRIC_REPRESENTATION_ITEM()
RATIONAL_B_SPLINE_SURFACE(((1.,0.333333333333333,0.333333333333333,1.,0.333333333333333,
0.333333333333333,1.),(0.976827593588133,0.325609197862711,0.325609197862711,
0.976827593588133,0.325609197862711,0.325609197862711,0.976827593588133),
(0.976827593588133,0.325609197862711,0.325609197862711,0.976827593588133,
0.325609197862711,0.325609197862711,0.976827593588133),(1.,0.333333333333333,
0.333333333333333,1.,0.333333333333333,0.333333333333333,1.)))
REPRESENTATION_ITEM('')
SURFACE()
);
#71=ADVANCED_FACE('',(#85,#86),#83,.T.);
#72=ADVANCED_FACE('',(#87,#88),#70,.T.);
#73=ADVANCED_FACE('',(#65),#60,.T.);
#74=ADVANCED_FACE('',(#66),#61,.T.);
#75=ADVANCED_FACE('',(#67),#62,.T.);
#76=ADVANCED_FACE('',(#89,#90),#25,.T.);
#77=ADVANCED_FACE('',(#91,#92),#84,.T.);
#78=ADVANCED_FACE('',(#68),#63,.F.);
#79=ADVANCED_FACE('',(#93,#94),#26,.F.);
#80=ADVANCED_FACE('',(#95,#96),#23,.T.);
#81=ADVANCED_FACE('',(#97,#98),#27,.T.);
#82=ADVANCED_FACE('',(#69),#64,.F.);
#83=CYLINDRICAL_SURFACE('',#166,3.);
#84=CYLINDRICAL_SURFACE('',#175,3.);
#85=FACE_BOUND('',#99,.T.);
#86=FACE_BOUND('',#100,.T.);
#87=FACE_BOUND('',#101,.T.);
#88=FACE_BOUND('',#102,.T.);
#89=FACE_BOUND('',#106,.T.);
#90=FACE_BOUND('',#107,.T.);
#91=FACE_BOUND('',#108,.T.);
#92=FACE_BOUND('',#109,.T.);
#93=FACE_BOUND('',#111,.T.);
#94=FACE_BOUND('',#24,.T.);
#95=FACE_BOUND('',#112,.T.);
#96=FACE_BOUND('',#113,.T.);
#97=FACE_BOUND('',#114,.T.);
#98=FACE_BOUND('',#115,.T.);
#99=EDGE_LOOP('',(#117));
#100=EDGE_LOOP('',(#118));
#101=EDGE_LOOP('',(#119));
#102=EDGE_LOOP('',(#120));
#103=EDGE_LOOP('',(#121));
#104=EDGE_LOOP('',(#122));
#105=EDGE_LOOP('',(#123));
#106=EDGE_LOOP('',(#124));
#107=EDGE_LOOP('',(#125));
#108=EDGE_LOOP('',(#126));
#109=EDGE_LOOP('',(#127));
#110=EDGE_LOOP('',(#128));
#111=EDGE_LOOP('',(#129));
#112=EDGE_LOOP('',(#130));
#113=EDGE_LOOP('',(#131));
#114=EDGE_LOOP('',(#132));
#115=EDGE_LOOP('',(#133));
#116=EDGE_LOOP('',(#134));
#117=ORIENTED_EDGE('',*,*,#145,.F.);
#118=ORIENTED_EDGE('',*,*,#146,.T.);
#119=ORIENTED_EDGE('',*,*,#145,.T.);
#120=ORIENTED_EDGE('',*,*,#147,.F.);
#121=ORIENTED_EDGE('',*,*,#146,.F.);
#122=ORIENTED_EDGE('',*,*,#147,.T.);
#123=ORIENTED_EDGE('',*,*,#148,.F.);
#124=ORIENTED_EDGE('',*,*,#148,.T.);
#125=ORIENTED_EDGE('',*,*,#149,.F.);
#126=ORIENTED_EDGE('',*,*,#150,.T.);
#127=ORIENTED_EDGE('',*,*,#149,.T.);
#128=ORIENTED_EDGE('',*,*,#150,.F.);
#129=ORIENTED_EDGE('',*,*,#151,.T.);
#130=ORIENTED_EDGE('',*,*,#152,.T.);
#131=ORIENTED_EDGE('',*,*,#151,.F.);
#132=ORIENTED_EDGE('',*,*,#153,.F.);
#133=ORIENTED_EDGE('',*,*,#152,.F.);
#134=ORIENTED_EDGE('',*,*,#153,.T.);
#135=VERTEX_POINT('',#228);
#136=VERTEX_POINT('',#230);
#137=VERTEX_POINT('',#233);
#138=VERTEX_POINT('',#265);
#139=VERTEX_POINT('',#268);
#140=VERTEX_POINT('',#271);
#141=VERTEX_POINT('',#275);
#142=VERTEX_POINT('',#276);
#143=VERTEX_POINT('',#279);
#144=VERTEX_POINT('',#282);
#145=EDGE_CURVE('',#135,#135,#154,.T.);
#146=EDGE_CURVE('',#136,#136,#155,.T.);
#147=EDGE_CURVE('',#137,#137,#156,.T.);
#148=EDGE_CURVE('',#138,#138,#157,.T.);
#149=EDGE_CURVE('',#139,#139,#158,.T.);
#150=EDGE_CURVE('',#140,#140,#159,.T.);
#151=EDGE_CURVE('',#141,#141,#160,.T.);
#152=EDGE_CURVE('',#143,#143,#161,.T.);
#153=EDGE_CURVE('',#144,#144,#162,.T.);
#154=CIRCLE('',#164,3.);
#155=CIRCLE('',#165,3.);
#156=CIRCLE('',#167,3.30837411156817);
#157=CIRCLE('',#170,2.5);
#158=CIRCLE('',#172,3.);
#159=CIRCLE('',#174,3.);
#160=CIRCLE('',#177,1.85623137121967);
#161=CIRCLE('',#179,3.49908166648712);
#162=CIRCLE('',#181,3.30837411156817);
#163=AXIS2_PLACEMENT_3D('',#226,#184,#185);
#164=AXIS2_PLACEMENT_3D('',#227,#186,#187);
#165=AXIS2_PLACEMENT_3D('',#229,#188,#189);
#166=AXIS2_PLACEMENT_3D('',#231,#190,#191);
#167=AXIS2_PLACEMENT_3D('',#232,#192,#193);
#168=AXIS2_PLACEMENT_3D('',#262,#194,#195);
#169=AXIS2_PLACEMENT_3D('',#263,#196,#197);
#170=AXIS2_PLACEMENT_3D('',#264,#198,#199);
#171=AXIS2_PLACEMENT_3D('',#266,#200,#201);
#172=AXIS2_PLACEMENT_3D('',#267,#202,#203);
#173=AXIS2_PLACEMENT_3D('',#269,#204,#205);
#174=AXIS2_PLACEMENT_3D('',#270,#206,#207);
#175=AXIS2_PLACEMENT_3D('',#272,#208,#209);
#176=AXIS2_PLACEMENT_3D('',#273,#210,#211);
#177=AXIS2_PLACEMENT_3D('',#274,#212,#213);
#178=AXIS2_PLACEMENT_3D('',#277,#214,#215);
#179=AXIS2_PLACEMENT_3D('',#278,#216,#217);
#180=AXIS2_PLACEMENT_3D('',#280,#218,#219);
#181=AXIS2_PLACEMENT_3D('',#281,#220,#221);
#182=AXIS2_PLACEMENT_3D('',#283,#222,#223);
#183=AXIS2_PLACEMENT_3D('',#284,#224,#225);
#184=DIRECTION('',(0.,0.,1.));
#185=DIRECTION('',(1.,0.,0.));
#186=DIRECTION('',(0.,0.,-1.));
#187=DIRECTION('',(-1.,0.,0.));
#188=DIRECTION('',(0.,0.,-1.));
#189=DIRECTION('',(1.,0.,0.));
#190=DIRECTION('',(0.,0.,-1.));
#191=DIRECTION('',(1.,0.,0.));
#192=DIRECTION('',(0.,0.,-1.));
#193=DIRECTION('',(-1.,0.,0.));
#194=DIRECTION('',(0.,0.,1.));
#195=DIRECTION('',(-1.,0.,0.));
#196=DIRECTION('',(0.,0.,-1.));
#197=DIRECTION('',(1.,0.,0.));
#198=DIRECTION('',(0.,0.,-1.));
#199=DIRECTION('',(-1.,0.,0.));
#200=DIRECTION('',(0.,0.,1.));
#201=DIRECTION('',(-1.,0.,0.));
#202=DIRECTION('',(0.,0.,-1.));
#203=DIRECTION('',(-1.,0.,0.));
#204=DIRECTION('',(0.,0.,-1.));
#205=DIRECTION('',(1.,0.,-2.76725579418035E-017));
#206=DIRECTION('',(0.,0.,1.));
#207=DIRECTION('',(1.,0.,0.));
#208=DIRECTION('',(0.,0.,-1.));
#209=DIRECTION('',(1.,0.,0.));
#210=DIRECTION('',(0.,0.,1.));
#211=DIRECTION('',(-1.,0.,0.));
#212=DIRECTION('',(0.,0.,-1.));
#213=DIRECTION('',(-1.,0.,0.));
#214=DIRECTION('',(0.,0.,-1.));
#215=DIRECTION('',(1.,0.,-4.67697642685668E-018));
#216=DIRECTION('',(0.,0.,-1.));
#217=DIRECTION('',(-1.,0.,0.));
#218=DIRECTION('',(0.,0.,-1.));
#219=DIRECTION('',(1.,0.,0.));
#220=DIRECTION('',(0.,0.,1.));
#221=DIRECTION('',(-1.,0.,0.));
#222=DIRECTION('',(0.,0.,-1.));
#223=DIRECTION('',(1.,0.,-1.44157758012255E-015));
#224=DIRECTION('',(0.,0.,-1.));
#225=DIRECTION('',(1.,0.,0.));
#226=CARTESIAN_POINT('',(0.,0.,0.));
#227=CARTESIAN_POINT('',(0.,0.,-21.00107540825));
#228=CARTESIAN_POINT('',(-3.,0.,-21.00107540825));
#229=CARTESIAN_POINT('',(0.,0.,0.));
#230=CARTESIAN_POINT('',(3.,0.,0.));
#231=CARTESIAN_POINT('',(0.,0.,0.));
#232=CARTESIAN_POINT('',(0.,0.,-22.));
#233=CARTESIAN_POINT('',(-3.30837411156817,0.,-22.));
#234=CARTESIAN_POINT('',(-3.30837411156819,0.,-22.));
#235=CARTESIAN_POINT('',(-3.30837411156819,6.61674822313637,-22.));
#236=CARTESIAN_POINT('',(3.30837411156819,6.61674822313637,-22.));
#237=CARTESIAN_POINT('',(3.30837411156819,0.,-22.));
#238=CARTESIAN_POINT('',(3.30837411156819,-6.61674822313637,-22.));
#239=CARTESIAN_POINT('',(-3.30837411156819,-6.61674822313637,-22.));
#240=CARTESIAN_POINT('',(-3.30837411156819,0.,-22.));
#241=CARTESIAN_POINT('',(-3.29589271821697,0.,-21.6434717065688));
#242=CARTESIAN_POINT('',(-3.29589271821697,6.59178543643395,-21.6434717065688));
#243=CARTESIAN_POINT('',(3.29589271821697,6.59178543643395,-21.6434717065688));
#244=CARTESIAN_POINT('',(3.29589271821697,0.,-21.6434717065688));
#245=CARTESIAN_POINT('',(3.29589271821697,-6.59178543643395,-21.6434717065688));
#246=CARTESIAN_POINT('',(-3.29589271821697,-6.59178543643395,-21.6434717065688));
#247=CARTESIAN_POINT('',(-3.29589271821697,0.,-21.6434717065688));
#248=CARTESIAN_POINT('',(-3.19066292004435,0.,-21.3025979780804));
#249=CARTESIAN_POINT('',(-3.19066292004435,6.3813258400887,-21.3025979780804));
#250=CARTESIAN_POINT('',(3.19066292004435,6.3813258400887,-21.3025979780804));
#251=CARTESIAN_POINT('',(3.19066292004435,0.,-21.3025979780804));
#252=CARTESIAN_POINT('',(3.19066292004435,-6.3813258400887,-21.3025979780804));
#253=CARTESIAN_POINT('',(-3.19066292004435,-6.3813258400887,-21.3025979780804));
#254=CARTESIAN_POINT('',(-3.19066292004435,0.,-21.3025979780804));
#255=CARTESIAN_POINT('',(-2.99999999999999,0.,-21.00107540825));
#256=CARTESIAN_POINT('',(-2.99999999999999,5.99999999999999,-21.00107540825));
#257=CARTESIAN_POINT('',(2.99999999999999,5.99999999999999,-21.00107540825));
#258=CARTESIAN_POINT('',(2.99999999999999,0.,-21.00107540825));
#259=CARTESIAN_POINT('',(2.99999999999999,-5.99999999999999,-21.00107540825));
#260=CARTESIAN_POINT('',(-2.99999999999999,-5.99999999999999,-21.00107540825));
#261=CARTESIAN_POINT('',(-2.99999999999999,0.,-21.00107540825));
#262=CARTESIAN_POINT('',(0.,0.,0.));
#263=CARTESIAN_POINT('',(0.,0.,-22.));
#264=CARTESIAN_POINT('',(0.,0.,36.));
#265=CARTESIAN_POINT('',(-2.5,0.,36.));
#266=CARTESIAN_POINT('',(2.5,0.,36.));
#267=CARTESIAN_POINT('',(0.,0.,35.5));
#268=CARTESIAN_POINT('',(-3.,0.,35.5));
#269=CARTESIAN_POINT('',(0.,0.,35.5));
#270=CARTESIAN_POINT('',(0.,0.,0.));
#271=CARTESIAN_POINT('',(3.,0.,0.));
#272=CARTESIAN_POINT('',(0.,0.,0.));
#273=CARTESIAN_POINT('',(0.,0.,0.));
#274=CARTESIAN_POINT('',(0.,0.,-28.9930942975508));
#275=CARTESIAN_POINT('',(-1.85623137121967,0.,-28.9930942975508));
#276=CARTESIAN_POINT('',(-6.66133814775094E-016,0.,-28.8143595455816));
#277=CARTESIAN_POINT('',(0.,0.,-28.8143595455816));
#278=CARTESIAN_POINT('',(0.,0.,-27.4475199351924));
#279=CARTESIAN_POINT('',(-3.49908166648712,0.,-27.4475199351924));
#280=CARTESIAN_POINT('',(0.,0.,-27.5));
#281=CARTESIAN_POINT('',(0.,0.,-22.));
#282=CARTESIAN_POINT('',(-3.30837411156817,0.,-22.));
#283=CARTESIAN_POINT('',(0.,0.,-27.4475199351924));
#284=CARTESIAN_POINT('',(0.,0.,-22.));
#285=MECHANICAL_DESIGN_GEOMETRIC_PRESENTATION_REPRESENTATION('',(#31,#32,
#33),#286);
#286=(
GEOMETRIC_REPRESENTATION_CONTEXT(3)
GLOBAL_UNCERTAINTY_ASSIGNED_CONTEXT((#287))
GLOBAL_UNIT_ASSIGNED_CONTEXT((#293,#289,#288))
REPRESENTATION_CONTEXT('180070R150Z4-MEGA-64','TOP_LEVEL_ASSEMBLY_PART')
);
#287=UNCERTAINTY_MEASURE_WITH_UNIT(LENGTH_MEASURE(0.0254),#293,
'DISTANCE_ACCURACY_VALUE','Maximum Tolerance applied to model');
#288=(
NAMED_UNIT(*)
SI_UNIT($,.STERADIAN.)
SOLID_ANGLE_UNIT()
);
#289=(
CONVERSION_BASED_UNIT('DEGREE',#291)
NAMED_UNIT(#290)
PLANE_ANGLE_UNIT()
);
#290=DIMENSIONAL_EXPONENTS(0.,0.,0.,0.,0.,0.,0.);
#291=PLANE_ANGLE_MEASURE_WITH_UNIT(PLANE_ANGLE_MEASURE(0.0174532925),#292);
#292=(
NAMED_UNIT(*)
PLANE_ANGLE_UNIT()
SI_UNIT($,.RADIAN.)
);
#293=(
LENGTH_UNIT()
NAMED_UNIT(*)
SI_UNIT(.MILLI.,.METRE.)
);
ENDSEC;
END-ISO-10303-21;
