ISO-10303-21;
HEADER;
/* Generated by software containing ST-Developer
 * from STEP Tools, Inc. (www.steptools.com) 
 */
/* OPTION: using custom schema-name function */

FILE_DESCRIPTION(
/* description */ (''),
/* implementation_level */ '2;1');

FILE_NAME(
/* name */ '180060R150Z4-MEGA-64.stp',
/* time_stamp */ '2015-04-03T10:40:11+05:00',
/* author */ (''),
/* organization */ (''),
/* preprocessor_version */ 'ST-DEVELOPER v11',
/* originating_system */ 'SIEMENS PLM Software NX 7.5',
/* authorisation */ '');

FILE_SCHEMA (('AUTOMOTIVE_DESIGN { 1 0 10303 214 1 1 1 1 }'));
ENDSEC;

DATA;
#10=SHAPE_REPRESENTATION_RELATIONSHIP('None',
'relationship between Nile33627shx-None and Nile33627shx-None',#22,#11);
#11=ADVANCED_BREP_SHAPE_REPRESENTATION('Nile33627shx-None',(#53,#54,#55),
#350);
#12=SHAPE_DEFINITION_REPRESENTATION(#13,#22);
#13=PRODUCT_DEFINITION_SHAPE('','',#14);
#14=PRODUCT_DEFINITION(' ','',#16,#15);
#15=PRODUCT_DEFINITION_CONTEXT('part definition',#21,'design');
#16=PRODUCT_DEFINITION_FORMATION_WITH_SPECIFIED_SOURCE(' ',' ',#18,.NOT_KNOWN.);
#17=PRODUCT_RELATED_PRODUCT_CATEGORY('part','',(#18));
#18=PRODUCT('Nile33627shx','Nile33627shx',' ',(#19));
#19=PRODUCT_CONTEXT(' ',#21,'mechanical');
#20=APPLICATION_PROTOCOL_DEFINITION('international standard',
'automotive_design',2001,#21);
#21=APPLICATION_CONTEXT(
'core data for automotive mechanical design processes');
#22=SHAPE_REPRESENTATION('Nile33627shx-None',(#185),#350);
#23=VERTEX_LOOP('',#160);
#24=CONICAL_SURFACE('',#199,3.,45.);
#25=CONICAL_SURFACE('',#204,2.99760216648792E-015,84.4999999999999);
#26=CONICAL_SURFACE('',#207,2.99908166648712,2.00500000000001);
#27=PRESENTATION_LAYER_ASSIGNMENT('2','Layer 2',(#53));
#28=PRESENTATION_LAYER_ASSIGNMENT('1','Layer 1',(#54));
#29=PRESENTATION_LAYER_ASSIGNMENT('3','Layer 3',(#55));
#30=STYLED_ITEM('',(#33),#53);
#31=STYLED_ITEM('',(#34),#54);
#32=STYLED_ITEM('',(#35),#55);
#33=PRESENTATION_STYLE_ASSIGNMENT((#36));
#34=PRESENTATION_STYLE_ASSIGNMENT((#37));
#35=PRESENTATION_STYLE_ASSIGNMENT((#38));
#36=SURFACE_STYLE_USAGE(.BOTH.,#39);
#37=SURFACE_STYLE_USAGE(.BOTH.,#40);
#38=SURFACE_STYLE_USAGE(.BOTH.,#41);
#39=SURFACE_SIDE_STYLE('',(#42));
#40=SURFACE_SIDE_STYLE('',(#43));
#41=SURFACE_SIDE_STYLE('',(#44));
#42=SURFACE_STYLE_FILL_AREA(#45);
#43=SURFACE_STYLE_FILL_AREA(#46);
#44=SURFACE_STYLE_FILL_AREA(#47);
#45=FILL_AREA_STYLE('',(#48));
#46=FILL_AREA_STYLE('',(#49));
#47=FILL_AREA_STYLE('',(#50));
#48=FILL_AREA_STYLE_COLOUR('',#51);
#49=FILL_AREA_STYLE_COLOUR('',#51);
#50=FILL_AREA_STYLE_COLOUR('',#52);
#51=COLOUR_RGB('Medium Gray',0.490196078431373,0.490196078431373,0.490196078431373);
#52=COLOUR_RGB('Light Gray',0.8,0.8,0.8);
#53=MANIFOLD_SOLID_BREP('',#56);
#54=MANIFOLD_SOLID_BREP('',#57);
#55=MANIFOLD_SOLID_BREP('',#58);
#56=CLOSED_SHELL('',(#72,#73,#74,#75,#76,#77));
#57=CLOSED_SHELL('',(#78,#79,#80,#81));
#58=CLOSED_SHELL('',(#82,#83,#84,#85));
#59=PLANE('',#194);
#60=PLANE('',#195);
#61=PLANE('',#197);
#62=PLANE('',#202);
#63=PLANE('',#208);
#64=FACE_OUTER_BOUND('',#115,.T.);
#65=FACE_OUTER_BOUND('',#116,.T.);
#66=FACE_OUTER_BOUND('',#117,.T.);
#67=FACE_OUTER_BOUND('',#122,.T.);
#68=FACE_OUTER_BOUND('',#128,.T.);
#69=TOROIDAL_SURFACE('',#193,7.7,5.);
#70=(
BOUNDED_SURFACE()
B_SPLINE_SURFACE(3,3,((#267,#268,#269,#270,#271,#272,#273),(#274,#275,#276,
#277,#278,#279,#280),(#281,#282,#283,#284,#285,#286,#287),(#288,#289,#290,
#291,#292,#293,#294)),.UNSPECIFIED.,.F.,.T.,.F.)
B_SPLINE_SURFACE_WITH_KNOTS((4,4),(1,3,3,3,1),(0.,1.),(-0.5,0.,0.5,1.,1.5),
 .UNSPECIFIED.)
GEOMETRIC_REPRESENTATION_ITEM()
RATIONAL_B_SPLINE_SURFACE(((1.,0.333333333333333,0.333333333333333,1.,0.333333333333333,
0.333333333333333,1.),(0.989956081897157,0.329985360632386,0.329985360632386,
0.989956081897157,0.329985360632386,0.329985360632386,0.989956081897157),
(0.989956081897157,0.329985360632386,0.329985360632386,0.989956081897157,
0.329985360632386,0.329985360632386,0.989956081897157),(1.,0.333333333333333,
0.333333333333333,1.,0.333333333333333,0.333333333333333,1.)))
REPRESENTATION_ITEM('')
SURFACE()
);
#71=(
BOUNDED_SURFACE()
B_SPLINE_SURFACE(3,3,((#317,#318,#319,#320,#321,#322,#323),(#324,#325,#326,
#327,#328,#329,#330),(#331,#332,#333,#334,#335,#336,#337),(#338,#339,#340,
#341,#342,#343,#344)),.UNSPECIFIED.,.F.,.T.,.F.)
B_SPLINE_SURFACE_WITH_KNOTS((4,4),(1,3,3,3,1),(0.,1.),(-0.5,0.,0.5,1.,1.5),
 .UNSPECIFIED.)
GEOMETRIC_REPRESENTATION_ITEM()
RATIONAL_B_SPLINE_SURFACE(((1.,0.333333333333333,0.333333333333333,1.,0.333333333333333,
0.333333333333333,1.),(0.772875339514807,0.257625113171602,0.257625113171602,
0.772875339514807,0.257625113171602,0.257625113171602,0.772875339514807),
(0.772875339514807,0.257625113171602,0.257625113171602,0.772875339514807,
0.257625113171602,0.257625113171602,0.772875339514807),(1.,0.333333333333333,
0.333333333333333,1.,0.333333333333333,0.333333333333333,1.)))
REPRESENTATION_ITEM('')
SURFACE()
);
#72=ADVANCED_FACE('',(#89,#90),#86,.T.);
#73=ADVANCED_FACE('',(#91,#92),#70,.T.);
#74=ADVANCED_FACE('',(#93,#94),#87,.T.);
#75=ADVANCED_FACE('',(#95,#96),#69,.F.);
#76=ADVANCED_FACE('',(#64),#59,.T.);
#77=ADVANCED_FACE('',(#65),#60,.T.);
#78=ADVANCED_FACE('',(#66),#61,.T.);
#79=ADVANCED_FACE('',(#97,#98),#24,.T.);
#80=ADVANCED_FACE('',(#99,#100),#88,.T.);
#81=ADVANCED_FACE('',(#67),#62,.F.);
#82=ADVANCED_FACE('',(#101,#102),#25,.F.);
#83=ADVANCED_FACE('',(#103,#104),#71,.T.);
#84=ADVANCED_FACE('',(#105,#106),#26,.T.);
#85=ADVANCED_FACE('',(#68),#63,.F.);
#86=CYLINDRICAL_SURFACE('',#188,3.);
#87=CYLINDRICAL_SURFACE('',#192,2.7);
#88=CYLINDRICAL_SURFACE('',#201,3.);
#89=FACE_BOUND('',#107,.T.);
#90=FACE_BOUND('',#108,.T.);
#91=FACE_BOUND('',#109,.T.);
#92=FACE_BOUND('',#110,.T.);
#93=FACE_BOUND('',#111,.T.);
#94=FACE_BOUND('',#112,.T.);
#95=FACE_BOUND('',#113,.T.);
#96=FACE_BOUND('',#114,.T.);
#97=FACE_BOUND('',#118,.T.);
#98=FACE_BOUND('',#119,.T.);
#99=FACE_BOUND('',#120,.T.);
#100=FACE_BOUND('',#121,.T.);
#101=FACE_BOUND('',#123,.T.);
#102=FACE_BOUND('',#23,.T.);
#103=FACE_BOUND('',#124,.T.);
#104=FACE_BOUND('',#125,.T.);
#105=FACE_BOUND('',#126,.T.);
#106=FACE_BOUND('',#127,.T.);
#107=EDGE_LOOP('',(#129));
#108=EDGE_LOOP('',(#130));
#109=EDGE_LOOP('',(#131));
#110=EDGE_LOOP('',(#132));
#111=EDGE_LOOP('',(#133));
#112=EDGE_LOOP('',(#134));
#113=EDGE_LOOP('',(#135));
#114=EDGE_LOOP('',(#136));
#115=EDGE_LOOP('',(#137));
#116=EDGE_LOOP('',(#138));
#117=EDGE_LOOP('',(#139));
#118=EDGE_LOOP('',(#140));
#119=EDGE_LOOP('',(#141));
#120=EDGE_LOOP('',(#142));
#121=EDGE_LOOP('',(#143));
#122=EDGE_LOOP('',(#144));
#123=EDGE_LOOP('',(#145));
#124=EDGE_LOOP('',(#146));
#125=EDGE_LOOP('',(#147));
#126=EDGE_LOOP('',(#148));
#127=EDGE_LOOP('',(#149));
#128=EDGE_LOOP('',(#150));
#129=ORIENTED_EDGE('',*,*,#163,.F.);
#130=ORIENTED_EDGE('',*,*,#164,.T.);
#131=ORIENTED_EDGE('',*,*,#165,.T.);
#132=ORIENTED_EDGE('',*,*,#166,.F.);
#133=ORIENTED_EDGE('',*,*,#167,.T.);
#134=ORIENTED_EDGE('',*,*,#165,.F.);
#135=ORIENTED_EDGE('',*,*,#163,.T.);
#136=ORIENTED_EDGE('',*,*,#167,.F.);
#137=ORIENTED_EDGE('',*,*,#164,.F.);
#138=ORIENTED_EDGE('',*,*,#166,.T.);
#139=ORIENTED_EDGE('',*,*,#168,.F.);
#140=ORIENTED_EDGE('',*,*,#168,.T.);
#141=ORIENTED_EDGE('',*,*,#169,.F.);
#142=ORIENTED_EDGE('',*,*,#170,.T.);
#143=ORIENTED_EDGE('',*,*,#169,.T.);
#144=ORIENTED_EDGE('',*,*,#170,.F.);
#145=ORIENTED_EDGE('',*,*,#171,.T.);
#146=ORIENTED_EDGE('',*,*,#172,.T.);
#147=ORIENTED_EDGE('',*,*,#171,.F.);
#148=ORIENTED_EDGE('',*,*,#173,.F.);
#149=ORIENTED_EDGE('',*,*,#172,.F.);
#150=ORIENTED_EDGE('',*,*,#173,.T.);
#151=VERTEX_POINT('',#259);
#152=VERTEX_POINT('',#261);
#153=VERTEX_POINT('',#264);
#154=VERTEX_POINT('',#266);
#155=VERTEX_POINT('',#296);
#156=VERTEX_POINT('',#302);
#157=VERTEX_POINT('',#305);
#158=VERTEX_POINT('',#308);
#159=VERTEX_POINT('',#312);
#160=VERTEX_POINT('',#313);
#161=VERTEX_POINT('',#316);
#162=VERTEX_POINT('',#346);
#163=EDGE_CURVE('',#151,#151,#174,.T.);
#164=EDGE_CURVE('',#152,#152,#175,.T.);
#165=EDGE_CURVE('',#153,#153,#176,.T.);
#166=EDGE_CURVE('',#154,#154,#177,.T.);
#167=EDGE_CURVE('',#155,#155,#178,.T.);
#168=EDGE_CURVE('',#156,#156,#179,.T.);
#169=EDGE_CURVE('',#157,#157,#180,.T.);
#170=EDGE_CURVE('',#158,#158,#181,.T.);
#171=EDGE_CURVE('',#159,#159,#182,.T.);
#172=EDGE_CURVE('',#161,#161,#183,.T.);
#173=EDGE_CURVE('',#162,#162,#184,.T.);
#174=CIRCLE('',#186,3.);
#175=CIRCLE('',#187,3.);
#176=CIRCLE('',#189,2.7);
#177=CIRCLE('',#190,2.84338225420698);
#178=CIRCLE('',#191,2.7);
#179=CIRCLE('',#196,2.5);
#180=CIRCLE('',#198,3.);
#181=CIRCLE('',#200,3.);
#182=CIRCLE('',#203,1.35623137121967);
#183=CIRCLE('',#205,2.99908166648712);
#184=CIRCLE('',#206,2.84338225420698);
#185=AXIS2_PLACEMENT_3D('',#257,#209,#210);
#186=AXIS2_PLACEMENT_3D('',#258,#211,#212);
#187=AXIS2_PLACEMENT_3D('',#260,#213,#214);
#188=AXIS2_PLACEMENT_3D('',#262,#215,#216);
#189=AXIS2_PLACEMENT_3D('',#263,#217,#218);
#190=AXIS2_PLACEMENT_3D('',#265,#219,#220);
#191=AXIS2_PLACEMENT_3D('',#295,#221,#222);
#192=AXIS2_PLACEMENT_3D('',#297,#223,#224);
#193=AXIS2_PLACEMENT_3D('',#298,#225,#226);
#194=AXIS2_PLACEMENT_3D('',#299,#227,#228);
#195=AXIS2_PLACEMENT_3D('',#300,#229,#230);
#196=AXIS2_PLACEMENT_3D('',#301,#231,#232);
#197=AXIS2_PLACEMENT_3D('',#303,#233,#234);
#198=AXIS2_PLACEMENT_3D('',#304,#235,#236);
#199=AXIS2_PLACEMENT_3D('',#306,#237,#238);
#200=AXIS2_PLACEMENT_3D('',#307,#239,#240);
#201=AXIS2_PLACEMENT_3D('',#309,#241,#242);
#202=AXIS2_PLACEMENT_3D('',#310,#243,#244);
#203=AXIS2_PLACEMENT_3D('',#311,#245,#246);
#204=AXIS2_PLACEMENT_3D('',#314,#247,#248);
#205=AXIS2_PLACEMENT_3D('',#315,#249,#250);
#206=AXIS2_PLACEMENT_3D('',#345,#251,#252);
#207=AXIS2_PLACEMENT_3D('',#347,#253,#254);
#208=AXIS2_PLACEMENT_3D('',#348,#255,#256);
#209=DIRECTION('',(0.,0.,1.));
#210=DIRECTION('',(1.,0.,0.));
#211=DIRECTION('',(0.,0.,-1.));
#212=DIRECTION('',(-1.,0.,0.));
#213=DIRECTION('',(0.,0.,-1.));
#214=DIRECTION('',(1.,0.,0.));
#215=DIRECTION('',(0.,0.,-1.));
#216=DIRECTION('',(1.,0.,0.));
#217=DIRECTION('',(0.,0.,-1.));
#218=DIRECTION('',(-1.,0.,0.));
#219=DIRECTION('',(0.,0.,-1.));
#220=DIRECTION('',(-1.,0.,0.));
#221=DIRECTION('',(0.,0.,-1.));
#222=DIRECTION('',(-1.,0.,0.));
#223=DIRECTION('',(0.,0.,-1.));
#224=DIRECTION('',(1.,0.,0.));
#225=DIRECTION('',(0.,0.,-1.));
#226=DIRECTION('',(1.,0.,0.));
#227=DIRECTION('',(0.,0.,1.));
#228=DIRECTION('',(-1.,0.,0.));
#229=DIRECTION('',(0.,0.,-1.));
#230=DIRECTION('',(1.,0.,0.));
#231=DIRECTION('',(0.,0.,-1.));
#232=DIRECTION('',(-1.,0.,0.));
#233=DIRECTION('',(0.,0.,1.));
#234=DIRECTION('',(-1.,0.,0.));
#235=DIRECTION('',(0.,0.,-1.));
#236=DIRECTION('',(-1.,0.,0.));
#237=DIRECTION('',(0.,0.,-1.));
#238=DIRECTION('',(1.,0.,-2.76725579418035E-017));
#239=DIRECTION('',(0.,0.,1.));
#240=DIRECTION('',(1.,0.,0.));
#241=DIRECTION('',(0.,0.,-1.));
#242=DIRECTION('',(1.,0.,0.));
#243=DIRECTION('',(0.,0.,1.));
#244=DIRECTION('',(-1.,0.,0.));
#245=DIRECTION('',(0.,0.,-1.));
#246=DIRECTION('',(-1.,0.,0.));
#247=DIRECTION('',(0.,0.,-1.));
#248=DIRECTION('',(1.,0.,-7.85063900222358E-018));
#249=DIRECTION('',(0.,0.,-1.));
#250=DIRECTION('',(-1.,0.,0.));
#251=DIRECTION('',(0.,0.,1.));
#252=DIRECTION('',(-1.,0.,0.));
#253=DIRECTION('',(0.,0.,-1.));
#254=DIRECTION('',(1.,0.,1.82567762596154E-015));
#255=DIRECTION('',(0.,0.,-1.));
#256=DIRECTION('',(1.,0.,0.));
#257=CARTESIAN_POINT('',(0.,0.,0.));
#258=CARTESIAN_POINT('',(0.,0.,-0.294127789076787));
#259=CARTESIAN_POINT('',(-3.,0.,-0.294127789076787));
#260=CARTESIAN_POINT('',(0.,0.,0.));
#261=CARTESIAN_POINT('',(3.,0.,0.));
#262=CARTESIAN_POINT('',(0.,0.,0.));
#263=CARTESIAN_POINT('',(0.,0.,-7.32330368137234));
#264=CARTESIAN_POINT('',(-2.7,0.,-7.32330368137234));
#265=CARTESIAN_POINT('',(0.,0.,-8.));
#266=CARTESIAN_POINT('',(-2.84338225420698,0.,-8.));
#267=CARTESIAN_POINT('',(-2.84338225420698,0.,-8.));
#268=CARTESIAN_POINT('',(-2.84338225420698,5.68676450841397,-8.));
#269=CARTESIAN_POINT('',(2.84338225420698,5.68676450841397,-8.));
#270=CARTESIAN_POINT('',(2.84338225420698,0.,-8.));
#271=CARTESIAN_POINT('',(2.84338225420698,-5.68676450841397,-8.));
#272=CARTESIAN_POINT('',(-2.84338225420698,-5.68676450841397,-8.));
#273=CARTESIAN_POINT('',(-2.84338225420698,0.,-8.));
#274=CARTESIAN_POINT('',(-2.83523340705286,0.,-7.76722994880961));
#275=CARTESIAN_POINT('',(-2.83523340705286,5.67046681410573,-7.76722994880961));
#276=CARTESIAN_POINT('',(2.83523340705286,5.67046681410573,-7.76722994880961));
#277=CARTESIAN_POINT('',(2.83523340705286,0.,-7.76722994880961));
#278=CARTESIAN_POINT('',(2.83523340705286,-5.67046681410573,-7.76722994880961));
#279=CARTESIAN_POINT('',(-2.83523340705286,-5.67046681410573,-7.76722994880961));
#280=CARTESIAN_POINT('',(-2.83523340705286,0.,-7.76722994880961));
#281=CARTESIAN_POINT('',(-2.78695441204526,0.,-7.53937596248905));
#282=CARTESIAN_POINT('',(-2.78695441204526,5.57390882409051,-7.53937596248905));
#283=CARTESIAN_POINT('',(2.78695441204526,5.57390882409051,-7.53937596248905));
#284=CARTESIAN_POINT('',(2.78695441204526,0.,-7.53937596248905));
#285=CARTESIAN_POINT('',(2.78695441204526,-5.57390882409051,-7.53937596248905));
#286=CARTESIAN_POINT('',(-2.78695441204526,-5.57390882409051,-7.53937596248905));
#287=CARTESIAN_POINT('',(-2.78695441204526,0.,-7.53937596248905));
#288=CARTESIAN_POINT('',(-2.7,0.,-7.32330368137234));
#289=CARTESIAN_POINT('',(-2.7,5.39999999999999,-7.32330368137234));
#290=CARTESIAN_POINT('',(2.7,5.39999999999999,-7.32330368137234));
#291=CARTESIAN_POINT('',(2.7,0.,-7.32330368137234));
#292=CARTESIAN_POINT('',(2.7,-5.39999999999999,-7.32330368137234));
#293=CARTESIAN_POINT('',(-2.7,-5.39999999999999,-7.32330368137234));
#294=CARTESIAN_POINT('',(-2.7,0.,-7.32330368137234));
#295=CARTESIAN_POINT('',(0.,0.,-2.));
#296=CARTESIAN_POINT('',(-2.7,0.,-2.));
#297=CARTESIAN_POINT('',(0.,0.,0.));
#298=CARTESIAN_POINT('',(0.,0.,-2.));
#299=CARTESIAN_POINT('',(0.,0.,0.));
#300=CARTESIAN_POINT('',(0.,0.,-8.));
#301=CARTESIAN_POINT('',(0.,0.,36.));
#302=CARTESIAN_POINT('',(-2.5,0.,36.));
#303=CARTESIAN_POINT('',(2.5,0.,36.));
#304=CARTESIAN_POINT('',(0.,0.,35.5));
#305=CARTESIAN_POINT('',(-3.,0.,35.5));
#306=CARTESIAN_POINT('',(0.,0.,35.5));
#307=CARTESIAN_POINT('',(0.,0.,0.));
#308=CARTESIAN_POINT('',(3.,0.,0.));
#309=CARTESIAN_POINT('',(0.,0.,0.));
#310=CARTESIAN_POINT('',(0.,0.,0.));
#311=CARTESIAN_POINT('',(0.,0.,-13.9930942975508));
#312=CARTESIAN_POINT('',(-1.35623137121967,0.,-13.9930942975508));
#313=CARTESIAN_POINT('',(-2.99760216648792E-015,0.,-13.8625040696804));
#314=CARTESIAN_POINT('',(0.,0.,-13.8625040696804));
#315=CARTESIAN_POINT('',(0.,0.,-12.4475199351924));
#316=CARTESIAN_POINT('',(-2.99908166648712,0.,-12.4475199351924));
#317=CARTESIAN_POINT('',(1.35623137121967,0.,-13.9930942975508));
#318=CARTESIAN_POINT('',(1.35623137121967,-2.71246274243935,-13.9930942975508));
#319=CARTESIAN_POINT('',(-1.35623137121967,-2.71246274243935,-13.9930942975508));
#320=CARTESIAN_POINT('',(-1.35623137121967,0.,-13.9930942975508));
#321=CARTESIAN_POINT('',(-1.35623137121967,2.71246274243935,-13.9930942975508));
#322=CARTESIAN_POINT('',(1.35623137121967,2.71246274243935,-13.9930942975508));
#323=CARTESIAN_POINT('',(1.35623137121967,0.,-13.9930942975508));
#324=CARTESIAN_POINT('',(2.32457268593028,0.,-14.0863349610746));
#325=CARTESIAN_POINT('',(2.32457268593028,-4.64914537186055,-14.0863349610746));
#326=CARTESIAN_POINT('',(-2.32457268593028,-4.64914537186055,-14.0863349610746));
#327=CARTESIAN_POINT('',(-2.32457268593028,0.,-14.0863349610746));
#328=CARTESIAN_POINT('',(-2.32457268593028,4.64914537186055,-14.0863349610746));
#329=CARTESIAN_POINT('',(2.32457268593028,4.64914537186055,-14.0863349610746));
#330=CARTESIAN_POINT('',(2.32457268593028,0.,-14.0863349610746));
#331=CARTESIAN_POINT('',(3.03311743705784,0.,-13.4197443380087));
#332=CARTESIAN_POINT('',(3.03311743705784,-6.06623487411567,-13.4197443380087));
#333=CARTESIAN_POINT('',(-3.03311743705784,-6.06623487411567,-13.4197443380087));
#334=CARTESIAN_POINT('',(-3.03311743705784,0.,-13.4197443380087));
#335=CARTESIAN_POINT('',(-3.03311743705784,6.06623487411567,-13.4197443380087));
#336=CARTESIAN_POINT('',(3.03311743705784,6.06623487411567,-13.4197443380087));
#337=CARTESIAN_POINT('',(3.03311743705784,0.,-13.4197443380087));
#338=CARTESIAN_POINT('',(2.99908166648712,0.,-12.4475199351924));
#339=CARTESIAN_POINT('',(2.99908166648712,-5.99816333297423,-12.4475199351924));
#340=CARTESIAN_POINT('',(-2.99908166648712,-5.99816333297423,-12.4475199351924));
#341=CARTESIAN_POINT('',(-2.99908166648712,0.,-12.4475199351924));
#342=CARTESIAN_POINT('',(-2.99908166648712,5.99816333297423,-12.4475199351924));
#343=CARTESIAN_POINT('',(2.99908166648712,5.99816333297423,-12.4475199351924));
#344=CARTESIAN_POINT('',(2.99908166648712,0.,-12.4475199351924));
#345=CARTESIAN_POINT('',(0.,0.,-8.));
#346=CARTESIAN_POINT('',(-2.84338225420698,0.,-8.));
#347=CARTESIAN_POINT('',(0.,0.,-12.4475199351924));
#348=CARTESIAN_POINT('',(0.,0.,-8.));
#349=MECHANICAL_DESIGN_GEOMETRIC_PRESENTATION_REPRESENTATION('',(#30,#31,
#32),#350);
#350=(
GEOMETRIC_REPRESENTATION_CONTEXT(3)
GLOBAL_UNCERTAINTY_ASSIGNED_CONTEXT((#351))
GLOBAL_UNIT_ASSIGNED_CONTEXT((#357,#353,#352))
REPRESENTATION_CONTEXT('180060R150Z4-MEGA-64','TOP_LEVEL_ASSEMBLY_PART')
);
#351=UNCERTAINTY_MEASURE_WITH_UNIT(LENGTH_MEASURE(0.0254),#357,
'DISTANCE_ACCURACY_VALUE','Maximum Tolerance applied to model');
#352=(
NAMED_UNIT(*)
SI_UNIT($,.STERADIAN.)
SOLID_ANGLE_UNIT()
);
#353=(
CONVERSION_BASED_UNIT('DEGREE',#355)
NAMED_UNIT(#354)
PLANE_ANGLE_UNIT()
);
#354=DIMENSIONAL_EXPONENTS(0.,0.,0.,0.,0.,0.,0.);
#355=PLANE_ANGLE_MEASURE_WITH_UNIT(PLANE_ANGLE_MEASURE(0.0174532925),#356);
#356=(
NAMED_UNIT(*)
PLANE_ANGLE_UNIT()
SI_UNIT($,.RADIAN.)
);
#357=(
LENGTH_UNIT()
NAMED_UNIT(*)
SI_UNIT(.MILLI.,.METRE.)
);
ENDSEC;
END-ISO-10303-21;
