ISO-10303-21;
HEADER;
/* Generated by software containing ST-Developer
 * from STEP Tools, Inc. (www.steptools.com) 
 */
/* OPTION: using custom schema-name function */

FILE_DESCRIPTION(
/* description */ (''),
/* implementation_level */ '2;1');

FILE_NAME(
/* name */ '170050R020.0-MEGA-64W.stp',
/* time_stamp */ '2017-12-13T13:51:43+05:00',
/* author */ (''),
/* organization */ (''),
/* preprocessor_version */ 'ST-DEVELOPER v16',
/* originating_system */ 'SIEMENS PLM Software NX 11.0',
/* authorisation */ '');

FILE_SCHEMA (('AUTOMOTIVE_DESIGN { 1 0 10303 214 3 1 1 1 }'));
ENDSEC;

DATA;
#10=CONSTRUCTIVE_GEOMETRY_REPRESENTATION_RELATIONSHIP(
'supplemental geometry','',#32,#11);
#11=CONSTRUCTIVE_GEOMETRY_REPRESENTATION('supplemental geometry',(#199,
#200,#201,#202),#321);
#12=PROPERTY_DEFINITION_REPRESENTATION(#16,#14);
#13=PROPERTY_DEFINITION_REPRESENTATION(#17,#15);
#14=REPRESENTATION('',(#18),#321);
#15=REPRESENTATION('',(#19),#321);
#16=PROPERTY_DEFINITION('pmi validation property','',#23);
#17=PROPERTY_DEFINITION('pmi validation property','',#23);
#18=VALUE_REPRESENTATION_ITEM('number of annotations',COUNT_MEASURE(0.));
#19=VALUE_REPRESENTATION_ITEM('number of views',COUNT_MEASURE(0.));
#20=SHAPE_REPRESENTATION_RELATIONSHIP('None',
'relationship between 170050R020.0-MEGA-64W-None and 170050R020.0-MEGA
-64W-None',#32,#21);
#21=ADVANCED_BREP_SHAPE_REPRESENTATION('170050R020.0-MEGA-64W-None',(#49,
#50,#51),#321);
#22=SHAPE_DEFINITION_REPRESENTATION(#23,#32);
#23=PRODUCT_DEFINITION_SHAPE('','',#24);
#24=PRODUCT_DEFINITION(' ','',#26,#25);
#25=PRODUCT_DEFINITION_CONTEXT('part definition',#31,'design');
#26=PRODUCT_DEFINITION_FORMATION_WITH_SPECIFIED_SOURCE(' ',' ',#28,
 .NOT_KNOWN.);
#27=PRODUCT_RELATED_PRODUCT_CATEGORY('part','',(#28));
#28=PRODUCT('170050R020.0-MEGA-64W','170050R020.0-MEGA-64W',' ',(#29));
#29=PRODUCT_CONTEXT(' ',#31,'mechanical');
#30=APPLICATION_PROTOCOL_DEFINITION('international standard',
'automotive_design',2010,#31);
#31=APPLICATION_CONTEXT(
'core data for automotive mechanical design processes');
#32=SHAPE_REPRESENTATION('170050R020.0-MEGA-64W-None',(#198),#321);
#33=CONICAL_SURFACE('',#222,3.,45.0000000000008);
#34=SURFACE_STYLE_USAGE(.BOTH.,#37);
#35=SURFACE_STYLE_USAGE(.BOTH.,#38);
#36=SURFACE_STYLE_USAGE(.BOTH.,#39);
#37=SURFACE_SIDE_STYLE('',(#40));
#38=SURFACE_SIDE_STYLE('',(#41));
#39=SURFACE_SIDE_STYLE('',(#42));
#40=SURFACE_STYLE_FILL_AREA(#43);
#41=SURFACE_STYLE_FILL_AREA(#44);
#42=SURFACE_STYLE_FILL_AREA(#45);
#43=FILL_AREA_STYLE('',(#46));
#44=FILL_AREA_STYLE('',(#47));
#45=FILL_AREA_STYLE('',(#48));
#46=FILL_AREA_STYLE_COLOUR('',#192);
#47=FILL_AREA_STYLE_COLOUR('',#193);
#48=FILL_AREA_STYLE_COLOUR('',#192);
#49=MANIFOLD_SOLID_BREP('NOCUT',#52);
#50=MANIFOLD_SOLID_BREP('CUT',#53);
#51=MANIFOLD_SOLID_BREP('NOCUT',#54);
#52=CLOSED_SHELL('',(#69,#70,#71,#72,#73));
#53=CLOSED_SHELL('',(#74,#75,#76,#77));
#54=CLOSED_SHELL('',(#78,#79,#80,#81));
#55=PLANE('',#210);
#56=PLANE('',#211);
#57=PLANE('',#213);
#58=PLANE('',#218);
#59=PLANE('',#220);
#60=PLANE('',#225);
#61=FACE_OUTER_BOUND('',#106,.T.);
#62=FACE_OUTER_BOUND('',#107,.T.);
#63=FACE_OUTER_BOUND('',#108,.T.);
#64=FACE_OUTER_BOUND('',#113,.T.);
#65=FACE_OUTER_BOUND('',#114,.T.);
#66=FACE_OUTER_BOUND('',#119,.T.);
#67=TOROIDAL_SURFACE('',#207,7.3,5.);
#68=TOROIDAL_SURFACE('',#217,2.3,0.199999999999999);
#69=ADVANCED_FACE('',(#86,#87),#82,.T.);
#70=ADVANCED_FACE('',(#88,#89),#67,.F.);
#71=ADVANCED_FACE('',(#90,#91),#83,.T.);
#72=ADVANCED_FACE('',(#61),#55,.T.);
#73=ADVANCED_FACE('',(#62),#56,.T.);
#74=ADVANCED_FACE('',(#63),#57,.T.);
#75=ADVANCED_FACE('',(#92,#93),#84,.T.);
#76=ADVANCED_FACE('',(#94,#95),#68,.T.);
#77=ADVANCED_FACE('',(#64),#58,.T.);
#78=ADVANCED_FACE('',(#65),#59,.T.);
#79=ADVANCED_FACE('',(#96,#97),#33,.T.);
#80=ADVANCED_FACE('',(#98,#99),#85,.T.);
#81=ADVANCED_FACE('',(#66),#60,.F.);
#82=CYLINDRICAL_SURFACE('',#205,3.);
#83=CYLINDRICAL_SURFACE('',#209,2.3);
#84=CYLINDRICAL_SURFACE('',#215,2.5);
#85=CYLINDRICAL_SURFACE('',#224,3.);
#86=FACE_BOUND('',#100,.T.);
#87=FACE_BOUND('',#101,.T.);
#88=FACE_BOUND('',#102,.T.);
#89=FACE_BOUND('',#103,.T.);
#90=FACE_BOUND('',#104,.T.);
#91=FACE_BOUND('',#105,.T.);
#92=FACE_BOUND('',#109,.T.);
#93=FACE_BOUND('',#110,.T.);
#94=FACE_BOUND('',#111,.T.);
#95=FACE_BOUND('',#112,.T.);
#96=FACE_BOUND('',#115,.T.);
#97=FACE_BOUND('',#116,.T.);
#98=FACE_BOUND('',#117,.T.);
#99=FACE_BOUND('',#118,.T.);
#100=EDGE_LOOP('',(#120));
#101=EDGE_LOOP('',(#121));
#102=EDGE_LOOP('',(#122));
#103=EDGE_LOOP('',(#123));
#104=EDGE_LOOP('',(#124));
#105=EDGE_LOOP('',(#125));
#106=EDGE_LOOP('',(#126));
#107=EDGE_LOOP('',(#127));
#108=EDGE_LOOP('',(#128));
#109=EDGE_LOOP('',(#129));
#110=EDGE_LOOP('',(#130));
#111=EDGE_LOOP('',(#131));
#112=EDGE_LOOP('',(#132));
#113=EDGE_LOOP('',(#133));
#114=EDGE_LOOP('',(#134));
#115=EDGE_LOOP('',(#135));
#116=EDGE_LOOP('',(#136));
#117=EDGE_LOOP('',(#137));
#118=EDGE_LOOP('',(#138));
#119=EDGE_LOOP('',(#139));
#120=ORIENTED_EDGE('',*,*,#150,.F.);
#121=ORIENTED_EDGE('',*,*,#151,.T.);
#122=ORIENTED_EDGE('',*,*,#150,.T.);
#123=ORIENTED_EDGE('',*,*,#152,.F.);
#124=ORIENTED_EDGE('',*,*,#152,.T.);
#125=ORIENTED_EDGE('',*,*,#153,.F.);
#126=ORIENTED_EDGE('',*,*,#153,.T.);
#127=ORIENTED_EDGE('',*,*,#151,.F.);
#128=ORIENTED_EDGE('',*,*,#154,.F.);
#129=ORIENTED_EDGE('',*,*,#154,.T.);
#130=ORIENTED_EDGE('',*,*,#155,.F.);
#131=ORIENTED_EDGE('',*,*,#155,.T.);
#132=ORIENTED_EDGE('',*,*,#156,.F.);
#133=ORIENTED_EDGE('',*,*,#156,.T.);
#134=ORIENTED_EDGE('',*,*,#157,.F.);
#135=ORIENTED_EDGE('',*,*,#157,.T.);
#136=ORIENTED_EDGE('',*,*,#158,.F.);
#137=ORIENTED_EDGE('',*,*,#159,.F.);
#138=ORIENTED_EDGE('',*,*,#158,.T.);
#139=ORIENTED_EDGE('',*,*,#159,.T.);
#140=VERTEX_POINT('',#288);
#141=VERTEX_POINT('',#290);
#142=VERTEX_POINT('',#293);
#143=VERTEX_POINT('',#296);
#144=VERTEX_POINT('',#301);
#145=VERTEX_POINT('',#304);
#146=VERTEX_POINT('',#307);
#147=VERTEX_POINT('',#311);
#148=VERTEX_POINT('',#314);
#149=VERTEX_POINT('',#317);
#150=EDGE_CURVE('',#140,#140,#160,.T.);
#151=EDGE_CURVE('',#141,#141,#161,.T.);
#152=EDGE_CURVE('',#142,#142,#162,.T.);
#153=EDGE_CURVE('',#143,#143,#163,.T.);
#154=EDGE_CURVE('',#144,#144,#164,.T.);
#155=EDGE_CURVE('',#145,#145,#165,.T.);
#156=EDGE_CURVE('',#146,#146,#166,.T.);
#157=EDGE_CURVE('',#147,#147,#167,.T.);
#158=EDGE_CURVE('',#148,#148,#168,.T.);
#159=EDGE_CURVE('',#149,#149,#169,.T.);
#160=CIRCLE('',#203,3.);
#161=CIRCLE('',#204,3.);
#162=CIRCLE('',#206,2.3);
#163=CIRCLE('',#208,2.3);
#164=CIRCLE('',#212,2.5);
#165=CIRCLE('',#214,2.5);
#166=CIRCLE('',#216,2.3);
#167=CIRCLE('',#219,2.5);
#168=CIRCLE('',#221,3.);
#169=CIRCLE('',#223,3.);
#170=PRESENTATION_LAYER_ASSIGNMENT('1','Layer 1',(#199,#200,#201,#202,#51));
#171=PRESENTATION_LAYER_ASSIGNMENT('2','Layer 2',(#49));
#172=PRESENTATION_LAYER_ASSIGNMENT('3','Layer 3',(#50));
#173=STYLED_ITEM('',(#180),#199);
#174=STYLED_ITEM('',(#181),#200);
#175=STYLED_ITEM('',(#182),#201);
#176=STYLED_ITEM('',(#183),#202);
#177=STYLED_ITEM('',(#184),#49);
#178=STYLED_ITEM('',(#185),#50);
#179=STYLED_ITEM('',(#186),#51);
#180=PRESENTATION_STYLE_ASSIGNMENT((#187));
#181=PRESENTATION_STYLE_ASSIGNMENT((#188));
#182=PRESENTATION_STYLE_ASSIGNMENT((#189));
#183=PRESENTATION_STYLE_ASSIGNMENT((#190));
#184=PRESENTATION_STYLE_ASSIGNMENT((#34));
#185=PRESENTATION_STYLE_ASSIGNMENT((#35));
#186=PRESENTATION_STYLE_ASSIGNMENT((#36));
#187=CURVE_STYLE('',#194,POSITIVE_LENGTH_MEASURE(0.18),#191);
#188=CURVE_STYLE('',#195,POSITIVE_LENGTH_MEASURE(0.18),#191);
#189=CURVE_STYLE('',#196,POSITIVE_LENGTH_MEASURE(0.18),#191);
#190=CURVE_STYLE('',#197,POSITIVE_LENGTH_MEASURE(0.18),#191);
#191=COLOUR_RGB('Strong Stone',0.576470588235294,0.54508278019379,0.392156862745098);
#192=COLOUR_RGB('Medium Gray',0.490196078431373,0.490196078431373,0.490196078431373);
#193=COLOUR_RGB('Light Gray',0.8,0.8,0.8);
#194=DRAUGHTING_PRE_DEFINED_CURVE_FONT('continuous');
#195=DRAUGHTING_PRE_DEFINED_CURVE_FONT('continuous');
#196=DRAUGHTING_PRE_DEFINED_CURVE_FONT('continuous');
#197=DRAUGHTING_PRE_DEFINED_CURVE_FONT('continuous');
#198=AXIS2_PLACEMENT_3D('',#282,#226,#227);
#199=AXIS2_PLACEMENT_3D('MCS',#283,#228,#229);
#200=AXIS2_PLACEMENT_3D('PCS',#284,#230,#231);
#201=AXIS2_PLACEMENT_3D('CIP',#285,#232,#233);
#202=AXIS2_PLACEMENT_3D('LCS',#286,#234,#235);
#203=AXIS2_PLACEMENT_3D('',#287,#236,#237);
#204=AXIS2_PLACEMENT_3D('',#289,#238,#239);
#205=AXIS2_PLACEMENT_3D('',#291,#240,#241);
#206=AXIS2_PLACEMENT_3D('',#292,#242,#243);
#207=AXIS2_PLACEMENT_3D('',#294,#244,#245);
#208=AXIS2_PLACEMENT_3D('',#295,#246,#247);
#209=AXIS2_PLACEMENT_3D('',#297,#248,#249);
#210=AXIS2_PLACEMENT_3D('',#298,#250,#251);
#211=AXIS2_PLACEMENT_3D('',#299,#252,#253);
#212=AXIS2_PLACEMENT_3D('',#300,#254,#255);
#213=AXIS2_PLACEMENT_3D('',#302,#256,#257);
#214=AXIS2_PLACEMENT_3D('',#303,#258,#259);
#215=AXIS2_PLACEMENT_3D('',#305,#260,#261);
#216=AXIS2_PLACEMENT_3D('',#306,#262,#263);
#217=AXIS2_PLACEMENT_3D('',#308,#264,#265);
#218=AXIS2_PLACEMENT_3D('',#309,#266,#267);
#219=AXIS2_PLACEMENT_3D('',#310,#268,#269);
#220=AXIS2_PLACEMENT_3D('',#312,#270,#271);
#221=AXIS2_PLACEMENT_3D('',#313,#272,#273);
#222=AXIS2_PLACEMENT_3D('',#315,#274,#275);
#223=AXIS2_PLACEMENT_3D('',#316,#276,#277);
#224=AXIS2_PLACEMENT_3D('',#318,#278,#279);
#225=AXIS2_PLACEMENT_3D('',#319,#280,#281);
#226=DIRECTION('',(0.,0.,1.));
#227=DIRECTION('',(1.,0.,0.));
#228=DIRECTION('',(0.,0.,1.));
#229=DIRECTION('',(1.,0.,0.));
#230=DIRECTION('',(0.,0.,1.));
#231=DIRECTION('',(1.,0.,0.));
#232=DIRECTION('',(0.,0.,1.));
#233=DIRECTION('',(1.,0.,0.));
#234=DIRECTION('',(0.,0.,1.));
#235=DIRECTION('',(1.,0.,0.));
#236=DIRECTION('',(0.,0.,-1.));
#237=DIRECTION('',(-1.,0.,0.));
#238=DIRECTION('',(0.,0.,-1.));
#239=DIRECTION('',(1.,0.,0.));
#240=DIRECTION('',(0.,0.,-1.));
#241=DIRECTION('',(-1.,0.,0.));
#242=DIRECTION('',(0.,0.,-1.));
#243=DIRECTION('',(-1.,0.,0.));
#244=DIRECTION('',(0.,0.,-1.));
#245=DIRECTION('',(-1.,0.,0.));
#246=DIRECTION('',(0.,0.,-1.));
#247=DIRECTION('',(-1.,0.,0.));
#248=DIRECTION('',(0.,0.,-1.));
#249=DIRECTION('',(-1.,0.,0.));
#250=DIRECTION('',(0.,0.,-1.));
#251=DIRECTION('',(-1.,0.,0.));
#252=DIRECTION('',(0.,0.,1.));
#253=DIRECTION('',(1.,0.,0.));
#254=DIRECTION('',(0.,0.,-1.));
#255=DIRECTION('',(-1.,0.,0.));
#256=DIRECTION('',(0.,0.,1.));
#257=DIRECTION('',(1.,0.,0.));
#258=DIRECTION('',(0.,0.,-1.));
#259=DIRECTION('',(-1.,0.,0.));
#260=DIRECTION('',(0.,0.,-1.));
#261=DIRECTION('',(-1.,0.,0.));
#262=DIRECTION('',(0.,0.,-1.));
#263=DIRECTION('',(-1.,0.,0.));
#264=DIRECTION('',(0.,0.,-1.));
#265=DIRECTION('',(-1.,0.,0.));
#266=DIRECTION('',(0.,0.,-1.));
#267=DIRECTION('',(-1.,0.,0.));
#268=DIRECTION('',(0.,0.,-1.));
#269=DIRECTION('',(-1.,0.,0.));
#270=DIRECTION('',(0.,0.,1.));
#271=DIRECTION('',(1.,0.,0.));
#272=DIRECTION('',(0.,0.,-1.));
#273=DIRECTION('',(-1.,0.,0.));
#274=DIRECTION('',(0.,0.,-1.));
#275=DIRECTION('',(-1.,0.,-2.76725579418027E-17));
#276=DIRECTION('',(0.,0.,-1.));
#277=DIRECTION('',(1.,0.,0.));
#278=DIRECTION('',(0.,0.,-1.));
#279=DIRECTION('',(-1.,0.,0.));
#280=DIRECTION('',(0.,0.,1.));
#281=DIRECTION('',(1.,0.,0.));
#282=CARTESIAN_POINT('',(0.,0.,0.));
#283=CARTESIAN_POINT('',(0.,0.,0.));
#284=CARTESIAN_POINT('',(0.,7.105427357601E-15,36.));
#285=CARTESIAN_POINT('',(0.,0.,-14.));
#286=CARTESIAN_POINT('',(0.,0.,18.));
#287=CARTESIAN_POINT('',(0.,0.,-1.44852983556537));
#288=CARTESIAN_POINT('',(-3.,0.,-1.44852983556537));
#289=CARTESIAN_POINT('',(0.,0.,0.));
#290=CARTESIAN_POINT('',(3.,0.,0.));
#291=CARTESIAN_POINT('',(0.,0.,-19.));
#292=CARTESIAN_POINT('',(0.,0.,-3.99999999999999));
#293=CARTESIAN_POINT('',(-2.3,0.,-3.99999999999999));
#294=CARTESIAN_POINT('',(0.,0.,-3.99999999999999));
#295=CARTESIAN_POINT('',(0.,0.,-9.));
#296=CARTESIAN_POINT('',(-2.3,0.,-9.));
#297=CARTESIAN_POINT('',(0.,0.,-19.));
#298=CARTESIAN_POINT('',(0.,0.,-9.));
#299=CARTESIAN_POINT('',(0.,0.,0.));
#300=CARTESIAN_POINT('',(0.,0.,-8.99999999999999));
#301=CARTESIAN_POINT('',(-2.5,0.,-8.99999999999999));
#302=CARTESIAN_POINT('',(0.,2.5,-9.));
#303=CARTESIAN_POINT('',(0.,0.,-13.8));
#304=CARTESIAN_POINT('',(-2.5,0.,-13.8));
#305=CARTESIAN_POINT('',(0.,0.,-19.));
#306=CARTESIAN_POINT('',(0.,0.,-14.));
#307=CARTESIAN_POINT('',(-2.3,0.,-14.));
#308=CARTESIAN_POINT('',(0.,0.,-13.8));
#309=CARTESIAN_POINT('',(0.,0.,-14.));
#310=CARTESIAN_POINT('',(0.,0.,36.));
#311=CARTESIAN_POINT('',(-2.5,0.,36.));
#312=CARTESIAN_POINT('',(0.,2.5,36.));
#313=CARTESIAN_POINT('',(0.,0.,35.5));
#314=CARTESIAN_POINT('',(-3.,0.,35.5));
#315=CARTESIAN_POINT('',(0.,0.,35.5));
#316=CARTESIAN_POINT('',(0.,0.,0.));
#317=CARTESIAN_POINT('',(3.,0.,0.));
#318=CARTESIAN_POINT('',(0.,0.,-19.));
#319=CARTESIAN_POINT('',(0.,0.,0.));
#320=MECHANICAL_DESIGN_GEOMETRIC_PRESENTATION_REPRESENTATION('',(#173,#174,
#175,#176,#177,#178,#179),#321);
#321=(
GEOMETRIC_REPRESENTATION_CONTEXT(3)
GLOBAL_UNCERTAINTY_ASSIGNED_CONTEXT((#322))
GLOBAL_UNIT_ASSIGNED_CONTEXT((#328,#324,#323))
REPRESENTATION_CONTEXT('170050R020','TOP_LEVEL_ASSEMBLY_PART')
);
#322=UNCERTAINTY_MEASURE_WITH_UNIT(LENGTH_MEASURE(2.E-5),#328,
'DISTANCE_ACCURACY_VALUE','Maximum Tolerance applied to model');
#323=(
NAMED_UNIT(*)
SI_UNIT($,.STERADIAN.)
SOLID_ANGLE_UNIT()
);
#324=(
CONVERSION_BASED_UNIT('DEGREE',#326)
NAMED_UNIT(#325)
PLANE_ANGLE_UNIT()
);
#325=DIMENSIONAL_EXPONENTS(0.,0.,0.,0.,0.,0.,0.);
#326=PLANE_ANGLE_MEASURE_WITH_UNIT(PLANE_ANGLE_MEASURE(0.0174532925),#327);
#327=(
NAMED_UNIT(*)
PLANE_ANGLE_UNIT()
SI_UNIT($,.RADIAN.)
);
#328=(
LENGTH_UNIT()
NAMED_UNIT(*)
SI_UNIT(.MILLI.,.METRE.)
);
ENDSEC;
END-ISO-10303-21;
