ISO-10303-21;
HEADER;
/* Generated by software containing ST-Developer
 * from STEP Tools, Inc. (www.steptools.com) 
 */
/* OPTION: using custom schema-name function */

FILE_DESCRIPTION(
/* description */ (''),
/* implementation_level */ '2;1');

FILE_NAME(
/* name */ '170040R050.0-MEGA-64.stp',
/* time_stamp */ '2017-12-13T13:51:44+05:00',
/* author */ (''),
/* organization */ (''),
/* preprocessor_version */ 'ST-DEVELOPER v16',
/* originating_system */ 'SIEMENS PLM Software NX 11.0',
/* authorisation */ '');

FILE_SCHEMA (('AUTOMOTIVE_DESIGN { 1 0 10303 214 3 1 1 1 }'));
ENDSEC;

DATA;
#10=CONSTRUCTIVE_GEOMETRY_REPRESENTATION_RELATIONSHIP(
'supplemental geometry','',#32,#11);
#11=CONSTRUCTIVE_GEOMETRY_REPRESENTATION('supplemental geometry',(#196,
#197,#198),#314);
#12=PROPERTY_DEFINITION_REPRESENTATION(#16,#14);
#13=PROPERTY_DEFINITION_REPRESENTATION(#17,#15);
#14=REPRESENTATION('',(#18),#314);
#15=REPRESENTATION('',(#19),#314);
#16=PROPERTY_DEFINITION('pmi validation property','',#23);
#17=PROPERTY_DEFINITION('pmi validation property','',#23);
#18=VALUE_REPRESENTATION_ITEM('number of annotations',COUNT_MEASURE(0.));
#19=VALUE_REPRESENTATION_ITEM('number of views',COUNT_MEASURE(0.));
#20=SHAPE_REPRESENTATION_RELATIONSHIP('None',
'relationship between 170040R050.0-MEGA-64-None and 170040R050.0-MEGA-
64-None',#32,#21);
#21=ADVANCED_BREP_SHAPE_REPRESENTATION('170040R050.0-MEGA-64-None',(#49,
#50,#51),#314);
#22=SHAPE_DEFINITION_REPRESENTATION(#23,#32);
#23=PRODUCT_DEFINITION_SHAPE('','',#24);
#24=PRODUCT_DEFINITION(' ','',#26,#25);
#25=PRODUCT_DEFINITION_CONTEXT('part definition',#31,'design');
#26=PRODUCT_DEFINITION_FORMATION_WITH_SPECIFIED_SOURCE(' ',' ',#28,
 .NOT_KNOWN.);
#27=PRODUCT_RELATED_PRODUCT_CATEGORY('part','',(#28));
#28=PRODUCT('170040R050.0-MEGA-64','170040R050.0-MEGA-64',' ',(#29));
#29=PRODUCT_CONTEXT(' ',#31,'mechanical');
#30=APPLICATION_PROTOCOL_DEFINITION('international standard',
'automotive_design',2010,#31);
#31=APPLICATION_CONTEXT(
'core data for automotive mechanical design processes');
#32=SHAPE_REPRESENTATION('170040R050.0-MEGA-64-None',(#195),#314);
#33=CONICAL_SURFACE('',#218,3.00000000000001,44.9999999999998);
#34=SURFACE_STYLE_USAGE(.BOTH.,#37);
#35=SURFACE_STYLE_USAGE(.BOTH.,#38);
#36=SURFACE_STYLE_USAGE(.BOTH.,#39);
#37=SURFACE_SIDE_STYLE('',(#40));
#38=SURFACE_SIDE_STYLE('',(#41));
#39=SURFACE_SIDE_STYLE('',(#42));
#40=SURFACE_STYLE_FILL_AREA(#43);
#41=SURFACE_STYLE_FILL_AREA(#44);
#42=SURFACE_STYLE_FILL_AREA(#45);
#43=FILL_AREA_STYLE('',(#46));
#44=FILL_AREA_STYLE('',(#47));
#45=FILL_AREA_STYLE('',(#48));
#46=FILL_AREA_STYLE_COLOUR('',#190);
#47=FILL_AREA_STYLE_COLOUR('',#191);
#48=FILL_AREA_STYLE_COLOUR('',#191);
#49=MANIFOLD_SOLID_BREP('CUT',#52);
#50=MANIFOLD_SOLID_BREP('NOCUT',#53);
#51=MANIFOLD_SOLID_BREP('NOCUT',#54);
#52=CLOSED_SHELL('',(#75,#76,#77,#78));
#53=CLOSED_SHELL('',(#79,#80,#81,#82,#83));
#54=CLOSED_SHELL('',(#84,#85,#86,#87));
#55=TOROIDAL_SURFACE('',#204,1.50000000000001,0.5);
#56=TOROIDAL_SURFACE('',#213,6.85000000000001,5.);
#57=CYLINDRICAL_SURFACE('',#202,2.00000000000001);
#58=CYLINDRICAL_SURFACE('',#208,3.00000000000002);
#59=CYLINDRICAL_SURFACE('',#212,1.85000000000001);
#60=CYLINDRICAL_SURFACE('',#220,3.00000000000002);
#61=FACE_BOUND('',#101,.T.);
#62=FACE_BOUND('',#102,.T.);
#63=FACE_BOUND('',#103,.T.);
#64=FACE_BOUND('',#104,.T.);
#65=FACE_BOUND('',#106,.T.);
#66=FACE_BOUND('',#107,.T.);
#67=FACE_BOUND('',#109,.T.);
#68=FACE_BOUND('',#110,.T.);
#69=FACE_BOUND('',#111,.T.);
#70=FACE_BOUND('',#112,.T.);
#71=FACE_BOUND('',#115,.T.);
#72=FACE_BOUND('',#116,.T.);
#73=FACE_BOUND('',#117,.T.);
#74=FACE_BOUND('',#118,.T.);
#75=ADVANCED_FACE('',(#94),#88,.F.);
#76=ADVANCED_FACE('',(#61,#62),#57,.T.);
#77=ADVANCED_FACE('',(#63,#64),#55,.T.);
#78=ADVANCED_FACE('',(#95),#89,.F.);
#79=ADVANCED_FACE('',(#65,#66),#58,.T.);
#80=ADVANCED_FACE('',(#96),#90,.F.);
#81=ADVANCED_FACE('',(#67,#68),#59,.T.);
#82=ADVANCED_FACE('',(#69,#70),#56,.F.);
#83=ADVANCED_FACE('',(#97),#91,.T.);
#84=ADVANCED_FACE('',(#98),#92,.F.);
#85=ADVANCED_FACE('',(#71,#72),#33,.T.);
#86=ADVANCED_FACE('',(#73,#74),#60,.T.);
#87=ADVANCED_FACE('',(#99),#93,.F.);
#88=PLANE('',#200);
#89=PLANE('',#205);
#90=PLANE('',#210);
#91=PLANE('',#214);
#92=PLANE('',#216);
#93=PLANE('',#221);
#94=FACE_OUTER_BOUND('',#100,.T.);
#95=FACE_OUTER_BOUND('',#105,.T.);
#96=FACE_OUTER_BOUND('',#108,.T.);
#97=FACE_OUTER_BOUND('',#113,.T.);
#98=FACE_OUTER_BOUND('',#114,.T.);
#99=FACE_OUTER_BOUND('',#119,.T.);
#100=EDGE_LOOP('',(#120));
#101=EDGE_LOOP('',(#121));
#102=EDGE_LOOP('',(#122));
#103=EDGE_LOOP('',(#123));
#104=EDGE_LOOP('',(#124));
#105=EDGE_LOOP('',(#125));
#106=EDGE_LOOP('',(#126));
#107=EDGE_LOOP('',(#127));
#108=EDGE_LOOP('',(#128));
#109=EDGE_LOOP('',(#129));
#110=EDGE_LOOP('',(#130));
#111=EDGE_LOOP('',(#131));
#112=EDGE_LOOP('',(#132));
#113=EDGE_LOOP('',(#133));
#114=EDGE_LOOP('',(#134));
#115=EDGE_LOOP('',(#135));
#116=EDGE_LOOP('',(#136));
#117=EDGE_LOOP('',(#137));
#118=EDGE_LOOP('',(#138));
#119=EDGE_LOOP('',(#139));
#120=ORIENTED_EDGE('',*,*,#150,.F.);
#121=ORIENTED_EDGE('',*,*,#151,.F.);
#122=ORIENTED_EDGE('',*,*,#150,.T.);
#123=ORIENTED_EDGE('',*,*,#152,.F.);
#124=ORIENTED_EDGE('',*,*,#151,.T.);
#125=ORIENTED_EDGE('',*,*,#152,.T.);
#126=ORIENTED_EDGE('',*,*,#153,.T.);
#127=ORIENTED_EDGE('',*,*,#154,.T.);
#128=ORIENTED_EDGE('',*,*,#155,.F.);
#129=ORIENTED_EDGE('',*,*,#156,.F.);
#130=ORIENTED_EDGE('',*,*,#155,.T.);
#131=ORIENTED_EDGE('',*,*,#153,.F.);
#132=ORIENTED_EDGE('',*,*,#156,.T.);
#133=ORIENTED_EDGE('',*,*,#154,.F.);
#134=ORIENTED_EDGE('',*,*,#157,.T.);
#135=ORIENTED_EDGE('',*,*,#157,.F.);
#136=ORIENTED_EDGE('',*,*,#158,.T.);
#137=ORIENTED_EDGE('',*,*,#159,.T.);
#138=ORIENTED_EDGE('',*,*,#158,.F.);
#139=ORIENTED_EDGE('',*,*,#159,.F.);
#140=VERTEX_POINT('',#281);
#141=VERTEX_POINT('',#284);
#142=VERTEX_POINT('',#287);
#143=VERTEX_POINT('',#291);
#144=VERTEX_POINT('',#293);
#145=VERTEX_POINT('',#296);
#146=VERTEX_POINT('',#299);
#147=VERTEX_POINT('',#304);
#148=VERTEX_POINT('',#307);
#149=VERTEX_POINT('',#310);
#150=EDGE_CURVE('',#140,#140,#160,.T.);
#151=EDGE_CURVE('',#141,#141,#161,.T.);
#152=EDGE_CURVE('',#142,#142,#162,.T.);
#153=EDGE_CURVE('',#143,#143,#163,.T.);
#154=EDGE_CURVE('',#144,#144,#164,.T.);
#155=EDGE_CURVE('',#145,#145,#165,.T.);
#156=EDGE_CURVE('',#146,#146,#166,.T.);
#157=EDGE_CURVE('',#147,#147,#167,.T.);
#158=EDGE_CURVE('',#148,#148,#168,.T.);
#159=EDGE_CURVE('',#149,#149,#169,.T.);
#160=CIRCLE('',#199,2.00000000000001);
#161=CIRCLE('',#201,2.00000000000001);
#162=CIRCLE('',#203,1.50000000000001);
#163=CIRCLE('',#206,3.);
#164=CIRCLE('',#207,3.00000000000002);
#165=CIRCLE('',#209,1.85000000000001);
#166=CIRCLE('',#211,1.85000000000001);
#167=CIRCLE('',#215,2.5);
#168=CIRCLE('',#217,3.00000000000001);
#169=CIRCLE('',#219,3.00000000000002);
#170=PRESENTATION_LAYER_ASSIGNMENT('1','Layer 1',(#196,#197,#198,#51));
#171=PRESENTATION_LAYER_ASSIGNMENT('3','Layer 3',(#49));
#172=PRESENTATION_LAYER_ASSIGNMENT('2','Layer 2',(#50));
#173=STYLED_ITEM('',(#179),#196);
#174=STYLED_ITEM('',(#180),#197);
#175=STYLED_ITEM('',(#181),#198);
#176=STYLED_ITEM('',(#182),#49);
#177=STYLED_ITEM('',(#183),#50);
#178=STYLED_ITEM('',(#184),#51);
#179=PRESENTATION_STYLE_ASSIGNMENT((#185));
#180=PRESENTATION_STYLE_ASSIGNMENT((#186));
#181=PRESENTATION_STYLE_ASSIGNMENT((#187));
#182=PRESENTATION_STYLE_ASSIGNMENT((#34));
#183=PRESENTATION_STYLE_ASSIGNMENT((#35));
#184=PRESENTATION_STYLE_ASSIGNMENT((#36));
#185=CURVE_STYLE('',#192,POSITIVE_LENGTH_MEASURE(0.18),#188);
#186=CURVE_STYLE('',#193,POSITIVE_LENGTH_MEASURE(0.18),#189);
#187=CURVE_STYLE('',#194,POSITIVE_LENGTH_MEASURE(0.18),#189);
#188=COLOUR_RGB('Strong Stone',0.576470588235294,0.54508278019379,0.392156862745098);
#189=COLOUR_RGB('Medium Maroon',0.6,0.4,0.4);
#190=COLOUR_RGB('Light Gray',0.8,0.8,0.8);
#191=COLOUR_RGB('Medium Gray',0.490196078431373,0.490196078431373,0.490196078431373);
#192=DRAUGHTING_PRE_DEFINED_CURVE_FONT('continuous');
#193=DRAUGHTING_PRE_DEFINED_CURVE_FONT('continuous');
#194=DRAUGHTING_PRE_DEFINED_CURVE_FONT('continuous');
#195=AXIS2_PLACEMENT_3D('',#276,#222,#223);
#196=AXIS2_PLACEMENT_3D('MCS',#277,#224,#225);
#197=AXIS2_PLACEMENT_3D('PCS',#278,#226,#227);
#198=AXIS2_PLACEMENT_3D('CIP',#279,#228,#229);
#199=AXIS2_PLACEMENT_3D('',#280,#230,#231);
#200=AXIS2_PLACEMENT_3D('',#282,#232,#233);
#201=AXIS2_PLACEMENT_3D('',#283,#234,#235);
#202=AXIS2_PLACEMENT_3D('',#285,#236,#237);
#203=AXIS2_PLACEMENT_3D('',#286,#238,#239);
#204=AXIS2_PLACEMENT_3D('',#288,#240,#241);
#205=AXIS2_PLACEMENT_3D('',#289,#242,#243);
#206=AXIS2_PLACEMENT_3D('',#290,#244,#245);
#207=AXIS2_PLACEMENT_3D('',#292,#246,#247);
#208=AXIS2_PLACEMENT_3D('',#294,#248,#249);
#209=AXIS2_PLACEMENT_3D('',#295,#250,#251);
#210=AXIS2_PLACEMENT_3D('',#297,#252,#253);
#211=AXIS2_PLACEMENT_3D('',#298,#254,#255);
#212=AXIS2_PLACEMENT_3D('',#300,#256,#257);
#213=AXIS2_PLACEMENT_3D('',#301,#258,#259);
#214=AXIS2_PLACEMENT_3D('',#302,#260,#261);
#215=AXIS2_PLACEMENT_3D('',#303,#262,#263);
#216=AXIS2_PLACEMENT_3D('',#305,#264,#265);
#217=AXIS2_PLACEMENT_3D('',#306,#266,#267);
#218=AXIS2_PLACEMENT_3D('',#308,#268,#269);
#219=AXIS2_PLACEMENT_3D('',#309,#270,#271);
#220=AXIS2_PLACEMENT_3D('',#311,#272,#273);
#221=AXIS2_PLACEMENT_3D('',#312,#274,#275);
#222=DIRECTION('',(0.,0.,1.));
#223=DIRECTION('',(1.,0.,0.));
#224=DIRECTION('',(0.,0.,1.));
#225=DIRECTION('',(1.,0.,0.));
#226=DIRECTION('',(0.,0.,1.));
#227=DIRECTION('',(1.,0.,0.));
#228=DIRECTION('',(0.,0.,1.));
#229=DIRECTION('',(1.,0.,0.));
#230=DIRECTION('',(0.,-8.88178419700125E-16,-1.));
#231=DIRECTION('',(0.,1.,-8.67361737988399E-16));
#232=DIRECTION('',(0.,-8.88178419700125E-16,-1.));
#233=DIRECTION('',(0.,1.,-8.88178419700125E-16));
#234=DIRECTION('',(0.,-8.88178419700125E-16,-1.));
#235=DIRECTION('',(0.,1.,-8.67361737988399E-16));
#236=DIRECTION('',(0.,-8.88178419700125E-16,-1.));
#237=DIRECTION('',(0.,1.,-8.67361737988399E-16));
#238=DIRECTION('',(0.,-8.88178419700125E-16,-1.));
#239=DIRECTION('',(0.,1.,-1.15648231731786E-15));
#240=DIRECTION('',(0.,-8.88178419700125E-16,-1.));
#241=DIRECTION('',(0.,1.,-8.67361737988399E-16));
#242=DIRECTION('',(0.,8.88178419700125E-16,1.));
#243=DIRECTION('',(0.,-1.,8.88178419700125E-16));
#244=DIRECTION('',(0.,1.83690953073357E-16,1.));
#245=DIRECTION('',(0.,-1.,1.44560289664734E-16));
#246=DIRECTION('',(0.,0.,-1.));
#247=DIRECTION('',(1.,0.,0.));
#248=DIRECTION('',(0.,1.83690953073357E-16,1.));
#249=DIRECTION('',(0.,-1.,0.));
#250=DIRECTION('',(0.,1.83690953073357E-16,1.));
#251=DIRECTION('',(0.,-1.,0.));
#252=DIRECTION('',(0.,1.83690953073357E-16,1.));
#253=DIRECTION('',(0.,-1.,1.83880688453542E-16));
#254=DIRECTION('',(0.,1.83690953073357E-16,1.));
#255=DIRECTION('',(0.,-1.,0.));
#256=DIRECTION('',(0.,1.83690953073357E-16,1.));
#257=DIRECTION('',(0.,-1.,0.));
#258=DIRECTION('',(0.,1.83690953073357E-16,1.));
#259=DIRECTION('',(0.,-1.,2.19585250123646E-16));
#260=DIRECTION('',(0.,0.,1.));
#261=DIRECTION('',(1.,0.,0.));
#262=DIRECTION('',(0.,1.83690953073357E-16,1.));
#263=DIRECTION('',(0.,-1.,0.));
#264=DIRECTION('',(0.,-1.83690953073357E-16,-1.));
#265=DIRECTION('',(0.,1.,-1.80411241501588E-16));
#266=DIRECTION('',(0.,1.83690953073357E-16,1.));
#267=DIRECTION('',(0.,-1.,0.));
#268=DIRECTION('',(0.,-1.83690953073357E-16,-1.));
#269=DIRECTION('',(0.,1.,-2.49053021476233E-16));
#270=DIRECTION('',(0.,0.,1.));
#271=DIRECTION('',(1.,0.,0.));
#272=DIRECTION('',(0.,1.83690953073357E-16,1.));
#273=DIRECTION('',(0.,-1.,0.));
#274=DIRECTION('',(0.,0.,1.));
#275=DIRECTION('',(1.,0.,0.));
#276=CARTESIAN_POINT('',(0.,0.,0.));
#277=CARTESIAN_POINT('',(0.,0.,0.));
#278=CARTESIAN_POINT('',(0.,8.4497838413744E-15,36.));
#279=CARTESIAN_POINT('',(0.,1.54074395550979E-30,-14.));
#280=CARTESIAN_POINT('',(0.,3.5527136788005E-15,-10.));
#281=CARTESIAN_POINT('',(0.,2.00000000000001,-10.));
#282=CARTESIAN_POINT('',(0.,7.88860905221017E-31,-10.));
#283=CARTESIAN_POINT('',(0.,4.44089209850065E-16,-13.5));
#284=CARTESIAN_POINT('',(0.,2.00000000000001,-13.5));
#285=CARTESIAN_POINT('',(0.,3.5527136788005E-15,-10.));
#286=CARTESIAN_POINT('',(0.,1.54074395550979E-30,-14.));
#287=CARTESIAN_POINT('',(0.,1.50000000000001,-14.));
#288=CARTESIAN_POINT('',(0.,4.33680868994202E-16,-13.5));
#289=CARTESIAN_POINT('',(0.,1.50000000000001,-14.));
#290=CARTESIAN_POINT('',(0.,1.32077825957076E-15,-2.80978057181015));
#291=CARTESIAN_POINT('',(0.,-3.,-2.80978057181015));
#292=CARTESIAN_POINT('',(0.,1.83690953073357E-15,0.));
#293=CARTESIAN_POINT('',(3.00000000000002,1.83690953073357E-15,0.));
#294=CARTESIAN_POINT('',(0.,0.,-10.));
#295=CARTESIAN_POINT('',(0.,6.24233775458469E-32,-10.));
#296=CARTESIAN_POINT('',(0.,-1.85000000000001,-10.));
#297=CARTESIAN_POINT('',(0.,3.5527136788005E-15,-10.));
#298=CARTESIAN_POINT('',(0.,7.34763812293426E-16,-6.));
#299=CARTESIAN_POINT('',(0.,-1.85000000000001,-6.));
#300=CARTESIAN_POINT('',(0.,0.,-10.));
#301=CARTESIAN_POINT('',(0.,8.67361737988404E-16,-6.));
#302=CARTESIAN_POINT('',(0.,0.,0.));
#303=CARTESIAN_POINT('',(0.,8.4497838413744E-15,36.));
#304=CARTESIAN_POINT('',(0.,-2.49999999999999,36.));
#305=CARTESIAN_POINT('',(0.,2.50000000000001,36.0000013295157));
#306=CARTESIAN_POINT('',(0.,8.35793836483772E-15,35.5));
#307=CARTESIAN_POINT('',(0.,-3.,35.5));
#308=CARTESIAN_POINT('',(0.,8.35793836483772E-15,35.5));
#309=CARTESIAN_POINT('',(0.,1.83690953073357E-15,0.));
#310=CARTESIAN_POINT('',(3.00000000000002,1.83690953073357E-15,0.));
#311=CARTESIAN_POINT('',(0.,0.,-10.));
#312=CARTESIAN_POINT('',(0.,0.,0.));
#313=MECHANICAL_DESIGN_GEOMETRIC_PRESENTATION_REPRESENTATION('',(#173,#174,
#175,#176,#177,#178),#314);
#314=(
GEOMETRIC_REPRESENTATION_CONTEXT(3)
GLOBAL_UNCERTAINTY_ASSIGNED_CONTEXT((#315))
GLOBAL_UNIT_ASSIGNED_CONTEXT((#321,#317,#316))
REPRESENTATION_CONTEXT('170040R050','TOP_LEVEL_ASSEMBLY_PART')
);
#315=UNCERTAINTY_MEASURE_WITH_UNIT(LENGTH_MEASURE(2.E-5),#321,
'DISTANCE_ACCURACY_VALUE','Maximum Tolerance applied to model');
#316=(
NAMED_UNIT(*)
SI_UNIT($,.STERADIAN.)
SOLID_ANGLE_UNIT()
);
#317=(
CONVERSION_BASED_UNIT('DEGREE',#319)
NAMED_UNIT(#318)
PLANE_ANGLE_UNIT()
);
#318=DIMENSIONAL_EXPONENTS(0.,0.,0.,0.,0.,0.,0.);
#319=PLANE_ANGLE_MEASURE_WITH_UNIT(PLANE_ANGLE_MEASURE(0.0174532925),#320);
#320=(
NAMED_UNIT(*)
PLANE_ANGLE_UNIT()
SI_UNIT($,.RADIAN.)
);
#321=(
LENGTH_UNIT()
NAMED_UNIT(*)
SI_UNIT(.MILLI.,.METRE.)
);
ENDSEC;
END-ISO-10303-21;
