ISO-10303-21;
HEADER;
/* Generated by software containing ST-Developer
 * from STEP Tools, Inc. (www.steptools.com) 
 */
/* OPTION: using custom schema-name function */

FILE_DESCRIPTION(
/* description */ (''),
/* implementation_level */ '2;1');

FILE_NAME(
/* name */ '170040R020.0-MEGA-64W.stp',
/* time_stamp */ '2017-12-13T13:51:44+05:00',
/* author */ (''),
/* organization */ (''),
/* preprocessor_version */ 'ST-DEVELOPER v16',
/* originating_system */ 'SIEMENS PLM Software NX 11.0',
/* authorisation */ '');

FILE_SCHEMA (('AUTOMOTIVE_DESIGN { 1 0 10303 214 3 1 1 1 }'));
ENDSEC;

DATA;
#10=CONSTRUCTIVE_GEOMETRY_REPRESENTATION_RELATIONSHIP(
'supplemental geometry','',#32,#11);
#11=CONSTRUCTIVE_GEOMETRY_REPRESENTATION('supplemental geometry',(#210,
#211,#212,#213),#365);
#12=PROPERTY_DEFINITION_REPRESENTATION(#16,#14);
#13=PROPERTY_DEFINITION_REPRESENTATION(#17,#15);
#14=REPRESENTATION('',(#18),#365);
#15=REPRESENTATION('',(#19),#365);
#16=PROPERTY_DEFINITION('pmi validation property','',#23);
#17=PROPERTY_DEFINITION('pmi validation property','',#23);
#18=VALUE_REPRESENTATION_ITEM('number of annotations',COUNT_MEASURE(0.));
#19=VALUE_REPRESENTATION_ITEM('number of views',COUNT_MEASURE(0.));
#20=SHAPE_REPRESENTATION_RELATIONSHIP('None',
'relationship between 170040R020.0-MEGA-64W-None and 170040R020.0-MEGA
-64W-None',#32,#21);
#21=ADVANCED_BREP_SHAPE_REPRESENTATION('170040R020.0-MEGA-64W-None',(#50,
#51,#52),#365);
#22=SHAPE_DEFINITION_REPRESENTATION(#23,#32);
#23=PRODUCT_DEFINITION_SHAPE('','',#24);
#24=PRODUCT_DEFINITION(' ','',#26,#25);
#25=PRODUCT_DEFINITION_CONTEXT('part definition',#31,'design');
#26=PRODUCT_DEFINITION_FORMATION_WITH_SPECIFIED_SOURCE(' ',' ',#28,
 .NOT_KNOWN.);
#27=PRODUCT_RELATED_PRODUCT_CATEGORY('part','',(#28));
#28=PRODUCT('170040R020.0-MEGA-64W','170040R020.0-MEGA-64W',' ',(#29));
#29=PRODUCT_CONTEXT(' ',#31,'mechanical');
#30=APPLICATION_PROTOCOL_DEFINITION('international standard',
'automotive_design',2010,#31);
#31=APPLICATION_CONTEXT(
'core data for automotive mechanical design processes');
#32=SHAPE_REPRESENTATION('170040R020.0-MEGA-64W-None',(#209),#365);
#33=CONICAL_SURFACE('',#229,1.99999999923845,0.00499999999994848);
#34=CONICAL_SURFACE('',#234,3.,44.9999999999999);
#35=SURFACE_STYLE_USAGE(.BOTH.,#38);
#36=SURFACE_STYLE_USAGE(.BOTH.,#39);
#37=SURFACE_STYLE_USAGE(.BOTH.,#40);
#38=SURFACE_SIDE_STYLE('',(#41));
#39=SURFACE_SIDE_STYLE('',(#42));
#40=SURFACE_SIDE_STYLE('',(#43));
#41=SURFACE_STYLE_FILL_AREA(#44);
#42=SURFACE_STYLE_FILL_AREA(#45);
#43=SURFACE_STYLE_FILL_AREA(#46);
#44=FILL_AREA_STYLE('',(#47));
#45=FILL_AREA_STYLE('',(#48));
#46=FILL_AREA_STYLE('',(#49));
#47=FILL_AREA_STYLE_COLOUR('',#203);
#48=FILL_AREA_STYLE_COLOUR('',#204);
#49=FILL_AREA_STYLE_COLOUR('',#203);
#50=MANIFOLD_SOLID_BREP('NOCUT',#53);
#51=MANIFOLD_SOLID_BREP('CUT',#54);
#52=MANIFOLD_SOLID_BREP('NOCUT',#55);
#53=CLOSED_SHELL('',(#71,#72,#73,#74,#75,#76));
#54=CLOSED_SHELL('',(#77,#78,#79,#80));
#55=CLOSED_SHELL('',(#81,#82,#83,#84));
#56=PLANE('',#222);
#57=PLANE('',#223);
#58=PLANE('',#225);
#59=PLANE('',#230);
#60=PLANE('',#232);
#61=PLANE('',#237);
#62=FACE_OUTER_BOUND('',#112,.T.);
#63=FACE_OUTER_BOUND('',#113,.T.);
#64=FACE_OUTER_BOUND('',#114,.T.);
#65=FACE_OUTER_BOUND('',#119,.T.);
#66=FACE_OUTER_BOUND('',#120,.T.);
#67=FACE_OUTER_BOUND('',#125,.T.);
#68=TOROIDAL_SURFACE('',#221,6.85,5.);
#69=TOROIDAL_SURFACE('',#227,1.8,0.199999999999996);
#70=(
BOUNDED_SURFACE()
B_SPLINE_SURFACE(3,3,((#310,#311,#312,#313,#314,#315,#316),(#317,#318,#319,
#320,#321,#322,#323),(#324,#325,#326,#327,#328,#329,#330),(#331,#332,#333,
#334,#335,#336,#337)),.UNSPECIFIED.,.F.,.T.,.F.)
B_SPLINE_SURFACE_WITH_KNOTS((4,4),(1,3,3,3,1),(0.,1.),(-0.5,0.,0.5,1.,1.5),
 .UNSPECIFIED.)
GEOMETRIC_REPRESENTATION_ITEM()
RATIONAL_B_SPLINE_SURFACE(((1.,0.333333333333333,0.333333333333333,1.,0.333333333333333,
0.333333333333333,1.),(0.987414354768528,0.329138118256176,0.329138118256176,
0.987414354768528,0.329138118256176,0.329138118256176,0.987414354768528),
(0.987414354768528,0.329138118256176,0.329138118256176,0.987414354768528,
0.329138118256176,0.329138118256176,0.987414354768528),(1.,0.333333333333333,
0.333333333333333,1.,0.333333333333333,0.333333333333333,1.)))
REPRESENTATION_ITEM('')
SURFACE()
);
#71=ADVANCED_FACE('',(#88,#89),#85,.T.);
#72=ADVANCED_FACE('',(#90,#91),#70,.T.);
#73=ADVANCED_FACE('',(#92,#93),#86,.T.);
#74=ADVANCED_FACE('',(#94,#95),#68,.F.);
#75=ADVANCED_FACE('',(#62),#56,.T.);
#76=ADVANCED_FACE('',(#63),#57,.T.);
#77=ADVANCED_FACE('',(#64),#58,.T.);
#78=ADVANCED_FACE('',(#96,#97),#69,.T.);
#79=ADVANCED_FACE('',(#98,#99),#33,.T.);
#80=ADVANCED_FACE('',(#65),#59,.F.);
#81=ADVANCED_FACE('',(#66),#60,.T.);
#82=ADVANCED_FACE('',(#100,#101),#34,.T.);
#83=ADVANCED_FACE('',(#102,#103),#87,.T.);
#84=ADVANCED_FACE('',(#67),#61,.F.);
#85=CYLINDRICAL_SURFACE('',#216,3.);
#86=CYLINDRICAL_SURFACE('',#220,1.85);
#87=CYLINDRICAL_SURFACE('',#236,3.);
#88=FACE_BOUND('',#104,.T.);
#89=FACE_BOUND('',#105,.T.);
#90=FACE_BOUND('',#106,.T.);
#91=FACE_BOUND('',#107,.T.);
#92=FACE_BOUND('',#108,.T.);
#93=FACE_BOUND('',#109,.T.);
#94=FACE_BOUND('',#110,.T.);
#95=FACE_BOUND('',#111,.T.);
#96=FACE_BOUND('',#115,.T.);
#97=FACE_BOUND('',#116,.T.);
#98=FACE_BOUND('',#117,.T.);
#99=FACE_BOUND('',#118,.T.);
#100=FACE_BOUND('',#121,.T.);
#101=FACE_BOUND('',#122,.T.);
#102=FACE_BOUND('',#123,.T.);
#103=FACE_BOUND('',#124,.T.);
#104=EDGE_LOOP('',(#126));
#105=EDGE_LOOP('',(#127));
#106=EDGE_LOOP('',(#128));
#107=EDGE_LOOP('',(#129));
#108=EDGE_LOOP('',(#130));
#109=EDGE_LOOP('',(#131));
#110=EDGE_LOOP('',(#132));
#111=EDGE_LOOP('',(#133));
#112=EDGE_LOOP('',(#134));
#113=EDGE_LOOP('',(#135));
#114=EDGE_LOOP('',(#136));
#115=EDGE_LOOP('',(#137));
#116=EDGE_LOOP('',(#138));
#117=EDGE_LOOP('',(#139));
#118=EDGE_LOOP('',(#140));
#119=EDGE_LOOP('',(#141));
#120=EDGE_LOOP('',(#142));
#121=EDGE_LOOP('',(#143));
#122=EDGE_LOOP('',(#144));
#123=EDGE_LOOP('',(#145));
#124=EDGE_LOOP('',(#146));
#125=EDGE_LOOP('',(#147));
#126=ORIENTED_EDGE('',*,*,#159,.F.);
#127=ORIENTED_EDGE('',*,*,#160,.T.);
#128=ORIENTED_EDGE('',*,*,#161,.T.);
#129=ORIENTED_EDGE('',*,*,#162,.F.);
#130=ORIENTED_EDGE('',*,*,#163,.T.);
#131=ORIENTED_EDGE('',*,*,#161,.F.);
#132=ORIENTED_EDGE('',*,*,#159,.T.);
#133=ORIENTED_EDGE('',*,*,#163,.F.);
#134=ORIENTED_EDGE('',*,*,#162,.T.);
#135=ORIENTED_EDGE('',*,*,#160,.F.);
#136=ORIENTED_EDGE('',*,*,#164,.T.);
#137=ORIENTED_EDGE('',*,*,#165,.T.);
#138=ORIENTED_EDGE('',*,*,#164,.F.);
#139=ORIENTED_EDGE('',*,*,#166,.F.);
#140=ORIENTED_EDGE('',*,*,#165,.F.);
#141=ORIENTED_EDGE('',*,*,#166,.T.);
#142=ORIENTED_EDGE('',*,*,#167,.F.);
#143=ORIENTED_EDGE('',*,*,#167,.T.);
#144=ORIENTED_EDGE('',*,*,#168,.F.);
#145=ORIENTED_EDGE('',*,*,#169,.T.);
#146=ORIENTED_EDGE('',*,*,#168,.T.);
#147=ORIENTED_EDGE('',*,*,#169,.F.);
#148=VERTEX_POINT('',#302);
#149=VERTEX_POINT('',#304);
#150=VERTEX_POINT('',#307);
#151=VERTEX_POINT('',#309);
#152=VERTEX_POINT('',#339);
#153=VERTEX_POINT('',#345);
#154=VERTEX_POINT('',#348);
#155=VERTEX_POINT('',#351);
#156=VERTEX_POINT('',#355);
#157=VERTEX_POINT('',#358);
#158=VERTEX_POINT('',#361);
#159=EDGE_CURVE('',#148,#148,#170,.T.);
#160=EDGE_CURVE('',#149,#149,#171,.T.);
#161=EDGE_CURVE('',#150,#150,#172,.T.);
#162=EDGE_CURVE('',#151,#151,#173,.T.);
#163=EDGE_CURVE('',#152,#152,#174,.T.);
#164=EDGE_CURVE('',#153,#153,#175,.T.);
#165=EDGE_CURVE('',#154,#154,#176,.T.);
#166=EDGE_CURVE('',#155,#155,#177,.T.);
#167=EDGE_CURVE('',#156,#156,#178,.T.);
#168=EDGE_CURVE('',#157,#157,#179,.T.);
#169=EDGE_CURVE('',#158,#158,#180,.T.);
#170=CIRCLE('',#214,3.);
#171=CIRCLE('',#215,3.);
#172=CIRCLE('',#217,1.85);
#173=CIRCLE('',#218,1.99966838820282);
#174=CIRCLE('',#219,1.85);
#175=CIRCLE('',#224,1.8);
#176=CIRCLE('',#226,1.99999999923845);
#177=CIRCLE('',#228,1.99966838820282);
#178=CIRCLE('',#231,2.5);
#179=CIRCLE('',#233,3.);
#180=CIRCLE('',#235,3.);
#181=PRESENTATION_LAYER_ASSIGNMENT('1','Layer 1',(#210,#211,#212,#213,#52));
#182=PRESENTATION_LAYER_ASSIGNMENT('2','Layer 2',(#50));
#183=PRESENTATION_LAYER_ASSIGNMENT('3','Layer 3',(#51));
#184=STYLED_ITEM('',(#191),#210);
#185=STYLED_ITEM('',(#192),#211);
#186=STYLED_ITEM('',(#193),#212);
#187=STYLED_ITEM('',(#194),#213);
#188=STYLED_ITEM('',(#195),#50);
#189=STYLED_ITEM('',(#196),#51);
#190=STYLED_ITEM('',(#197),#52);
#191=PRESENTATION_STYLE_ASSIGNMENT((#198));
#192=PRESENTATION_STYLE_ASSIGNMENT((#199));
#193=PRESENTATION_STYLE_ASSIGNMENT((#200));
#194=PRESENTATION_STYLE_ASSIGNMENT((#201));
#195=PRESENTATION_STYLE_ASSIGNMENT((#35));
#196=PRESENTATION_STYLE_ASSIGNMENT((#36));
#197=PRESENTATION_STYLE_ASSIGNMENT((#37));
#198=CURVE_STYLE('',#205,POSITIVE_LENGTH_MEASURE(0.18),#202);
#199=CURVE_STYLE('',#206,POSITIVE_LENGTH_MEASURE(0.18),#202);
#200=CURVE_STYLE('',#207,POSITIVE_LENGTH_MEASURE(0.18),#202);
#201=CURVE_STYLE('',#208,POSITIVE_LENGTH_MEASURE(0.18),#202);
#202=COLOUR_RGB('Strong Stone',0.576470588235294,0.54508278019379,0.392156862745098);
#203=COLOUR_RGB('Medium Gray',0.490196078431373,0.490196078431373,0.490196078431373);
#204=COLOUR_RGB('Light Gray',0.8,0.8,0.8);
#205=DRAUGHTING_PRE_DEFINED_CURVE_FONT('continuous');
#206=DRAUGHTING_PRE_DEFINED_CURVE_FONT('continuous');
#207=DRAUGHTING_PRE_DEFINED_CURVE_FONT('continuous');
#208=DRAUGHTING_PRE_DEFINED_CURVE_FONT('continuous');
#209=AXIS2_PLACEMENT_3D('',#296,#238,#239);
#210=AXIS2_PLACEMENT_3D('MCS',#297,#240,#241);
#211=AXIS2_PLACEMENT_3D('PCS',#298,#242,#243);
#212=AXIS2_PLACEMENT_3D('CIP',#299,#244,#245);
#213=AXIS2_PLACEMENT_3D('LCS',#300,#246,#247);
#214=AXIS2_PLACEMENT_3D('',#301,#248,#249);
#215=AXIS2_PLACEMENT_3D('',#303,#250,#251);
#216=AXIS2_PLACEMENT_3D('',#305,#252,#253);
#217=AXIS2_PLACEMENT_3D('',#306,#254,#255);
#218=AXIS2_PLACEMENT_3D('',#308,#256,#257);
#219=AXIS2_PLACEMENT_3D('',#338,#258,#259);
#220=AXIS2_PLACEMENT_3D('',#340,#260,#261);
#221=AXIS2_PLACEMENT_3D('',#341,#262,#263);
#222=AXIS2_PLACEMENT_3D('',#342,#264,#265);
#223=AXIS2_PLACEMENT_3D('',#343,#266,#267);
#224=AXIS2_PLACEMENT_3D('',#344,#268,#269);
#225=AXIS2_PLACEMENT_3D('',#346,#270,#271);
#226=AXIS2_PLACEMENT_3D('',#347,#272,#273);
#227=AXIS2_PLACEMENT_3D('',#349,#274,#275);
#228=AXIS2_PLACEMENT_3D('',#350,#276,#277);
#229=AXIS2_PLACEMENT_3D('',#352,#278,#279);
#230=AXIS2_PLACEMENT_3D('',#353,#280,#281);
#231=AXIS2_PLACEMENT_3D('',#354,#282,#283);
#232=AXIS2_PLACEMENT_3D('',#356,#284,#285);
#233=AXIS2_PLACEMENT_3D('',#357,#286,#287);
#234=AXIS2_PLACEMENT_3D('',#359,#288,#289);
#235=AXIS2_PLACEMENT_3D('',#360,#290,#291);
#236=AXIS2_PLACEMENT_3D('',#362,#292,#293);
#237=AXIS2_PLACEMENT_3D('',#363,#294,#295);
#238=DIRECTION('',(0.,0.,1.));
#239=DIRECTION('',(1.,0.,0.));
#240=DIRECTION('',(0.,0.,1.));
#241=DIRECTION('',(1.,0.,0.));
#242=DIRECTION('',(0.,0.,1.));
#243=DIRECTION('',(1.,0.,0.));
#244=DIRECTION('',(0.,0.,1.));
#245=DIRECTION('',(1.,0.,0.));
#246=DIRECTION('',(0.,0.,1.));
#247=DIRECTION('',(1.,0.,0.));
#248=DIRECTION('',(0.,0.,-1.));
#249=DIRECTION('',(-1.,0.,0.));
#250=DIRECTION('',(0.,0.,-1.));
#251=DIRECTION('',(1.,0.,0.));
#252=DIRECTION('',(0.,0.,-1.));
#253=DIRECTION('',(1.,0.,0.));
#254=DIRECTION('',(0.,0.,-1.));
#255=DIRECTION('',(-1.,0.,0.));
#256=DIRECTION('',(0.,0.,-1.));
#257=DIRECTION('',(-1.,0.,0.));
#258=DIRECTION('',(0.,0.,-1.));
#259=DIRECTION('',(-1.,0.,0.));
#260=DIRECTION('',(0.,0.,-1.));
#261=DIRECTION('',(1.,0.,0.));
#262=DIRECTION('',(0.,0.,-1.));
#263=DIRECTION('',(1.,0.,0.));
#264=DIRECTION('',(0.,0.,-1.));
#265=DIRECTION('',(1.,0.,0.));
#266=DIRECTION('',(0.,0.,1.));
#267=DIRECTION('',(1.,0.,0.));
#268=DIRECTION('',(0.,0.,-1.));
#269=DIRECTION('',(-1.,0.,0.));
#270=DIRECTION('',(0.,0.,-1.));
#271=DIRECTION('',(1.,0.,0.));
#272=DIRECTION('',(0.,0.,-1.));
#273=DIRECTION('',(-1.,0.,0.));
#274=DIRECTION('',(0.,0.,-1.));
#275=DIRECTION('',(1.,0.,0.));
#276=DIRECTION('',(0.,0.,1.));
#277=DIRECTION('',(-1.,0.,0.));
#278=DIRECTION('',(0.,0.,-1.));
#279=DIRECTION('',(1.,0.,2.65951435718964E-14));
#280=DIRECTION('',(0.,0.,-1.));
#281=DIRECTION('',(1.,0.,0.));
#282=DIRECTION('',(0.,0.,-1.));
#283=DIRECTION('',(-1.,0.,0.));
#284=DIRECTION('',(0.,0.,1.));
#285=DIRECTION('',(-1.,0.,0.));
#286=DIRECTION('',(0.,0.,-1.));
#287=DIRECTION('',(-1.,0.,0.));
#288=DIRECTION('',(0.,0.,-1.));
#289=DIRECTION('',(1.,0.,-2.76725579418036E-17));
#290=DIRECTION('',(0.,0.,1.));
#291=DIRECTION('',(1.,0.,0.));
#292=DIRECTION('',(0.,0.,-1.));
#293=DIRECTION('',(1.,0.,0.));
#294=DIRECTION('',(0.,0.,1.));
#295=DIRECTION('',(1.,0.,0.));
#296=CARTESIAN_POINT('',(0.,0.,0.));
#297=CARTESIAN_POINT('',(0.,0.,0.));
#298=CARTESIAN_POINT('',(0.,0.,36.));
#299=CARTESIAN_POINT('',(0.,0.,-14.));
#300=CARTESIAN_POINT('',(0.,0.,18.));
#301=CARTESIAN_POINT('',(0.,0.,-2.8097805718101));
#302=CARTESIAN_POINT('',(-3.,0.,-2.8097805718101));
#303=CARTESIAN_POINT('',(0.,0.,6.93889390390723E-15));
#304=CARTESIAN_POINT('',(3.,0.,6.93889390390723E-15));
#305=CARTESIAN_POINT('',(0.,0.,8.));
#306=CARTESIAN_POINT('',(0.,0.,-9.2410480911735));
#307=CARTESIAN_POINT('',(-1.85,0.,-9.2410480911735));
#308=CARTESIAN_POINT('',(0.,0.,-10.));
#309=CARTESIAN_POINT('',(-1.99966838820282,0.,-10.));
#310=CARTESIAN_POINT('',(-1.99966838820281,0.,-10.));
#311=CARTESIAN_POINT('',(-1.99966838820281,3.99933677640562,-10.));
#312=CARTESIAN_POINT('',(1.99966838820281,3.99933677640562,-10.));
#313=CARTESIAN_POINT('',(1.99966838820281,0.,-10.));
#314=CARTESIAN_POINT('',(1.99966838820281,-3.99933677640562,-10.));
#315=CARTESIAN_POINT('',(-1.99966838820281,-3.99933677640562,-10.));
#316=CARTESIAN_POINT('',(-1.99966838820281,0.,-10.));
#317=CARTESIAN_POINT('',(-1.99964559918527,0.,-9.73885709572413));
#318=CARTESIAN_POINT('',(-1.99964559918527,3.99929119837054,-9.73885709572413));
#319=CARTESIAN_POINT('',(1.99964559918527,3.99929119837054,-9.73885709572413));
#320=CARTESIAN_POINT('',(1.99964559918527,0.,-9.73885709572413));
#321=CARTESIAN_POINT('',(1.99964559918527,-3.99929119837054,-9.73885709572413));
#322=CARTESIAN_POINT('',(-1.99964559918527,-3.99929119837054,-9.73885709572413));
#323=CARTESIAN_POINT('',(-1.99964559918527,0.,-9.73885709572413));
#324=CARTESIAN_POINT('',(-1.94912024223321,0.,-9.48264857658817));
#325=CARTESIAN_POINT('',(-1.94912024223321,3.89824048446642,-9.48264857658817));
#326=CARTESIAN_POINT('',(1.94912024223321,3.89824048446642,-9.48264857658817));
#327=CARTESIAN_POINT('',(1.94912024223321,0.,-9.48264857658817));
#328=CARTESIAN_POINT('',(1.94912024223321,-3.89824048446642,-9.48264857658817));
#329=CARTESIAN_POINT('',(-1.94912024223321,-3.89824048446642,-9.48264857658817));
#330=CARTESIAN_POINT('',(-1.94912024223321,0.,-9.48264857658817));
#331=CARTESIAN_POINT('',(-1.85000000000001,0.,-9.2410480911735));
#332=CARTESIAN_POINT('',(-1.85000000000001,3.70000000000002,-9.2410480911735));
#333=CARTESIAN_POINT('',(1.85000000000001,3.70000000000002,-9.2410480911735));
#334=CARTESIAN_POINT('',(1.85000000000001,0.,-9.2410480911735));
#335=CARTESIAN_POINT('',(1.85000000000001,-3.70000000000002,-9.2410480911735));
#336=CARTESIAN_POINT('',(-1.85000000000001,-3.70000000000002,-9.2410480911735));
#337=CARTESIAN_POINT('',(-1.85000000000001,0.,-9.2410480911735));
#338=CARTESIAN_POINT('',(0.,0.,-6.));
#339=CARTESIAN_POINT('',(-1.85,0.,-6.));
#340=CARTESIAN_POINT('',(0.,0.,8.));
#341=CARTESIAN_POINT('',(0.,0.,-6.));
#342=CARTESIAN_POINT('',(0.,0.,-10.));
#343=CARTESIAN_POINT('',(0.,0.,7.105427357601E-15));
#344=CARTESIAN_POINT('',(0.,0.,-14.));
#345=CARTESIAN_POINT('',(-1.8,0.,-14.));
#346=CARTESIAN_POINT('',(-1.77635683940025E-15,0.,-14.));
#347=CARTESIAN_POINT('',(0.,0.,-13.7999825467075));
#348=CARTESIAN_POINT('',(-1.99999999923845,0.,-13.7999825467075));
#349=CARTESIAN_POINT('',(0.,0.,-13.8));
#350=CARTESIAN_POINT('',(0.,0.,-10.));
#351=CARTESIAN_POINT('',(-1.99966838820282,0.,-10.));
#352=CARTESIAN_POINT('',(0.,0.,-13.7999825467075));
#353=CARTESIAN_POINT('',(0.,0.,-10.));
#354=CARTESIAN_POINT('',(0.,0.,36.));
#355=CARTESIAN_POINT('',(-2.5,0.,36.));
#356=CARTESIAN_POINT('',(2.5,0.,36.));
#357=CARTESIAN_POINT('',(0.,0.,35.5));
#358=CARTESIAN_POINT('',(-3.,0.,35.5));
#359=CARTESIAN_POINT('',(0.,0.,35.5));
#360=CARTESIAN_POINT('',(0.,0.,6.93889390390723E-15));
#361=CARTESIAN_POINT('',(3.,0.,6.93889390390723E-15));
#362=CARTESIAN_POINT('',(0.,0.,8.));
#363=CARTESIAN_POINT('',(0.,0.,7.105427357601E-15));
#364=MECHANICAL_DESIGN_GEOMETRIC_PRESENTATION_REPRESENTATION('',(#184,#185,
#186,#187,#188,#189,#190),#365);
#365=(
GEOMETRIC_REPRESENTATION_CONTEXT(3)
GLOBAL_UNCERTAINTY_ASSIGNED_CONTEXT((#366))
GLOBAL_UNIT_ASSIGNED_CONTEXT((#372,#368,#367))
REPRESENTATION_CONTEXT('170040R020','TOP_LEVEL_ASSEMBLY_PART')
);
#366=UNCERTAINTY_MEASURE_WITH_UNIT(LENGTH_MEASURE(0.0254),#372,
'DISTANCE_ACCURACY_VALUE','Maximum Tolerance applied to model');
#367=(
NAMED_UNIT(*)
SI_UNIT($,.STERADIAN.)
SOLID_ANGLE_UNIT()
);
#368=(
CONVERSION_BASED_UNIT('DEGREE',#370)
NAMED_UNIT(#369)
PLANE_ANGLE_UNIT()
);
#369=DIMENSIONAL_EXPONENTS(0.,0.,0.,0.,0.,0.,0.);
#370=PLANE_ANGLE_MEASURE_WITH_UNIT(PLANE_ANGLE_MEASURE(0.0174532925),#371);
#371=(
NAMED_UNIT(*)
PLANE_ANGLE_UNIT()
SI_UNIT($,.RADIAN.)
);
#372=(
LENGTH_UNIT()
NAMED_UNIT(*)
SI_UNIT(.MILLI.,.METRE.)
);
ENDSEC;
END-ISO-10303-21;
