ISO-10303-21;
HEADER;
/* Generated by software containing ST-Developer
 * from STEP Tools, Inc. (www.steptools.com) 
 */
/* OPTION: using custom schema-name function */

FILE_DESCRIPTION(
/* description */ (''),
/* implementation_level */ '2;1');

FILE_NAME(
/* name */ '170040R020.0-MEGA-64.stp',
/* time_stamp */ '2017-12-13T13:51:44+05:00',
/* author */ (''),
/* organization */ (''),
/* preprocessor_version */ 'ST-DEVELOPER v16',
/* originating_system */ 'SIEMENS PLM Software NX 11.0',
/* authorisation */ '');

FILE_SCHEMA (('AUTOMOTIVE_DESIGN { 1 0 10303 214 3 1 1 1 }'));
ENDSEC;

DATA;
#10=CONSTRUCTIVE_GEOMETRY_REPRESENTATION_RELATIONSHIP(
'supplemental geometry','',#32,#11);
#11=CONSTRUCTIVE_GEOMETRY_REPRESENTATION('supplemental geometry',(#195,
#196,#197),#313);
#12=PROPERTY_DEFINITION_REPRESENTATION(#16,#14);
#13=PROPERTY_DEFINITION_REPRESENTATION(#17,#15);
#14=REPRESENTATION('',(#18),#313);
#15=REPRESENTATION('',(#19),#313);
#16=PROPERTY_DEFINITION('pmi validation property','',#23);
#17=PROPERTY_DEFINITION('pmi validation property','',#23);
#18=VALUE_REPRESENTATION_ITEM('number of annotations',COUNT_MEASURE(0.));
#19=VALUE_REPRESENTATION_ITEM('number of views',COUNT_MEASURE(0.));
#20=SHAPE_REPRESENTATION_RELATIONSHIP('None',
'relationship between 170040R020.0-MEGA-64-None and 170040R020.0-MEGA-
64-None',#32,#21);
#21=ADVANCED_BREP_SHAPE_REPRESENTATION('170040R020.0-MEGA-64-None',(#49,
#50,#51),#313);
#22=SHAPE_DEFINITION_REPRESENTATION(#23,#32);
#23=PRODUCT_DEFINITION_SHAPE('','',#24);
#24=PRODUCT_DEFINITION(' ','',#26,#25);
#25=PRODUCT_DEFINITION_CONTEXT('part definition',#31,'design');
#26=PRODUCT_DEFINITION_FORMATION_WITH_SPECIFIED_SOURCE(' ',' ',#28,
 .NOT_KNOWN.);
#27=PRODUCT_RELATED_PRODUCT_CATEGORY('part','',(#28));
#28=PRODUCT('170040R020.0-MEGA-64','170040R020.0-MEGA-64',' ',(#29));
#29=PRODUCT_CONTEXT(' ',#31,'mechanical');
#30=APPLICATION_PROTOCOL_DEFINITION('international standard',
'automotive_design',2010,#31);
#31=APPLICATION_CONTEXT(
'core data for automotive mechanical design processes');
#32=SHAPE_REPRESENTATION('170040R020.0-MEGA-64-None',(#194),#313);
#33=CONICAL_SURFACE('',#217,2.50000000000001,45.0000000000008);
#34=SURFACE_STYLE_USAGE(.BOTH.,#37);
#35=SURFACE_STYLE_USAGE(.BOTH.,#38);
#36=SURFACE_STYLE_USAGE(.BOTH.,#39);
#37=SURFACE_SIDE_STYLE('',(#40));
#38=SURFACE_SIDE_STYLE('',(#41));
#39=SURFACE_SIDE_STYLE('',(#42));
#40=SURFACE_STYLE_FILL_AREA(#43);
#41=SURFACE_STYLE_FILL_AREA(#44);
#42=SURFACE_STYLE_FILL_AREA(#45);
#43=FILL_AREA_STYLE('',(#46));
#44=FILL_AREA_STYLE('',(#47));
#45=FILL_AREA_STYLE('',(#48));
#46=FILL_AREA_STYLE_COLOUR('',#189);
#47=FILL_AREA_STYLE_COLOUR('',#190);
#48=FILL_AREA_STYLE_COLOUR('',#189);
#49=MANIFOLD_SOLID_BREP('NOCUT',#52);
#50=MANIFOLD_SOLID_BREP('CUT',#53);
#51=MANIFOLD_SOLID_BREP('NOCUT',#54);
#52=CLOSED_SHELL('',(#69,#70,#71,#72,#73));
#53=CLOSED_SHELL('',(#74,#75,#76,#77));
#54=CLOSED_SHELL('',(#78,#79,#80,#81));
#55=TOROIDAL_SURFACE('',#205,6.85000000000001,5.);
#56=TOROIDAL_SURFACE('',#212,1.80000000000001,0.199999999999999);
#57=PLANE('',#202);
#58=PLANE('',#206);
#59=PLANE('',#208);
#60=PLANE('',#213);
#61=PLANE('',#215);
#62=PLANE('',#220);
#63=FACE_OUTER_BOUND('',#102,.T.);
#64=FACE_OUTER_BOUND('',#107,.T.);
#65=FACE_OUTER_BOUND('',#108,.T.);
#66=FACE_OUTER_BOUND('',#113,.T.);
#67=FACE_OUTER_BOUND('',#114,.T.);
#68=FACE_OUTER_BOUND('',#119,.T.);
#69=ADVANCED_FACE('',(#86,#87),#82,.T.);
#70=ADVANCED_FACE('',(#63),#57,.F.);
#71=ADVANCED_FACE('',(#88,#89),#83,.T.);
#72=ADVANCED_FACE('',(#90,#91),#55,.F.);
#73=ADVANCED_FACE('',(#64),#58,.T.);
#74=ADVANCED_FACE('',(#65),#59,.T.);
#75=ADVANCED_FACE('',(#92,#93),#84,.T.);
#76=ADVANCED_FACE('',(#94,#95),#56,.T.);
#77=ADVANCED_FACE('',(#66),#60,.T.);
#78=ADVANCED_FACE('',(#67),#61,.F.);
#79=ADVANCED_FACE('',(#96,#97),#33,.T.);
#80=ADVANCED_FACE('',(#98,#99),#85,.T.);
#81=ADVANCED_FACE('',(#68),#62,.F.);
#82=CYLINDRICAL_SURFACE('',#200,3.00000000000001);
#83=CYLINDRICAL_SURFACE('',#204,1.85000000000001);
#84=CYLINDRICAL_SURFACE('',#210,2.00000000000001);
#85=CYLINDRICAL_SURFACE('',#219,3.00000000000001);
#86=FACE_BOUND('',#100,.T.);
#87=FACE_BOUND('',#101,.T.);
#88=FACE_BOUND('',#103,.T.);
#89=FACE_BOUND('',#104,.T.);
#90=FACE_BOUND('',#105,.T.);
#91=FACE_BOUND('',#106,.T.);
#92=FACE_BOUND('',#109,.T.);
#93=FACE_BOUND('',#110,.T.);
#94=FACE_BOUND('',#111,.T.);
#95=FACE_BOUND('',#112,.T.);
#96=FACE_BOUND('',#115,.T.);
#97=FACE_BOUND('',#116,.T.);
#98=FACE_BOUND('',#117,.T.);
#99=FACE_BOUND('',#118,.T.);
#100=EDGE_LOOP('',(#120));
#101=EDGE_LOOP('',(#121));
#102=EDGE_LOOP('',(#122));
#103=EDGE_LOOP('',(#123));
#104=EDGE_LOOP('',(#124));
#105=EDGE_LOOP('',(#125));
#106=EDGE_LOOP('',(#126));
#107=EDGE_LOOP('',(#127));
#108=EDGE_LOOP('',(#128));
#109=EDGE_LOOP('',(#129));
#110=EDGE_LOOP('',(#130));
#111=EDGE_LOOP('',(#131));
#112=EDGE_LOOP('',(#132));
#113=EDGE_LOOP('',(#133));
#114=EDGE_LOOP('',(#134));
#115=EDGE_LOOP('',(#135));
#116=EDGE_LOOP('',(#136));
#117=EDGE_LOOP('',(#137));
#118=EDGE_LOOP('',(#138));
#119=EDGE_LOOP('',(#139));
#120=ORIENTED_EDGE('',*,*,#150,.F.);
#121=ORIENTED_EDGE('',*,*,#151,.F.);
#122=ORIENTED_EDGE('',*,*,#152,.T.);
#123=ORIENTED_EDGE('',*,*,#152,.F.);
#124=ORIENTED_EDGE('',*,*,#153,.T.);
#125=ORIENTED_EDGE('',*,*,#153,.F.);
#126=ORIENTED_EDGE('',*,*,#150,.T.);
#127=ORIENTED_EDGE('',*,*,#151,.T.);
#128=ORIENTED_EDGE('',*,*,#154,.F.);
#129=ORIENTED_EDGE('',*,*,#154,.T.);
#130=ORIENTED_EDGE('',*,*,#155,.F.);
#131=ORIENTED_EDGE('',*,*,#155,.T.);
#132=ORIENTED_EDGE('',*,*,#156,.F.);
#133=ORIENTED_EDGE('',*,*,#156,.T.);
#134=ORIENTED_EDGE('',*,*,#157,.F.);
#135=ORIENTED_EDGE('',*,*,#158,.F.);
#136=ORIENTED_EDGE('',*,*,#157,.T.);
#137=ORIENTED_EDGE('',*,*,#159,.T.);
#138=ORIENTED_EDGE('',*,*,#158,.T.);
#139=ORIENTED_EDGE('',*,*,#159,.F.);
#140=VERTEX_POINT('',#280);
#141=VERTEX_POINT('',#282);
#142=VERTEX_POINT('',#285);
#143=VERTEX_POINT('',#288);
#144=VERTEX_POINT('',#293);
#145=VERTEX_POINT('',#296);
#146=VERTEX_POINT('',#299);
#147=VERTEX_POINT('',#303);
#148=VERTEX_POINT('',#306);
#149=VERTEX_POINT('',#309);
#150=EDGE_CURVE('',#140,#140,#160,.T.);
#151=EDGE_CURVE('',#141,#141,#161,.T.);
#152=EDGE_CURVE('',#142,#142,#162,.T.);
#153=EDGE_CURVE('',#143,#143,#163,.T.);
#154=EDGE_CURVE('',#144,#144,#164,.T.);
#155=EDGE_CURVE('',#145,#145,#165,.T.);
#156=EDGE_CURVE('',#146,#146,#166,.T.);
#157=EDGE_CURVE('',#147,#147,#167,.T.);
#158=EDGE_CURVE('',#148,#148,#168,.T.);
#159=EDGE_CURVE('',#149,#149,#169,.T.);
#160=CIRCLE('',#198,3.00000000000001);
#161=CIRCLE('',#199,3.00000000000001);
#162=CIRCLE('',#201,1.85000000000001);
#163=CIRCLE('',#203,1.85000000000001);
#164=CIRCLE('',#207,2.00000000000001);
#165=CIRCLE('',#209,2.00000000000001);
#166=CIRCLE('',#211,1.80000000000001);
#167=CIRCLE('',#214,2.50000000000001);
#168=CIRCLE('',#216,3.00000000000001);
#169=CIRCLE('',#218,3.00000000000001);
#170=PRESENTATION_LAYER_ASSIGNMENT('1','Layer 1',(#195,#196,#197,#51));
#171=PRESENTATION_LAYER_ASSIGNMENT('2','Layer 2',(#49));
#172=PRESENTATION_LAYER_ASSIGNMENT('3','Layer 3',(#50));
#173=STYLED_ITEM('',(#179),#195);
#174=STYLED_ITEM('',(#180),#196);
#175=STYLED_ITEM('',(#181),#197);
#176=STYLED_ITEM('',(#182),#49);
#177=STYLED_ITEM('',(#183),#50);
#178=STYLED_ITEM('',(#184),#51);
#179=PRESENTATION_STYLE_ASSIGNMENT((#185));
#180=PRESENTATION_STYLE_ASSIGNMENT((#186));
#181=PRESENTATION_STYLE_ASSIGNMENT((#187));
#182=PRESENTATION_STYLE_ASSIGNMENT((#34));
#183=PRESENTATION_STYLE_ASSIGNMENT((#35));
#184=PRESENTATION_STYLE_ASSIGNMENT((#36));
#185=CURVE_STYLE('',#191,POSITIVE_LENGTH_MEASURE(0.18),#188);
#186=CURVE_STYLE('',#192,POSITIVE_LENGTH_MEASURE(0.18),#188);
#187=CURVE_STYLE('',#193,POSITIVE_LENGTH_MEASURE(0.18),#188);
#188=COLOUR_RGB('Medium Maroon',0.6,0.4,0.4);
#189=COLOUR_RGB('Medium Gray',0.490196078431373,0.490196078431373,0.490196078431373);
#190=COLOUR_RGB('Light Gray',0.8,0.8,0.8);
#191=DRAUGHTING_PRE_DEFINED_CURVE_FONT('continuous');
#192=DRAUGHTING_PRE_DEFINED_CURVE_FONT('continuous');
#193=DRAUGHTING_PRE_DEFINED_CURVE_FONT('continuous');
#194=AXIS2_PLACEMENT_3D('',#275,#221,#222);
#195=AXIS2_PLACEMENT_3D('MCS',#276,#223,#224);
#196=AXIS2_PLACEMENT_3D('PCS',#277,#225,#226);
#197=AXIS2_PLACEMENT_3D('CIP',#278,#227,#228);
#198=AXIS2_PLACEMENT_3D('',#279,#229,#230);
#199=AXIS2_PLACEMENT_3D('',#281,#231,#232);
#200=AXIS2_PLACEMENT_3D('',#283,#233,#234);
#201=AXIS2_PLACEMENT_3D('',#284,#235,#236);
#202=AXIS2_PLACEMENT_3D('',#286,#237,#238);
#203=AXIS2_PLACEMENT_3D('',#287,#239,#240);
#204=AXIS2_PLACEMENT_3D('',#289,#241,#242);
#205=AXIS2_PLACEMENT_3D('',#290,#243,#244);
#206=AXIS2_PLACEMENT_3D('',#291,#245,#246);
#207=AXIS2_PLACEMENT_3D('',#292,#247,#248);
#208=AXIS2_PLACEMENT_3D('',#294,#249,#250);
#209=AXIS2_PLACEMENT_3D('',#295,#251,#252);
#210=AXIS2_PLACEMENT_3D('',#297,#253,#254);
#211=AXIS2_PLACEMENT_3D('',#298,#255,#256);
#212=AXIS2_PLACEMENT_3D('',#300,#257,#258);
#213=AXIS2_PLACEMENT_3D('',#301,#259,#260);
#214=AXIS2_PLACEMENT_3D('',#302,#261,#262);
#215=AXIS2_PLACEMENT_3D('',#304,#263,#264);
#216=AXIS2_PLACEMENT_3D('',#305,#265,#266);
#217=AXIS2_PLACEMENT_3D('',#307,#267,#268);
#218=AXIS2_PLACEMENT_3D('',#308,#269,#270);
#219=AXIS2_PLACEMENT_3D('',#310,#271,#272);
#220=AXIS2_PLACEMENT_3D('',#311,#273,#274);
#221=DIRECTION('',(0.,0.,1.));
#222=DIRECTION('',(1.,0.,0.));
#223=DIRECTION('',(0.,0.,1.));
#224=DIRECTION('',(1.,0.,0.));
#225=DIRECTION('',(0.,0.,1.));
#226=DIRECTION('',(1.,0.,0.));
#227=DIRECTION('',(0.,0.,1.));
#228=DIRECTION('',(1.,0.,0.));
#229=DIRECTION('',(0.,0.,-1.));
#230=DIRECTION('',(-1.,0.,0.));
#231=DIRECTION('',(0.,0.,1.));
#232=DIRECTION('',(1.,0.,0.));
#233=DIRECTION('',(0.,0.,-1.));
#234=DIRECTION('',(1.,0.,0.));
#235=DIRECTION('',(0.,0.,-1.));
#236=DIRECTION('',(-1.,0.,0.));
#237=DIRECTION('',(0.,0.,1.));
#238=DIRECTION('',(-1.,0.,0.));
#239=DIRECTION('',(0.,0.,-1.));
#240=DIRECTION('',(-1.,0.,0.));
#241=DIRECTION('',(0.,0.,-1.));
#242=DIRECTION('',(1.,0.,0.));
#243=DIRECTION('',(0.,0.,-1.));
#244=DIRECTION('',(1.,0.,0.));
#245=DIRECTION('',(0.,0.,1.));
#246=DIRECTION('',(-1.,0.,0.));
#247=DIRECTION('',(0.,0.,-1.));
#248=DIRECTION('',(-1.,0.,0.));
#249=DIRECTION('',(0.,0.,1.));
#250=DIRECTION('',(-1.,0.,0.));
#251=DIRECTION('',(0.,0.,-1.));
#252=DIRECTION('',(-1.,0.,0.));
#253=DIRECTION('',(0.,0.,-1.));
#254=DIRECTION('',(1.,0.,0.));
#255=DIRECTION('',(0.,0.,-1.));
#256=DIRECTION('',(-1.,0.,0.));
#257=DIRECTION('',(0.,0.,-1.));
#258=DIRECTION('',(1.,0.,0.));
#259=DIRECTION('',(0.,0.,-1.));
#260=DIRECTION('',(1.,0.,0.));
#261=DIRECTION('',(0.,0.,-1.));
#262=DIRECTION('',(-1.,0.,0.));
#263=DIRECTION('',(0.,0.,-1.));
#264=DIRECTION('',(1.,0.,0.));
#265=DIRECTION('',(0.,0.,-1.));
#266=DIRECTION('',(-1.,0.,0.));
#267=DIRECTION('',(0.,0.,-1.));
#268=DIRECTION('',(1.,0.,2.76863597163373E-17));
#269=DIRECTION('',(0.,0.,1.));
#270=DIRECTION('',(1.,0.,0.));
#271=DIRECTION('',(0.,0.,-1.));
#272=DIRECTION('',(1.,0.,0.));
#273=DIRECTION('',(0.,0.,1.));
#274=DIRECTION('',(-1.,0.,0.));
#275=CARTESIAN_POINT('',(0.,0.,0.));
#276=CARTESIAN_POINT('',(0.,0.,0.));
#277=CARTESIAN_POINT('',(0.,-1.06581410364015E-14,36.));
#278=CARTESIAN_POINT('',(0.,-1.06581410364015E-14,-14.));
#279=CARTESIAN_POINT('',(0.,-1.06581410364015E-14,-2.80978057181014));
#280=CARTESIAN_POINT('',(-3.00000000000001,-1.06581410364015E-14,-2.80978057181014));
#281=CARTESIAN_POINT('',(0.,-1.06581410364015E-14,0.));
#282=CARTESIAN_POINT('',(3.00000000000001,-1.06581410364015E-14,0.));
#283=CARTESIAN_POINT('',(0.,-1.06581410364015E-14,-19.));
#284=CARTESIAN_POINT('',(0.,-1.06581410364015E-14,-9.99999999999999));
#285=CARTESIAN_POINT('',(-1.85000000000001,-1.06581410364015E-14,-9.99999999999999));
#286=CARTESIAN_POINT('',(0.,1.85,-9.99999999999999));
#287=CARTESIAN_POINT('',(0.,-1.06581410364015E-14,-5.99999999999999));
#288=CARTESIAN_POINT('',(-1.85000000000001,-1.06581410364015E-14,-5.99999999999999));
#289=CARTESIAN_POINT('',(0.,-1.06581410364015E-14,-19.));
#290=CARTESIAN_POINT('',(0.,-1.04083408558608E-14,-5.99999999999999));
#291=CARTESIAN_POINT('',(0.,0.,0.));
#292=CARTESIAN_POINT('',(0.,-1.06581410364015E-14,-9.99999999999999));
#293=CARTESIAN_POINT('',(-2.00000000000001,-1.06581410364015E-14,-9.99999999999999));
#294=CARTESIAN_POINT('',(0.,2.,-9.99999999999999));
#295=CARTESIAN_POINT('',(0.,-1.06581410364015E-14,-13.8));
#296=CARTESIAN_POINT('',(-2.00000000000001,-1.06581410364015E-14,-13.8));
#297=CARTESIAN_POINT('',(0.,-1.06581410364015E-14,-19.));
#298=CARTESIAN_POINT('',(0.,-1.06581410364015E-14,-14.));
#299=CARTESIAN_POINT('',(-1.80000000000001,-1.06581410364015E-14,-14.));
#300=CARTESIAN_POINT('',(0.,-1.06251812903579E-14,-13.8));
#301=CARTESIAN_POINT('',(0.,-1.06581410364015E-14,-14.));
#302=CARTESIAN_POINT('',(0.,-1.06581410364015E-14,36.));
#303=CARTESIAN_POINT('',(-2.50000000000001,-1.06581410364015E-14,36.));
#304=CARTESIAN_POINT('',(0.,-1.06581410364015E-14,36.));
#305=CARTESIAN_POINT('',(0.,-1.06581410364015E-14,35.5));
#306=CARTESIAN_POINT('',(-3.00000000000001,-1.06581410364015E-14,35.5));
#307=CARTESIAN_POINT('',(0.,-1.06581410364015E-14,36.));
#308=CARTESIAN_POINT('',(0.,-1.06581410364015E-14,0.));
#309=CARTESIAN_POINT('',(3.00000000000001,-1.06581410364015E-14,0.));
#310=CARTESIAN_POINT('',(0.,-1.06581410364015E-14,-19.));
#311=CARTESIAN_POINT('',(0.,0.,0.));
#312=MECHANICAL_DESIGN_GEOMETRIC_PRESENTATION_REPRESENTATION('',(#173,#174,
#175,#176,#177,#178),#313);
#313=(
GEOMETRIC_REPRESENTATION_CONTEXT(3)
GLOBAL_UNCERTAINTY_ASSIGNED_CONTEXT((#314))
GLOBAL_UNIT_ASSIGNED_CONTEXT((#320,#316,#315))
REPRESENTATION_CONTEXT('170040R020','TOP_LEVEL_ASSEMBLY_PART')
);
#314=UNCERTAINTY_MEASURE_WITH_UNIT(LENGTH_MEASURE(2.E-5),#320,
'DISTANCE_ACCURACY_VALUE','Maximum Tolerance applied to model');
#315=(
NAMED_UNIT(*)
SI_UNIT($,.STERADIAN.)
SOLID_ANGLE_UNIT()
);
#316=(
CONVERSION_BASED_UNIT('DEGREE',#318)
NAMED_UNIT(#317)
PLANE_ANGLE_UNIT()
);
#317=DIMENSIONAL_EXPONENTS(0.,0.,0.,0.,0.,0.,0.);
#318=PLANE_ANGLE_MEASURE_WITH_UNIT(PLANE_ANGLE_MEASURE(0.0174532925),#319);
#319=(
NAMED_UNIT(*)
PLANE_ANGLE_UNIT()
SI_UNIT($,.RADIAN.)
);
#320=(
LENGTH_UNIT()
NAMED_UNIT(*)
SI_UNIT(.MILLI.,.METRE.)
);
ENDSEC;
END-ISO-10303-21;
